ISO-10303-21;
HEADER;
FILE_DESCRIPTION (( 'STEP AP214' ),
    '1' );
FILE_NAME ('83313.STEP',
    '2023-06-23T09:22:56',
    ( '' ),
    ( '' ),
    'SwSTEP 2.0',
    'SolidWorks 2023',
    '' );
FILE_SCHEMA (( 'AUTOMOTIVE_DESIGN' ));
ENDSEC;

DATA;
#1 =( CONVERSION_BASED_UNIT ( 'INCH', #131 ) LENGTH_UNIT ( ) NAMED_UNIT ( #280 ) );
#2 = DIRECTION ( 'NONE',  ( 0.000000000000000000, 1.000000000000000000, 0.000000000000000000 ) ) ;
#3 = DIRECTION ( 'NONE',  ( 0.000000000000000000, -0.000000000000000000, 1.000000000000000000 ) ) ;
#4 = ORIENTED_EDGE ( 'NONE', *, *, #249, .T. ) ;
#5 = FACE_OUTER_BOUND ( 'NONE', #81, .T. ) ;
#6 = ORIENTED_EDGE ( 'NONE', *, *, #47, .T. ) ;
#7 =( NAMED_UNIT ( * ) PLANE_ANGLE_UNIT ( ) SI_UNIT ( $, .RADIAN. ) );
#8 = DIRECTION ( 'NONE',  ( -0.000000000000000000, -1.000000000000000000, -0.000000000000000000 ) ) ;
#9 = ORIENTED_EDGE ( 'NONE', *, *, #216, .T. ) ;
#10 = FACE_OUTER_BOUND ( 'NONE', #37, .T. ) ;
#11 = EDGE_LOOP ( 'NONE', ( #107, #103, #119, #244 ) ) ;
#12 = PRESENTATION_LAYER_ASSIGNMENT (  '', '', ( #279 ) ) ;
#13 = DIRECTION ( 'NONE',  ( -0.000000000000000000, -1.000000000000000000, -0.000000000000000000 ) ) ;
#14 = LINE ( 'NONE', #278, #202 ) ;
#15 = PRESENTATION_STYLE_ASSIGNMENT (( #282 ) ) ;
#16 = CLOSED_SHELL ( 'NONE', ( #84, #180, #190, #241 ) ) ;
#17 = STYLED_ITEM ( 'NONE', ( #303 ), #193 ) ;
#18 = SURFACE_STYLE_USAGE ( .BOTH. , #21 ) ;
#19 = DIRECTION ( 'NONE',  ( 1.000000000000000000, 3.265724797726272713E-17, 0.000000000000000000 ) ) ;
#20 = DIRECTION ( 'NONE',  ( -1.000000000000000000, 0.000000000000000000, 0.000000000000000000 ) ) ;
#21 = SURFACE_SIDE_STYLE ('',( #236 ) ) ;
#22 = VECTOR ( 'NONE', #128, 39.37007874015748143 ) ;
#23 = PRESENTATION_LAYER_ASSIGNMENT (  '', '', ( #293 ) ) ;
#24 = LENGTH_MEASURE_WITH_UNIT ( LENGTH_MEASURE( 0.02539999999999999897 ), #182 );
#25 = SURFACE_STYLE_USAGE ( .BOTH. , #295 ) ;
#26 = EDGE_CURVE ( 'NONE', #167, #36, #80, .T. ) ;
#27 = SURFACE_STYLE_USAGE ( .BOTH. , #50 ) ;
#28 = CARTESIAN_POINT ( 'NONE',  ( 0.000000000000000000, 1.625000000000000000, 0.000000000000000000 ) ) ;
#29 = ORIENTED_EDGE ( 'NONE', *, *, #42, .F. ) ;
#30 = MECHANICAL_DESIGN_GEOMETRIC_PRESENTATION_REPRESENTATION (  '', ( #94 ), #110 ) ;
#31 = CIRCLE ( 'NONE', #38, 0.3125000000000000000 ) ;
#32 = DIRECTION ( 'NONE',  ( -0.000000000000000000, -1.000000000000000000, -0.000000000000000000 ) ) ;
#33 = DIRECTION ( 'NONE',  ( -1.000000000000000000, 0.000000000000000000, 0.000000000000000000 ) ) ;
#34 = CARTESIAN_POINT ( 'NONE',  ( -0.3125000000000000555, 3.500000000000000000, 0.000000000000000000 ) ) ;
#35 = FILL_AREA_STYLE ('',( #152 ) ) ;
#36 = VERTEX_POINT ( 'NONE', #141 ) ;
#37 = EDGE_LOOP ( 'NONE', ( #269, #197 ) ) ;
#38 = AXIS2_PLACEMENT_3D ( 'NONE', #72, #237, #20 ) ;
#39 = UNCERTAINTY_MEASURE_WITH_UNIT (LENGTH_MEASURE( 1.000000000000000082E-05 ), #168, 'distance_accuracy_value', 'NONE');
#40 = CARTESIAN_POINT ( 'NONE',  ( 0.000000000000000000, 0.000000000000000000, 0.000000000000000000 ) ) ;
#41 = CARTESIAN_POINT ( 'NONE',  ( 3.827021247335478926E-17, 1.625000000000000000, 0.3125000000000000000 ) ) ;
#42 = EDGE_CURVE ( 'NONE', #144, #299, #302, .T. ) ;
#43 = FILL_AREA_STYLE_COLOUR ( '', #208 ) ;
#44 =( GEOMETRIC_REPRESENTATION_CONTEXT ( 3 ) GLOBAL_UNCERTAINTY_ASSIGNED_CONTEXT ( ( #63 ) ) GLOBAL_UNIT_ASSIGNED_CONTEXT ( ( #1, #66, #287 ) ) REPRESENTATION_CONTEXT ( 'NONE', 'WORKASPACE' ) );
#45 = CIRCLE ( 'NONE', #218, 0.3125000000000000000 ) ;
#46 = FACE_OUTER_BOUND ( 'NONE', #98, .T. ) ;
#47 = EDGE_CURVE ( 'NONE', #172, #170, #55, .T. ) ;
#48 =( NAMED_UNIT ( * ) SI_UNIT ( $, .STERADIAN. ) SOLID_ANGLE_UNIT ( ) );
#49 = CARTESIAN_POINT ( 'NONE',  ( 0.000000000000000000, 1.625000000000000000, 0.000000000000000000 ) ) ;
#50 = SURFACE_SIDE_STYLE ('',( #162 ) ) ;
#51 = PRESENTATION_LAYER_ASSIGNMENT (  '', '', ( #137 ) ) ;
#52 = SURFACE_STYLE_FILL_AREA ( #267 ) ;
#53 = VERTEX_POINT ( 'NONE', #228 ) ;
#54 = ORIENTED_EDGE ( 'NONE', *, *, #134, .F. ) ;
#55 = CIRCLE ( 'NONE', #184, 0.3125000000000000000 ) ;
#56 =( GEOMETRIC_REPRESENTATION_CONTEXT ( 3 ) GLOBAL_UNCERTAINTY_ASSIGNED_CONTEXT ( ( #39 ) ) GLOBAL_UNIT_ASSIGNED_CONTEXT ( ( #168, #60, #173 ) ) REPRESENTATION_CONTEXT ( 'NONE', 'WORKASPACE' ) );
#57 = EDGE_LOOP ( 'NONE', ( #148, #174 ) ) ;
#58 = DIRECTION ( 'NONE',  ( -3.265724797726272713E-17, 1.000000000000000000, -0.000000000000000000 ) ) ;
#59 = ORIENTED_EDGE ( 'NONE', *, *, #195, .T. ) ;
#60 =( NAMED_UNIT ( * ) PLANE_ANGLE_UNIT ( ) SI_UNIT ( $, .RADIAN. ) );
#61 = SURFACE_STYLE_FILL_AREA ( #109 ) ;
#62 = ADVANCED_FACE ( 'NONE', ( #121 ), #223, .F. ) ;
#63 = UNCERTAINTY_MEASURE_WITH_UNIT (LENGTH_MEASURE( 1.000000000000000082E-05 ), #1, 'distance_accuracy_value', 'NONE');
#64 = DIRECTION ( 'NONE',  ( -1.000000000000000000, 0.000000000000000000, 0.000000000000000000 ) ) ;
#65 = DIMENSIONAL_EXPONENTS ( 1.000000000000000000, 0.000000000000000000, 0.000000000000000000, 0.000000000000000000, 0.000000000000000000, 0.000000000000000000, 0.000000000000000000 ) ;
#66 =( NAMED_UNIT ( * ) PLANE_ANGLE_UNIT ( ) SI_UNIT ( $, .RADIAN. ) );
#67 = PRODUCT ( '83313', '83313', '', ( #187 ) ) ;
#68 =( LENGTH_UNIT ( ) NAMED_UNIT ( * ) SI_UNIT ( $, .METRE. ) );
#69 = AXIS2_PLACEMENT_3D ( 'NONE', #251, #273, #83 ) ;
#70 = FACE_OUTER_BOUND ( 'NONE', #274, .T. ) ;
#71 = CARTESIAN_POINT ( 'NONE',  ( 0.000000000000000000, 0.000000000000000000, -0.3125000000000000000 ) ) ;
#72 = CARTESIAN_POINT ( 'NONE',  ( 7.582401355855259480E-33, 1.625000000000000000, 0.000000000000000000 ) ) ;
#73 = AXIS2_PLACEMENT_3D ( 'NONE', #169, #8, #124 ) ;
#74 = FACE_OUTER_BOUND ( 'NONE', #57, .T. ) ;
#75 = PRESENTATION_LAYER_ASSIGNMENT (  '', '', ( #94 ) ) ;
#76 = ORIENTED_EDGE ( 'NONE', *, *, #212, .F. ) ;
#77 = ORIENTED_EDGE ( 'NONE', *, *, #160, .T. ) ;
#78 = COLOUR_RGB ( '',1.000000000000000000, 0.000000000000000000, 0.000000000000000000 ) ;
#79 = ADVANCED_FACE ( 'NONE', ( #97 ), #194, .F. ) ;
#80 = LINE ( 'NONE', #248, #22 ) ;
#81 = EDGE_LOOP ( 'NONE', ( #76, #77, #226, #297 ) ) ;
#82 = FILL_AREA_STYLE_COLOUR ( '', #177 ) ;
#83 = DIRECTION ( 'NONE',  ( 0.000000000000000000, 0.000000000000000000, -1.000000000000000000 ) ) ;
#84 = ADVANCED_FACE ( 'NONE', ( #70 ), #235, .T. ) ;
#85 = CARTESIAN_POINT ( 'NONE',  ( 7.582401355855259480E-33, 1.625000000000000000, 0.000000000000000000 ) ) ;
#86 = CIRCLE ( 'NONE', #73, 0.3125000000000000000 ) ;
#87 = PRODUCT_DEFINITION_CONTEXT ( 'detailed design', #108, 'design' ) ;
#88 = CARTESIAN_POINT ( 'NONE',  ( 0.3125000000000000000, 3.500000000000000000, 0.000000000000000000 ) ) ;
#89 =( GEOMETRIC_REPRESENTATION_CONTEXT ( 3 ) GLOBAL_UNCERTAINTY_ASSIGNED_CONTEXT ( ( #229 ) ) GLOBAL_UNIT_ASSIGNED_CONTEXT ( ( #209, #259, #240 ) ) REPRESENTATION_CONTEXT ( 'NONE', 'WORKASPACE' ) );
#90 = APPLICATION_CONTEXT ( 'automotive_design' ) ;
#91 = DIRECTION ( 'NONE',  ( 0.000000000000000000, 0.000000000000000000, -1.000000000000000000 ) ) ;
#92 = AXIS2_PLACEMENT_3D ( 'NONE', #276, #200, #252 ) ;
#93 =( CONVERSION_BASED_UNIT ( 'INCH', #24 ) LENGTH_UNIT ( ) NAMED_UNIT ( #153 ) );
#94 = STYLED_ITEM ( 'NONE', ( #15 ), #84 ) ;
#95 = EDGE_CURVE ( 'NONE', #146, #53, #45, .T. ) ;
#96 = DIRECTION ( 'NONE',  ( -1.000000000000000000, 0.000000000000000000, 0.000000000000000000 ) ) ;
#97 = FACE_OUTER_BOUND ( 'NONE', #204, .T. ) ;
#98 = EDGE_LOOP ( 'NONE', ( #4, #294, #100, #29 ) ) ;
#99 = FILL_AREA_STYLE ('',( #243 ) ) ;
#100 = ORIENTED_EDGE ( 'NONE', *, *, #195, .F. ) ;
#101 =( LENGTH_UNIT ( ) NAMED_UNIT ( * ) SI_UNIT ( $, .METRE. ) );
#102 = PRODUCT_DEFINITION ( 'UNKNOWN', '', #143, #87 ) ;
#103 = ORIENTED_EDGE ( 'NONE', *, *, #134, .T. ) ;
#104 = SURFACE_SIDE_STYLE ('',( #199 ) ) ;
#105 = AXIS2_PLACEMENT_3D ( 'NONE', #255, #111, #210 ) ;
#106 = PRESENTATION_LAYER_ASSIGNMENT (  '', '', ( #222 ) ) ;
#107 = ORIENTED_EDGE ( 'NONE', *, *, #26, .F. ) ;
#108 = APPLICATION_CONTEXT ( 'automotive_design' ) ;
#109 = FILL_AREA_STYLE ('',( #82 ) ) ;
#110 =( GEOMETRIC_REPRESENTATION_CONTEXT ( 3 ) GLOBAL_UNCERTAINTY_ASSIGNED_CONTEXT ( ( #308 ) ) GLOBAL_UNIT_ASSIGNED_CONTEXT ( ( #277, #176, #178 ) ) REPRESENTATION_CONTEXT ( 'NONE', 'WORKASPACE' ) );
#111 = DIRECTION ( 'NONE',  ( -0.000000000000000000, -1.000000000000000000, -0.000000000000000000 ) ) ;
#112 = DIRECTION ( 'NONE',  ( -1.000000000000000000, 0.000000000000000000, 0.000000000000000000 ) ) ;
#113 = AXIS2_PLACEMENT_3D ( 'NONE', #28, #116, #257 ) ;
#114 = MECHANICAL_DESIGN_GEOMETRIC_PRESENTATION_REPRESENTATION (  '', ( #222 ), #44 ) ;
#115 = PRESENTATION_LAYER_ASSIGNMENT (  '', '', ( #17 ) ) ;
#116 = DIRECTION ( 'NONE',  ( -0.000000000000000000, -1.000000000000000000, -0.000000000000000000 ) ) ;
#117 =( NAMED_UNIT ( * ) SI_UNIT ( $, .STERADIAN. ) SOLID_ANGLE_UNIT ( ) );
#118 = ADVANCED_BREP_SHAPE_REPRESENTATION ( '83313', ( #193, #301, #261 ), #254 ) ;
#119 = ORIENTED_EDGE ( 'NONE', *, *, #42, .T. ) ;
#120 = AXIS2_PLACEMENT_3D ( 'NONE', #258, #283, #112 ) ;
#121 = FACE_OUTER_BOUND ( 'NONE', #220, .T. ) ;
#122 = DIRECTION ( 'NONE',  ( -3.265724797726272713E-17, 1.000000000000000000, -0.000000000000000000 ) ) ;
#123 = LINE ( 'NONE', #126, #163 ) ;
#124 = DIRECTION ( 'NONE',  ( 0.000000000000000000, 0.000000000000000000, -1.000000000000000000 ) ) ;
#125 = ORIENTED_EDGE ( 'NONE', *, *, #203, .F. ) ;
#126 = CARTESIAN_POINT ( 'NONE',  ( 0.000000000000000000, 0.000000000000000000, -0.3125000000000000000 ) ) ;
#127 = CIRCLE ( 'NONE', #113, 0.3125000000000000000 ) ;
#128 = DIRECTION ( 'NONE',  ( -3.265724797726272713E-17, 1.000000000000000000, -0.000000000000000000 ) ) ;
#129 = DIRECTION ( 'NONE',  ( -0.000000000000000000, -1.000000000000000000, -0.000000000000000000 ) ) ;
#130 = CIRCLE ( 'NONE', #213, 0.3125000000000000000 ) ;
#131 = LENGTH_MEASURE_WITH_UNIT ( LENGTH_MEASURE( 0.02539999999999999897 ), #214 );
#132 = DIMENSIONAL_EXPONENTS ( 1.000000000000000000, 0.000000000000000000, 0.000000000000000000, 0.000000000000000000, 0.000000000000000000, 0.000000000000000000, 0.000000000000000000 ) ;
#133 = CARTESIAN_POINT ( 'NONE',  ( 0.3125000000000000000, 1.625000000000000000, 3.827021247335478926E-17 ) ) ;
#134 = EDGE_CURVE ( 'NONE', #167, #144, #130, .T. ) ;
#135 = CARTESIAN_POINT ( 'NONE',  ( -6.123233995736759873E-17, 3.500000000000000000, 0.000000000000000000 ) ) ;
#136 = CIRCLE ( 'NONE', #264, 0.3125000000000000555 ) ;
#137 = STYLED_ITEM ( 'NONE', ( #304 ), #241 ) ;
#138 =( CONVERSION_BASED_UNIT ( 'INCH', #140 ) LENGTH_UNIT ( ) NAMED_UNIT ( #65 ) );
#139 = ORIENTED_EDGE ( 'NONE', *, *, #212, .T. ) ;
#140 = LENGTH_MEASURE_WITH_UNIT ( LENGTH_MEASURE( 0.02539999999999999897 ), #265 );
#141 = CARTESIAN_POINT ( 'NONE',  ( 0.3125000000000000000, 3.500000000000000000, 3.827021247335478926E-17 ) ) ;
#142 = AXIS2_PLACEMENT_3D ( 'NONE', #49, #2, #3 ) ;
#143 = PRODUCT_DEFINITION_FORMATION_WITH_SPECIFIED_SOURCE ( 'ANY', '', #67, .NOT_KNOWN. ) ;
#144 = VERTEX_POINT ( 'NONE', #186 ) ;
#145 = CARTESIAN_POINT ( 'NONE',  ( -6.123233995736759873E-17, 3.500000000000000000, 0.000000000000000000 ) ) ;
#146 = VERTEX_POINT ( 'NONE', #71 ) ;
#147 = ADVANCED_FACE ( 'NONE', ( #46 ), #191, .T. ) ;
#148 = ORIENTED_EDGE ( 'NONE', *, *, #47, .F. ) ;
#149 = LENGTH_MEASURE_WITH_UNIT ( LENGTH_MEASURE( 0.02539999999999999897 ), #166 );
#150 = COLOUR_RGB ( '',1.000000000000000000, 0.000000000000000000, 0.000000000000000000 ) ;
#151 = UNCERTAINTY_MEASURE_WITH_UNIT (LENGTH_MEASURE( 1.000000000000000082E-05 ), #198, 'distance_accuracy_value', 'NONE');
#152 = FILL_AREA_STYLE_COLOUR ( '', #207 ) ;
#153 = DIMENSIONAL_EXPONENTS ( 1.000000000000000000, 0.000000000000000000, 0.000000000000000000, 0.000000000000000000, 0.000000000000000000, 0.000000000000000000, 0.000000000000000000 ) ;
#154 = EDGE_CURVE ( 'NONE', #53, #146, #86, .T. ) ;
#155 = AXIS2_PLACEMENT_3D ( 'NONE', #171, #58, #270 ) ;
#156 = SURFACE_STYLE_FILL_AREA ( #284 ) ;
#157 = CARTESIAN_POINT ( 'NONE',  ( -0.3125000000000001665, 3.500000000000000000, 0.000000000000000000 ) ) ;
#158 = AXIS2_PLACEMENT_3D ( 'NONE', #135, #239, #96 ) ;
#159 = FILL_AREA_STYLE_COLOUR ( '', #150 ) ;
#160 = EDGE_CURVE ( 'NONE', #170, #172, #127, .T. ) ;
#161 =( NAMED_UNIT ( * ) PLANE_ANGLE_UNIT ( ) SI_UNIT ( $, .RADIAN. ) );
#162 = SURFACE_STYLE_FILL_AREA ( #99 ) ;
#163 = VECTOR ( 'NONE', #227, 39.37007874015748143 ) ;
#164 = CARTESIAN_POINT ( 'NONE',  ( 0.000000000000000000, 1.625000000000000000, -0.3125000000000000000 ) ) ;
#165 = DIRECTION ( 'NONE',  ( 0.000000000000000000, 0.000000000000000000, -1.000000000000000000 ) ) ;
#166 =( LENGTH_UNIT ( ) NAMED_UNIT ( * ) SI_UNIT ( $, .METRE. ) );
#167 = VERTEX_POINT ( 'NONE', #133 ) ;
#168 =( CONVERSION_BASED_UNIT ( 'INCH', #201 ) LENGTH_UNIT ( ) NAMED_UNIT ( #275 ) );
#169 = CARTESIAN_POINT ( 'NONE',  ( 0.000000000000000000, 0.000000000000000000, 0.000000000000000000 ) ) ;
#170 = VERTEX_POINT ( 'NONE', #41 ) ;
#171 = CARTESIAN_POINT ( 'NONE',  ( -6.123233995736759873E-17, 3.500000000000000000, 0.000000000000000000 ) ) ;
#172 = VERTEX_POINT ( 'NONE', #164 ) ;
#173 =( NAMED_UNIT ( * ) SI_UNIT ( $, .STERADIAN. ) SOLID_ANGLE_UNIT ( ) );
#174 = ORIENTED_EDGE ( 'NONE', *, *, #160, .F. ) ;
#175 = SURFACE_SIDE_STYLE ('',( #61 ) ) ;
#176 =( NAMED_UNIT ( * ) PLANE_ANGLE_UNIT ( ) SI_UNIT ( $, .RADIAN. ) );
#177 = COLOUR_RGB ( '',1.000000000000000000, 0.000000000000000000, 0.000000000000000000 ) ;
#178 =( NAMED_UNIT ( * ) SI_UNIT ( $, .STERADIAN. ) SOLID_ANGLE_UNIT ( ) );
#179 = DIRECTION ( 'NONE',  ( 0.000000000000000000, -1.000000000000000000, -0.000000000000000000 ) ) ;
#180 = ADVANCED_FACE ( 'NONE', ( #74 ), #245, .T. ) ;
#181 = LENGTH_MEASURE_WITH_UNIT ( LENGTH_MEASURE( 0.02539999999999999897 ), #68 );
#182 =( LENGTH_UNIT ( ) NAMED_UNIT ( * ) SI_UNIT ( $, .METRE. ) );
#183 = PRODUCT_DEFINITION_SHAPE ( 'NONE', 'NONE',  #102 ) ;
#184 = AXIS2_PLACEMENT_3D ( 'NONE', #246, #32, #165 ) ;
#185 = PRODUCT_RELATED_PRODUCT_CATEGORY ( 'part', '', ( #67 ) ) ;
#186 = CARTESIAN_POINT ( 'NONE',  ( -0.3125000000000000000, 1.625000000000000000, 0.000000000000000000 ) ) ;
#187 = PRODUCT_CONTEXT ( 'NONE', #90, 'mechanical' ) ;
#188 = VECTOR ( 'NONE', #122, 39.37007874015748143 ) ;
#189 = SHAPE_DEFINITION_REPRESENTATION ( #183, #118 ) ;
#190 = ADVANCED_FACE ( 'NONE', ( #5 ), #221, .T. ) ;
#191 = CYLINDRICAL_SURFACE ( 'NONE', #158, 0.3125000000000000000 ) ;
#192 = APPLICATION_PROTOCOL_DEFINITION ( 'draft international standard', 'automotive_design', 1998, #90 ) ;
#193 = MANIFOLD_SOLID_BREP ( 'Revolve - Cutting Edge', #16 ) ;
#194 = PLANE ( 'NONE',  #271 ) ;
#195 = EDGE_CURVE ( 'NONE', #299, #36, #300, .T. ) ;
#196 = MECHANICAL_DESIGN_GEOMETRIC_PRESENTATION_REPRESENTATION (  '', ( #293 ), #234 ) ;
#197 = ORIENTED_EDGE ( 'NONE', *, *, #154, .T. ) ;
#198 =( CONVERSION_BASED_UNIT ( 'INCH', #149 ) LENGTH_UNIT ( ) NAMED_UNIT ( #256 ) );
#199 = SURFACE_STYLE_FILL_AREA ( #35 ) ;
#200 = DIRECTION ( 'NONE',  ( -3.265724797726272713E-17, 1.000000000000000000, 0.000000000000000000 ) ) ;
#201 = LENGTH_MEASURE_WITH_UNIT ( LENGTH_MEASURE( 0.02539999999999999897 ), #101 );
#202 = VECTOR ( 'NONE', #13, 39.37007874015748143 ) ;
#203 = EDGE_CURVE ( 'NONE', #172, #146, #123, .T. ) ;
#204 = EDGE_LOOP ( 'NONE', ( #59, #9 ) ) ;
#205 = PLANE ( 'NONE',  #266 ) ;
#206 = SURFACE_STYLE_USAGE ( .BOTH. , #175 ) ;
#207 = COLOUR_RGB ( '',0.7921568627450980005, 0.8196078431372548767, 0.9333333333333333481 ) ;
#208 = COLOUR_RGB ( '',0.7921568627450980005, 0.8196078431372548767, 0.9333333333333333481 ) ;
#209 =( CONVERSION_BASED_UNIT ( 'INCH', #296 ) LENGTH_UNIT ( ) NAMED_UNIT ( #132 ) );
#210 = DIRECTION ( 'NONE',  ( 0.000000000000000000, 0.000000000000000000, -1.000000000000000000 ) ) ;
#211 = CYLINDRICAL_SURFACE ( 'NONE', #120, 0.3125000000000000000 ) ;
#212 = EDGE_CURVE ( 'NONE', #170, #53, #14, .T. ) ;
#213 = AXIS2_PLACEMENT_3D ( 'NONE', #85, #281, #64 ) ;
#214 =( LENGTH_UNIT ( ) NAMED_UNIT ( * ) SI_UNIT ( $, .METRE. ) );
#215 = DIRECTION ( 'NONE',  ( 1.000000000000000000, 0.000000000000000000, 0.000000000000000000 ) ) ;
#216 = EDGE_CURVE ( 'NONE', #36, #299, #136, .T. ) ;
#217 = CLOSED_SHELL ( 'NONE', ( #147, #62, #307, #79 ) ) ;
#218 = AXIS2_PLACEMENT_3D ( 'NONE', #40, #129, #305 ) ;
#219 = PRESENTATION_STYLE_ASSIGNMENT (( #27 ) ) ;
#220 = EDGE_LOOP ( 'NONE', ( #268, #54 ) ) ;
#221 = CYLINDRICAL_SURFACE ( 'NONE', #69, 0.3125000000000000000 ) ;
#222 = STYLED_ITEM ( 'NONE', ( #263 ), #301 ) ;
#223 = PLANE ( 'NONE',  #92 ) ;
#224 = DIRECTION ( 'NONE',  ( -3.265724797726272713E-17, 1.000000000000000000, -0.000000000000000000 ) ) ;
#225 = UNCERTAINTY_MEASURE_WITH_UNIT (LENGTH_MEASURE( 1.000000000000000082E-05 ), #138, 'distance_accuracy_value', 'NONE');
#226 = ORIENTED_EDGE ( 'NONE', *, *, #203, .T. ) ;
#227 = DIRECTION ( 'NONE',  ( -0.000000000000000000, -1.000000000000000000, -0.000000000000000000 ) ) ;
#228 = CARTESIAN_POINT ( 'NONE',  ( 3.827021247335478926E-17, 0.000000000000000000, 0.3125000000000000000 ) ) ;
#229 = UNCERTAINTY_MEASURE_WITH_UNIT (LENGTH_MEASURE( 1.000000000000000082E-05 ), #209, 'distance_accuracy_value', 'NONE');
#230 = FILL_AREA_STYLE_COLOUR ( '', #78 ) ;
#231 = DIMENSIONAL_EXPONENTS ( 1.000000000000000000, 0.000000000000000000, 0.000000000000000000, 0.000000000000000000, 0.000000000000000000, 0.000000000000000000, 0.000000000000000000 ) ;
#232 =( LENGTH_UNIT ( ) NAMED_UNIT ( * ) SI_UNIT ( $, .METRE. ) );
#233 = SURFACE_SIDE_STYLE ('',( #156 ) ) ;
#234 =( GEOMETRIC_REPRESENTATION_CONTEXT ( 3 ) GLOBAL_UNCERTAINTY_ASSIGNED_CONTEXT ( ( #225 ) ) GLOBAL_UNIT_ASSIGNED_CONTEXT ( ( #138, #292, #117 ) ) REPRESENTATION_CONTEXT ( 'NONE', 'WORKASPACE' ) );
#235 = CYLINDRICAL_SURFACE ( 'NONE', #105, 0.3125000000000000000 ) ;
#236 = SURFACE_STYLE_FILL_AREA ( #286 ) ;
#237 = DIRECTION ( 'NONE',  ( -3.265724797726272713E-17, 1.000000000000000000, -0.000000000000000000 ) ) ;
#238 = COLOUR_RGB ( '',1.000000000000000000, 0.000000000000000000, 0.000000000000000000 ) ;
#239 = DIRECTION ( 'NONE',  ( -3.265724797726272713E-17, 1.000000000000000000, -0.000000000000000000 ) ) ;
#240 =( NAMED_UNIT ( * ) SI_UNIT ( $, .STERADIAN. ) SOLID_ANGLE_UNIT ( ) );
#241 = ADVANCED_FACE ( 'NONE', ( #10 ), #205, .T. ) ;
#242 = DIRECTION ( 'NONE',  ( 0.000000000000000000, 0.000000000000000000, 1.000000000000000000 ) ) ;
#243 = FILL_AREA_STYLE_COLOUR ( '', #238 ) ;
#244 = ORIENTED_EDGE ( 'NONE', *, *, #216, .F. ) ;
#245 = PLANE ( 'NONE',  #142 ) ;
#246 = CARTESIAN_POINT ( 'NONE',  ( 0.000000000000000000, 1.625000000000000000, 0.000000000000000000 ) ) ;
#247 =( NAMED_UNIT ( * ) SI_UNIT ( $, .STERADIAN. ) SOLID_ANGLE_UNIT ( ) );
#248 = CARTESIAN_POINT ( 'NONE',  ( 0.3124999999999999445, 3.500000000000000000, 3.827021247335478926E-17 ) ) ;
#249 = EDGE_CURVE ( 'NONE', #144, #167, #31, .T. ) ;
#250 = ORIENTED_EDGE ( 'NONE', *, *, #95, .F. ) ;
#251 = CARTESIAN_POINT ( 'NONE',  ( 0.000000000000000000, 0.000000000000000000, 0.000000000000000000 ) ) ;
#252 = DIRECTION ( 'NONE',  ( -1.000000000000000000, -3.265724797726272713E-17, 0.000000000000000000 ) ) ;
#253 = MECHANICAL_DESIGN_GEOMETRIC_PRESENTATION_REPRESENTATION (  '', ( #279 ), #260 ) ;
#254 =( GEOMETRIC_REPRESENTATION_CONTEXT ( 3 ) GLOBAL_UNCERTAINTY_ASSIGNED_CONTEXT ( ( #288 ) ) GLOBAL_UNIT_ASSIGNED_CONTEXT ( ( #93, #161, #48 ) ) REPRESENTATION_CONTEXT ( 'NONE', 'WORKASPACE' ) );
#255 = CARTESIAN_POINT ( 'NONE',  ( 0.000000000000000000, 0.000000000000000000, 0.000000000000000000 ) ) ;
#256 = DIMENSIONAL_EXPONENTS ( 1.000000000000000000, 0.000000000000000000, 0.000000000000000000, 0.000000000000000000, 0.000000000000000000, 0.000000000000000000, 0.000000000000000000 ) ;
#257 = DIRECTION ( 'NONE',  ( 0.000000000000000000, 0.000000000000000000, -1.000000000000000000 ) ) ;
#258 = CARTESIAN_POINT ( 'NONE',  ( -6.123233995736759873E-17, 3.500000000000000000, 0.000000000000000000 ) ) ;
#259 =( NAMED_UNIT ( * ) PLANE_ANGLE_UNIT ( ) SI_UNIT ( $, .RADIAN. ) );
#260 =( GEOMETRIC_REPRESENTATION_CONTEXT ( 3 ) GLOBAL_UNCERTAINTY_ASSIGNED_CONTEXT ( ( #151 ) ) GLOBAL_UNIT_ASSIGNED_CONTEXT ( ( #198, #7, #247 ) ) REPRESENTATION_CONTEXT ( 'NONE', 'WORKASPACE' ) );
#261 = AXIS2_PLACEMENT_3D ( 'NONE', #291, #242, #215 ) ;
#262 = CARTESIAN_POINT ( 'NONE',  ( 0.000000000000000000, 0.000000000000000000, 0.000000000000000000 ) ) ;
#263 = PRESENTATION_STYLE_ASSIGNMENT (( #18 ) ) ;
#264 = AXIS2_PLACEMENT_3D ( 'NONE', #145, #224, #33 ) ;
#265 =( LENGTH_UNIT ( ) NAMED_UNIT ( * ) SI_UNIT ( $, .METRE. ) );
#266 = AXIS2_PLACEMENT_3D ( 'NONE', #262, #179, #91 ) ;
#267 = FILL_AREA_STYLE ('',( #159 ) ) ;
#268 = ORIENTED_EDGE ( 'NONE', *, *, #249, .F. ) ;
#269 = ORIENTED_EDGE ( 'NONE', *, *, #95, .T. ) ;
#270 = DIRECTION ( 'NONE',  ( -1.000000000000000000, 0.000000000000000000, 0.000000000000000000 ) ) ;
#271 = AXIS2_PLACEMENT_3D ( 'NONE', #88, #285, #19 ) ;
#272 = MECHANICAL_DESIGN_GEOMETRIC_PRESENTATION_REPRESENTATION (  '', ( #17 ), #56 ) ;
#273 = DIRECTION ( 'NONE',  ( -0.000000000000000000, -1.000000000000000000, -0.000000000000000000 ) ) ;
#274 = EDGE_LOOP ( 'NONE', ( #6, #139, #250, #125 ) ) ;
#275 = DIMENSIONAL_EXPONENTS ( 1.000000000000000000, 0.000000000000000000, 0.000000000000000000, 0.000000000000000000, 0.000000000000000000, 0.000000000000000000, 0.000000000000000000 ) ;
#276 = CARTESIAN_POINT ( 'NONE',  ( 1.666399758513172697E-34, 1.625000000000000000, 0.000000000000000000 ) ) ;
#277 =( CONVERSION_BASED_UNIT ( 'INCH', #181 ) LENGTH_UNIT ( ) NAMED_UNIT ( #231 ) );
#278 = CARTESIAN_POINT ( 'NONE',  ( 3.827021247335478926E-17, 0.000000000000000000, 0.3125000000000000000 ) ) ;
#279 = STYLED_ITEM ( 'NONE', ( #219 ), #190 ) ;
#280 = DIMENSIONAL_EXPONENTS ( 1.000000000000000000, 0.000000000000000000, 0.000000000000000000, 0.000000000000000000, 0.000000000000000000, 0.000000000000000000, 0.000000000000000000 ) ;
#281 = DIRECTION ( 'NONE',  ( -3.265724797726272713E-17, 1.000000000000000000, -0.000000000000000000 ) ) ;
#282 = SURFACE_STYLE_USAGE ( .BOTH. , #233 ) ;
#283 = DIRECTION ( 'NONE',  ( -3.265724797726272713E-17, 1.000000000000000000, -0.000000000000000000 ) ) ;
#284 = FILL_AREA_STYLE ('',( #230 ) ) ;
#285 = DIRECTION ( 'NONE',  ( 3.265724797726272713E-17, -1.000000000000000000, 0.000000000000000000 ) ) ;
#286 = FILL_AREA_STYLE ('',( #43 ) ) ;
#287 =( NAMED_UNIT ( * ) SI_UNIT ( $, .STERADIAN. ) SOLID_ANGLE_UNIT ( ) );
#288 = UNCERTAINTY_MEASURE_WITH_UNIT (LENGTH_MEASURE( 1.000000000000000082E-05 ), #93, 'distance_accuracy_value', 'NONE');
#289 = APPLICATION_PROTOCOL_DEFINITION ( 'draft international standard', 'automotive_design', 1998, #108 ) ;
#290 = PRESENTATION_STYLE_ASSIGNMENT (( #25 ) ) ;
#291 = CARTESIAN_POINT ( 'NONE',  ( 0.000000000000000000, 0.000000000000000000, 0.000000000000000000 ) ) ;
#292 =( NAMED_UNIT ( * ) PLANE_ANGLE_UNIT ( ) SI_UNIT ( $, .RADIAN. ) );
#293 = STYLED_ITEM ( 'NONE', ( #290 ), #180 ) ;
#294 = ORIENTED_EDGE ( 'NONE', *, *, #26, .T. ) ;
#295 = SURFACE_SIDE_STYLE ('',( #52 ) ) ;
#296 = LENGTH_MEASURE_WITH_UNIT ( LENGTH_MEASURE( 0.02539999999999999897 ), #232 );
#297 = ORIENTED_EDGE ( 'NONE', *, *, #154, .F. ) ;
#298 = SURFACE_STYLE_USAGE ( .BOTH. , #104 ) ;
#299 = VERTEX_POINT ( 'NONE', #157 ) ;
#300 = CIRCLE ( 'NONE', #155, 0.3125000000000000555 ) ;
#301 = MANIFOLD_SOLID_BREP ( 'Revolve - Tool Body (Straight Shanked)', #217 ) ;
#302 = LINE ( 'NONE', #34, #188 ) ;
#303 = PRESENTATION_STYLE_ASSIGNMENT (( #298 ) ) ;
#304 = PRESENTATION_STYLE_ASSIGNMENT (( #206 ) ) ;
#305 = DIRECTION ( 'NONE',  ( 0.000000000000000000, 0.000000000000000000, -1.000000000000000000 ) ) ;
#306 = MECHANICAL_DESIGN_GEOMETRIC_PRESENTATION_REPRESENTATION (  '', ( #137 ), #89 ) ;
#307 = ADVANCED_FACE ( 'NONE', ( #309 ), #211, .T. ) ;
#308 = UNCERTAINTY_MEASURE_WITH_UNIT (LENGTH_MEASURE( 1.000000000000000082E-05 ), #277, 'distance_accuracy_value', 'NONE');
#309 = FACE_OUTER_BOUND ( 'NONE', #11, .T. ) ;
ENDSEC;
END-ISO-10303-21;
