ISO-10303-21;
HEADER;
FILE_DESCRIPTION (( 'STEP AP214' ),
    '1' );
FILE_NAME ('Micro_RSCM-080-1.STEP',
    '2021-09-03T17:59:27',
    ( '' ),
    ( '' ),
    'SwSTEP 2.0',
    'SolidWorks 2020',
    '' );
FILE_SCHEMA (( 'AUTOMOTIVE_DESIGN' ));
ENDSEC;

DATA;
#1 =( GEOMETRIC_REPRESENTATION_CONTEXT ( 3 ) GLOBAL_UNCERTAINTY_ASSIGNED_CONTEXT ( ( #237 ) ) GLOBAL_UNIT_ASSIGNED_CONTEXT ( ( #94, #231, #135 ) ) REPRESENTATION_CONTEXT ( 'NONE', 'WORKASPACE' ) );
#2 = DIRECTION ( 'NONE',  ( 0.0000000000000000000, 0.0000000000000000000, -1.000000000000000000 ) ) ;
#3 = FILL_AREA_STYLE_COLOUR ( '', #130 ) ;
#4 = ORIENTED_EDGE ( 'NONE', *, *, #142, .T. ) ;
#5 = ORIENTED_EDGE ( 'NONE', *, *, #220, .T. ) ;
#6 = CIRCLE ( 'NONE', #173, 0.1574804999999999955 ) ;
#7 = SHAPE_DEFINITION_REPRESENTATION ( #38, #19 ) ;
#8 = DIRECTION ( 'NONE',  ( 1.000000000000000000, 0.0000000000000000000, -0.0000000000000000000 ) ) ;
#9 = DIRECTION ( 'NONE',  ( 0.7071067811865627828, 8.659560562355118980E-17, -0.7071067811865321406 ) ) ;
#10 = DIRECTION ( 'NONE',  ( -0.0000000000000000000, -0.0000000000000000000, -1.000000000000000000 ) ) ;
#11 = ORIENTED_EDGE ( 'NONE', *, *, #207, .F. ) ;
#12 = DIRECTION ( 'NONE',  ( 1.000000000000000000, 0.0000000000000000000, 0.0000000000000000000 ) ) ;
#13 = PRODUCT ( 'Micro_RSCM-080-1', 'Micro_RSCM-080-1', '', ( #140 ) ) ;
#14 = CONICAL_SURFACE ( 'NONE', #167, 0.003936999999999995191, 0.5235987755983005920 ) ;
#15 =( NAMED_UNIT ( * ) PLANE_ANGLE_UNIT ( ) SI_UNIT ( $, .RADIAN. ) );
#16 = ADVANCED_FACE ( 'NONE', ( #120 ), #217, .T. ) ;
#17 = FACE_OUTER_BOUND ( 'NONE', #165, .T. ) ;
#18 = SURFACE_STYLE_USAGE ( .BOTH. , #223 ) ;
#19 = ADVANCED_BREP_SHAPE_REPRESENTATION ( 'Micro_RSCM-080-1', ( #211, #221 ), #1 ) ;
#20 = CARTESIAN_POINT ( 'NONE',  ( -0.1424804999999990940, 0.0000000000000000000, 2.480315000000000047 ) ) ;
#21 = CIRCLE ( 'NONE', #190, 0.1574804999999999955 ) ;
#22 = EDGE_CURVE ( 'NONE', #26, #117, #151, .T. ) ;
#23 = ORIENTED_EDGE ( 'NONE', *, *, #55, .F. ) ;
#24 = AXIS2_PLACEMENT_3D ( 'NONE', #214, #28, #12 ) ;
#25 = EDGE_LOOP ( 'NONE', ( #163, #213, #11, #159 ) ) ;
#26 = VERTEX_POINT ( 'NONE', #63 ) ;
#27 = VECTOR ( 'NONE', #73, 39.37007874015748143 ) ;
#28 = DIRECTION ( 'NONE',  ( 0.0000000000000000000, 0.0000000000000000000, 1.000000000000000000 ) ) ;
#29 = DIMENSIONAL_EXPONENTS ( 1.000000000000000000, 0.0000000000000000000, 0.0000000000000000000, 0.0000000000000000000, 0.0000000000000000000, 0.0000000000000000000, 0.0000000000000000000 ) ;
#30 = VERTEX_POINT ( 'NONE', #34 ) ;
#31 = PLANE ( 'NONE',  #233 ) ;
#32 = AXIS2_PLACEMENT_3D ( 'NONE', #52, #86, #179 ) ;
#33 = DIRECTION ( 'NONE',  ( -0.0000000000000000000, -0.0000000000000000000, -1.000000000000000000 ) ) ;
#34 = CARTESIAN_POINT ( 'NONE',  ( -0.1574804999999999955, 0.0000000000000000000, 2.465314999999999923 ) ) ;
#35 = CIRCLE ( 'NONE', #171, 0.003936999999999995191 ) ;
#36 = DIRECTION ( 'NONE',  ( 1.000000000000000000, 0.0000000000000000000, 0.0000000000000000000 ) ) ;
#37 = PLANE ( 'NONE',  #61 ) ;
#38 = PRODUCT_DEFINITION_SHAPE ( 'NONE', 'NONE',  #101 ) ;
#39 = DIRECTION ( 'NONE',  ( 0.0000000000000000000, 0.0000000000000000000, -1.000000000000000000 ) ) ;
#40 = AXIS2_PLACEMENT_3D ( 'NONE', #103, #119, #139 ) ;
#41 = APPLICATION_PROTOCOL_DEFINITION ( 'draft international standard', 'automotive_design', 1998, #176 ) ;
#42 =( LENGTH_UNIT ( ) NAMED_UNIT ( * ) SI_UNIT ( $, .METRE. ) );
#43 = CARTESIAN_POINT ( 'NONE',  ( 0.0000000000000000000, 0.0000000000000000000, 0.0000000000000000000 ) ) ;
#44 = VECTOR ( 'NONE', #9, 39.37007874015748854 ) ;
#45 =( GEOMETRIC_REPRESENTATION_CONTEXT ( 3 ) GLOBAL_UNCERTAINTY_ASSIGNED_CONTEXT ( ( #248 ) ) GLOBAL_UNIT_ASSIGNED_CONTEXT ( ( #114, #230, #95 ) ) REPRESENTATION_CONTEXT ( 'NONE', 'WORKASPACE' ) );
#46 = VERTEX_POINT ( 'NONE', #239 ) ;
#47 = ORIENTED_EDGE ( 'NONE', *, *, #127, .F. ) ;
#48 = CARTESIAN_POINT ( 'NONE',  ( 0.0000000000000000000, 0.0000000000000000000, 0.0000000000000000000 ) ) ;
#49 = DIMENSIONAL_EXPONENTS ( 1.000000000000000000, 0.0000000000000000000, 0.0000000000000000000, 0.0000000000000000000, 0.0000000000000000000, 0.0000000000000000000, 0.0000000000000000000 ) ;
#50 = EDGE_LOOP ( 'NONE', ( #5, #181 ) ) ;
#51 = AXIS2_PLACEMENT_3D ( 'NONE', #93, #91, #229 ) ;
#52 = CARTESIAN_POINT ( 'NONE',  ( 0.0000000000000000000, 0.0000000000000000000, 2.480315000000000047 ) ) ;
#53 = DIRECTION ( 'NONE',  ( -1.000000000000000000, 0.0000000000000000000, 0.0000000000000000000 ) ) ;
#54 = DIRECTION ( 'NONE',  ( -1.000000000000000000, 0.0000000000000000000, 0.0000000000000000000 ) ) ;
#55 = EDGE_CURVE ( 'NONE', #60, #117, #242, .T. ) ;
#56 = CARTESIAN_POINT ( 'NONE',  ( -0.1574804999999999955, 0.0000000000000000000, 2.480315000000000047 ) ) ;
#57 = CONICAL_SURFACE ( 'NONE', #240, 0.1424804999999990940, 0.7853981633974699283 ) ;
#58 = ORIENTED_EDGE ( 'NONE', *, *, #175, .T. ) ;
#59 = EDGE_CURVE ( 'NONE', #156, #46, #236, .T. ) ;
#60 = VERTEX_POINT ( 'NONE', #194 ) ;
#61 = AXIS2_PLACEMENT_3D ( 'NONE', #72, #205, #107 ) ;
#62 = ORIENTED_EDGE ( 'NONE', *, *, #122, .F. ) ;
#63 = CARTESIAN_POINT ( 'NONE',  ( 0.1574804999999999955, 1.928579902531247412E-17, 0.2659451431719508929 ) ) ;
#64 = CARTESIAN_POINT ( 'NONE',  ( -0.003936999999999995191, 4.821434448243123477E-19, 0.0000000000000000000 ) ) ;
#65 = PRODUCT_DEFINITION_CONTEXT ( 'detailed design', #105, 'design' ) ;
#66 = MECHANICAL_DESIGN_GEOMETRIC_PRESENTATION_REPRESENTATION (  '', ( #71 ), #180 ) ;
#67 = DIRECTION ( 'NONE',  ( -1.000000000000000000, 0.0000000000000000000, 0.0000000000000000000 ) ) ;
#68 = ADVANCED_FACE ( 'NONE', ( #69 ), #102, .T. ) ;
#69 = FACE_OUTER_BOUND ( 'NONE', #232, .T. ) ;
#70 = CARTESIAN_POINT ( 'NONE',  ( 0.0000000000000000000, 0.0000000000000000000, 0.2659451431719508929 ) ) ;
#71 = STYLED_ITEM ( 'NONE', ( #170 ), #211 ) ;
#72 = CARTESIAN_POINT ( 'NONE',  ( 0.0000000000000000000, 0.0000000000000000000, 2.480315000000000047 ) ) ;
#73 = DIRECTION ( 'NONE',  ( -0.0000000000000000000, -0.0000000000000000000, -1.000000000000000000 ) ) ;
#74 = CARTESIAN_POINT ( 'NONE',  ( -0.1424804999999990940, 0.0000000000000000000, 2.480315000000000047 ) ) ;
#75 = CARTESIAN_POINT ( 'NONE',  ( 0.0000000000000000000, 0.0000000000000000000, 2.480315000000000047 ) ) ;
#76 = DIRECTION ( 'NONE',  ( 1.000000000000000000, 0.0000000000000000000, 0.0000000000000000000 ) ) ;
#77 = AXIS2_PLACEMENT_3D ( 'NONE', #247, #228, #36 ) ;
#78 = VERTEX_POINT ( 'NONE', #182 ) ;
#79 = ADVANCED_FACE ( 'NONE', ( #137 ), #92, .T. ) ;
#80 = CIRCLE ( 'NONE', #77, 0.1424804999999990940 ) ;
#81 = EDGE_LOOP ( 'NONE', ( #113, #47, #118, #219 ) ) ;
#82 = CARTESIAN_POINT ( 'NONE',  ( 0.0000000000000000000, 0.0000000000000000000, 0.0000000000000000000 ) ) ;
#83 = CARTESIAN_POINT ( 'NONE',  ( -0.1574804999999999955, 0.0000000000000000000, 0.2659451431719508929 ) ) ;
#84 = COLOUR_RGB ( '',0.7921568627450980005, 0.8196078431372548767, 0.9333333333333333481 ) ;
#85 = ORIENTED_EDGE ( 'NONE', *, *, #168, .T. ) ;
#86 = DIRECTION ( 'NONE',  ( 0.0000000000000000000, 0.0000000000000000000, -1.000000000000000000 ) ) ;
#87 = EDGE_CURVE ( 'NONE', #156, #192, #121, .T. ) ;
#88 = CARTESIAN_POINT ( 'NONE',  ( 0.0000000000000000000, 0.0000000000000000000, 0.0000000000000000000 ) ) ;
#89 = CARTESIAN_POINT ( 'NONE',  ( 0.0000000000000000000, 0.0000000000000000000, 0.0000000000000000000 ) ) ;
#90 = FILL_AREA_STYLE_COLOUR ( '', #84 ) ;
#91 = DIRECTION ( 'NONE',  ( 0.0000000000000000000, 0.0000000000000000000, 1.000000000000000000 ) ) ;
#92 = CONICAL_SURFACE ( 'NONE', #32, 0.1424804999999990940, 0.7853981633974699283 ) ;
#93 = CARTESIAN_POINT ( 'NONE',  ( 0.0000000000000000000, 0.0000000000000000000, 0.0000000000000000000 ) ) ;
#94 =( CONVERSION_BASED_UNIT ( 'INCH', #209 ) LENGTH_UNIT ( ) NAMED_UNIT ( #29 ) );
#95 =( NAMED_UNIT ( * ) SI_UNIT ( $, .STERADIAN. ) SOLID_ANGLE_UNIT ( ) );
#96 = AXIS2_PLACEMENT_3D ( 'NONE', #88, #109, #124 ) ;
#97 = ORIENTED_EDGE ( 'NONE', *, *, #220, .F. ) ;
#98 = ORIENTED_EDGE ( 'NONE', *, *, #87, .T. ) ;
#99 = EDGE_LOOP ( 'NONE', ( #191, #244, #132, #158 ) ) ;
#100 = DIRECTION ( 'NONE',  ( 0.0000000000000000000, 0.0000000000000000000, 1.000000000000000000 ) ) ;
#101 = PRODUCT_DEFINITION ( 'UNKNOWN', '', #227, #65 ) ;
#102 = CYLINDRICAL_SURFACE ( 'NONE', #40, 0.1574804999999999955 ) ;
#103 = CARTESIAN_POINT ( 'NONE',  ( 0.0000000000000000000, 0.0000000000000000000, 2.480315000000000047 ) ) ;
#104 = CARTESIAN_POINT ( 'NONE',  ( 0.1574804999999999955, 1.928579902531247412E-17, 2.480315000000000047 ) ) ;
#105 = APPLICATION_CONTEXT ( 'automotive_design' ) ;
#106 = VECTOR ( 'NONE', #128, 39.37007874015748854 ) ;
#107 = DIRECTION ( 'NONE',  ( 1.000000000000000000, 0.0000000000000000000, -0.0000000000000000000 ) ) ;
#108 = EDGE_CURVE ( 'NONE', #46, #26, #196, .T. ) ;
#109 = DIRECTION ( 'NONE',  ( -0.0000000000000000000, -0.0000000000000000000, -1.000000000000000000 ) ) ;
#110 = CONICAL_SURFACE ( 'NONE', #51, 0.003936999999999995191, 0.5235987755983005920 ) ;
#111 = CARTESIAN_POINT ( 'NONE',  ( 0.0000000000000000000, 0.0000000000000000000, 2.465314999999999923 ) ) ;
#112 = ADVANCED_FACE ( 'NONE', ( #160 ), #31, .F. ) ;
#113 = ORIENTED_EDGE ( 'NONE', *, *, #59, .F. ) ;
#114 =( CONVERSION_BASED_UNIT ( 'INCH', #154 ) LENGTH_UNIT ( ) NAMED_UNIT ( #49 ) );
#115 = DIRECTION ( 'NONE',  ( 1.000000000000000000, 0.0000000000000000000, 0.0000000000000000000 ) ) ;
#116 = CLOSED_SHELL ( 'NONE', ( #153, #238, #16, #68, #126, #79, #157, #112 ) ) ;
#117 = VERTEX_POINT ( 'NONE', #83 ) ;
#118 = ORIENTED_EDGE ( 'NONE', *, *, #243, .T. ) ;
#119 = DIRECTION ( 'NONE',  ( -0.0000000000000000000, -0.0000000000000000000, -1.000000000000000000 ) ) ;
#120 = FACE_OUTER_BOUND ( 'NONE', #99, .T. ) ;
#121 = CIRCLE ( 'NONE', #24, 0.1424804999999990940 ) ;
#122 = EDGE_CURVE ( 'NONE', #60, #78, #35, .T. ) ;
#123 = CARTESIAN_POINT ( 'NONE',  ( 0.0000000000000000000, 0.0000000000000000000, 0.2659451431719508929 ) ) ;
#124 = DIRECTION ( 'NONE',  ( -1.000000000000000000, 0.0000000000000000000, 0.0000000000000000000 ) ) ;
#125 = DIRECTION ( 'NONE',  ( -0.0000000000000000000, -0.0000000000000000000, -1.000000000000000000 ) ) ;
#126 = ADVANCED_FACE ( 'NONE', ( #150 ), #37, .T. ) ;
#127 = EDGE_CURVE ( 'NONE', #192, #156, #80, .T. ) ;
#128 = DIRECTION ( 'NONE',  ( 0.5000000000000013323, 0.0000000000000000000, 0.8660254037844377084 ) ) ;
#129 =( LENGTH_UNIT ( ) NAMED_UNIT ( * ) SI_UNIT ( $, .METRE. ) );
#130 = COLOUR_RGB ( '',0.7921568627450980005, 0.8196078431372548767, 0.9333333333333333481 ) ;
#131 = PRESENTATION_LAYER_ASSIGNMENT (  '', '', ( #152 ) ) ;
#132 = ORIENTED_EDGE ( 'NONE', *, *, #149, .F. ) ;
#133 = SURFACE_SIDE_STYLE ('',( #235 ) ) ;
#134 = ORIENTED_EDGE ( 'NONE', *, *, #149, .T. ) ;
#135 =( NAMED_UNIT ( * ) SI_UNIT ( $, .STERADIAN. ) SOLID_ANGLE_UNIT ( ) );
#136 = DIRECTION ( 'NONE',  ( 0.0000000000000000000, 0.0000000000000000000, 1.000000000000000000 ) ) ;
#137 = FACE_OUTER_BOUND ( 'NONE', #81, .T. ) ;
#138 = VECTOR ( 'NONE', #178, 39.37007874015748854 ) ;
#139 = DIRECTION ( 'NONE',  ( -1.000000000000000000, 0.0000000000000000000, 0.0000000000000000000 ) ) ;
#140 = PRODUCT_CONTEXT ( 'NONE', #176, 'mechanical' ) ;
#141 = CARTESIAN_POINT ( 'NONE',  ( 0.0000000000000000000, 0.0000000000000000000, 2.480315000000000047 ) ) ;
#142 = EDGE_CURVE ( 'NONE', #46, #30, #206, .T. ) ;
#143 = ORIENTED_EDGE ( 'NONE', *, *, #22, .T. ) ;
#144 = ORIENTED_EDGE ( 'NONE', *, *, #175, .F. ) ;
#145 = SURFACE_STYLE_FILL_AREA ( #166 ) ;
#146 =( CONVERSION_BASED_UNIT ( 'INCH', #225 ) LENGTH_UNIT ( ) NAMED_UNIT ( #218 ) );
#147 = AXIS2_PLACEMENT_3D ( 'NONE', #70, #33, #198 ) ;
#148 = DIRECTION ( 'NONE',  ( 0.0000000000000000000, 0.0000000000000000000, -1.000000000000000000 ) ) ;
#149 = EDGE_CURVE ( 'NONE', #117, #26, #21, .T. ) ;
#150 = FACE_OUTER_BOUND ( 'NONE', #199, .T. ) ;
#151 = CIRCLE ( 'NONE', #147, 0.1574804999999999955 ) ;
#152 = STYLED_ITEM ( 'NONE', ( #208 ), #19 ) ;
#153 = ADVANCED_FACE ( 'NONE', ( #17 ), #14, .T. ) ;
#154 = LENGTH_MEASURE_WITH_UNIT ( LENGTH_MEASURE( 0.02539999999999999897 ), #42 );
#155 = DIRECTION ( 'NONE',  ( -0.7071067811865627828, 0.0000000000000000000, -0.7071067811865321406 ) ) ;
#156 = VERTEX_POINT ( 'NONE', #187 ) ;
#157 = ADVANCED_FACE ( 'NONE', ( #172 ), #110, .T. ) ;
#158 = ORIENTED_EDGE ( 'NONE', *, *, #168, .F. ) ;
#159 = ORIENTED_EDGE ( 'NONE', *, *, #243, .F. ) ;
#160 = FACE_OUTER_BOUND ( 'NONE', #50, .T. ) ;
#161 = EDGE_LOOP ( 'NONE', ( #23, #97, #58, #143 ) ) ;
#162 = AXIS2_PLACEMENT_3D ( 'NONE', #141, #10, #195 ) ;
#163 = ORIENTED_EDGE ( 'NONE', *, *, #87, .F. ) ;
#164 = ORIENTED_EDGE ( 'NONE', *, *, #108, .F. ) ;
#165 = EDGE_LOOP ( 'NONE', ( #62, #234, #134, #144 ) ) ;
#166 = FILL_AREA_STYLE ('',( #90 ) ) ;
#167 = AXIS2_PLACEMENT_3D ( 'NONE', #89, #246, #186 ) ;
#168 = EDGE_CURVE ( 'NONE', #30, #117, #200, .T. ) ;
#169 = DIRECTION ( 'NONE',  ( 1.000000000000000000, 0.0000000000000000000, 0.0000000000000000000 ) ) ;
#170 = PRESENTATION_STYLE_ASSIGNMENT (( #18 ) ) ;
#171 = AXIS2_PLACEMENT_3D ( 'NONE', #82, #241, #67 ) ;
#172 = FACE_OUTER_BOUND ( 'NONE', #161, .T. ) ;
#173 = AXIS2_PLACEMENT_3D ( 'NONE', #189, #39, #169 ) ;
#174 = FILL_AREA_STYLE ('',( #3 ) ) ;
#175 = EDGE_CURVE ( 'NONE', #78, #26, #184, .T. ) ;
#176 = APPLICATION_CONTEXT ( 'automotive_design' ) ;
#177 = CIRCLE ( 'NONE', #96, 0.003936999999999995191 ) ;
#178 = DIRECTION ( 'NONE',  ( -0.5000000000000013323, 6.123233995736782060E-17, 0.8660254037844377084 ) ) ;
#179 = DIRECTION ( 'NONE',  ( -1.000000000000000000, 0.0000000000000000000, 0.0000000000000000000 ) ) ;
#180 =( GEOMETRIC_REPRESENTATION_CONTEXT ( 3 ) GLOBAL_UNCERTAINTY_ASSIGNED_CONTEXT ( ( #204 ) ) GLOBAL_UNIT_ASSIGNED_CONTEXT ( ( #146, #15, #224 ) ) REPRESENTATION_CONTEXT ( 'NONE', 'WORKASPACE' ) );
#181 = ORIENTED_EDGE ( 'NONE', *, *, #122, .T. ) ;
#182 = CARTESIAN_POINT ( 'NONE',  ( 0.003936999999999995191, 0.0000000000000000000, 0.0000000000000000000 ) ) ;
#183 = DIRECTION ( 'NONE',  ( -0.0000000000000000000, -0.0000000000000000000, -1.000000000000000000 ) ) ;
#184 = LINE ( 'NONE', #201, #106 ) ;
#185 = VECTOR ( 'NONE', #183, 39.37007874015748143 ) ;
#186 = DIRECTION ( 'NONE',  ( 1.000000000000000000, 0.0000000000000000000, 0.0000000000000000000 ) ) ;
#187 = CARTESIAN_POINT ( 'NONE',  ( 0.1424804999999990940, 1.836731392595189962E-17, 2.480315000000000047 ) ) ;
#188 = FACE_OUTER_BOUND ( 'NONE', #25, .T. ) ;
#189 = CARTESIAN_POINT ( 'NONE',  ( 0.0000000000000000000, 0.0000000000000000000, 2.465314999999999923 ) ) ;
#190 = AXIS2_PLACEMENT_3D ( 'NONE', #123, #125, #53 ) ;
#191 = ORIENTED_EDGE ( 'NONE', *, *, #207, .T. ) ;
#192 = VERTEX_POINT ( 'NONE', #74 ) ;
#193 = MECHANICAL_DESIGN_GEOMETRIC_PRESENTATION_REPRESENTATION (  '', ( #152 ), #45 ) ;
#194 = CARTESIAN_POINT ( 'NONE',  ( -0.003936999999999995191, 9.883971235068392752E-18, 0.0000000000000000000 ) ) ;
#195 = DIRECTION ( 'NONE',  ( -1.000000000000000000, 0.0000000000000000000, 0.0000000000000000000 ) ) ;
#196 = LINE ( 'NONE', #104, #185 ) ;
#197 = AXIS2_PLACEMENT_3D ( 'NONE', #111, #2, #76 ) ;
#198 = DIRECTION ( 'NONE',  ( -1.000000000000000000, 0.0000000000000000000, 0.0000000000000000000 ) ) ;
#199 = EDGE_LOOP ( 'NONE', ( #210, #98 ) ) ;
#200 = LINE ( 'NONE', #56, #27 ) ;
#201 = CARTESIAN_POINT ( 'NONE',  ( 0.003936999999999995191, 0.0000000000000000000, 0.0000000000000000000 ) ) ;
#202 = PRODUCT_RELATED_PRODUCT_CATEGORY ( 'part', '', ( #13 ) ) ;
#203 = LINE ( 'NONE', #20, #226 ) ;
#204 = UNCERTAINTY_MEASURE_WITH_UNIT (LENGTH_MEASURE( 1.000000000000000082E-05 ), #146, 'distance_accuracy_value', 'NONE');
#205 = DIRECTION ( 'NONE',  ( 0.0000000000000000000, 0.0000000000000000000, 1.000000000000000000 ) ) ;
#206 = CIRCLE ( 'NONE', #197, 0.1574804999999999955 ) ;
#207 = EDGE_CURVE ( 'NONE', #30, #46, #6, .T. ) ;
#208 = PRESENTATION_STYLE_ASSIGNMENT (( #212 ) ) ;
#209 = LENGTH_MEASURE_WITH_UNIT ( LENGTH_MEASURE( 0.02539999999999999897 ), #129 );
#210 = ORIENTED_EDGE ( 'NONE', *, *, #127, .T. ) ;
#211 = MANIFOLD_SOLID_BREP ( 'Cut-Revolve1', #116 ) ;
#212 = SURFACE_STYLE_USAGE ( .BOTH. , #133 ) ;
#213 = ORIENTED_EDGE ( 'NONE', *, *, #59, .T. ) ;
#214 = CARTESIAN_POINT ( 'NONE',  ( 0.0000000000000000000, 0.0000000000000000000, 2.480315000000000047 ) ) ;
#215 = ORIENTED_EDGE ( 'NONE', *, *, #22, .F. ) ;
#216 = APPLICATION_PROTOCOL_DEFINITION ( 'draft international standard', 'automotive_design', 1998, #105 ) ;
#217 = CYLINDRICAL_SURFACE ( 'NONE', #162, 0.1574804999999999955 ) ;
#218 = DIMENSIONAL_EXPONENTS ( 1.000000000000000000, 0.0000000000000000000, 0.0000000000000000000, 0.0000000000000000000, 0.0000000000000000000, 0.0000000000000000000, 0.0000000000000000000 ) ;
#219 = ORIENTED_EDGE ( 'NONE', *, *, #142, .F. ) ;
#220 = EDGE_CURVE ( 'NONE', #78, #60, #177, .T. ) ;
#221 = AXIS2_PLACEMENT_3D ( 'NONE', #48, #136, #115 ) ;
#222 = CARTESIAN_POINT ( 'NONE',  ( 0.1424804999999990940, 1.744882882659133128E-17, 2.480315000000000047 ) ) ;
#223 = SURFACE_SIDE_STYLE ('',( #145 ) ) ;
#224 =( NAMED_UNIT ( * ) SI_UNIT ( $, .STERADIAN. ) SOLID_ANGLE_UNIT ( ) );
#225 = LENGTH_MEASURE_WITH_UNIT ( LENGTH_MEASURE( 0.02539999999999999897 ), #249 );
#226 = VECTOR ( 'NONE', #155, 39.37007874015748854 ) ;
#227 = PRODUCT_DEFINITION_FORMATION_WITH_SPECIFIED_SOURCE ( 'ANY', '', #13, .NOT_KNOWN. ) ;
#228 = DIRECTION ( 'NONE',  ( 0.0000000000000000000, 0.0000000000000000000, 1.000000000000000000 ) ) ;
#229 = DIRECTION ( 'NONE',  ( 1.000000000000000000, 0.0000000000000000000, 0.0000000000000000000 ) ) ;
#230 =( NAMED_UNIT ( * ) PLANE_ANGLE_UNIT ( ) SI_UNIT ( $, .RADIAN. ) );
#231 =( NAMED_UNIT ( * ) PLANE_ANGLE_UNIT ( ) SI_UNIT ( $, .RADIAN. ) );
#232 = EDGE_LOOP ( 'NONE', ( #164, #4, #85, #215 ) ) ;
#233 = AXIS2_PLACEMENT_3D ( 'NONE', #43, #100, #8 ) ;
#234 = ORIENTED_EDGE ( 'NONE', *, *, #55, .T. ) ;
#235 = SURFACE_STYLE_FILL_AREA ( #174 ) ;
#236 = LINE ( 'NONE', #222, #44 ) ;
#237 = UNCERTAINTY_MEASURE_WITH_UNIT (LENGTH_MEASURE( 1.000000000000000082E-05 ), #94, 'distance_accuracy_value', 'NONE');
#238 = ADVANCED_FACE ( 'NONE', ( #188 ), #57, .T. ) ;
#239 = CARTESIAN_POINT ( 'NONE',  ( 0.1574804999999999955, 1.928579902531247412E-17, 2.465314999999999923 ) ) ;
#240 = AXIS2_PLACEMENT_3D ( 'NONE', #75, #148, #54 ) ;
#241 = DIRECTION ( 'NONE',  ( -0.0000000000000000000, -0.0000000000000000000, -1.000000000000000000 ) ) ;
#242 = LINE ( 'NONE', #64, #138 ) ;
#243 = EDGE_CURVE ( 'NONE', #192, #30, #203, .T. ) ;
#244 = ORIENTED_EDGE ( 'NONE', *, *, #108, .T. ) ;
#245 = PRESENTATION_LAYER_ASSIGNMENT (  '', '', ( #71 ) ) ;
#246 = DIRECTION ( 'NONE',  ( 0.0000000000000000000, 0.0000000000000000000, 1.000000000000000000 ) ) ;
#247 = CARTESIAN_POINT ( 'NONE',  ( 0.0000000000000000000, 0.0000000000000000000, 2.480315000000000047 ) ) ;
#248 = UNCERTAINTY_MEASURE_WITH_UNIT (LENGTH_MEASURE( 1.000000000000000082E-05 ), #114, 'distance_accuracy_value', 'NONE');
#249 =( LENGTH_UNIT ( ) NAMED_UNIT ( * ) SI_UNIT ( $, .METRE. ) );
ENDSEC;
END-ISO-10303-21;
