ISO-10303-21;
HEADER;
FILE_DESCRIPTION (( 'STEP AP214' ),
    '1' );
FILE_NAME ('59816.STEP',
    '2023-07-12T13:06:04',
    ( '' ),
    ( '' ),
    'SwSTEP 2.0',
    'SolidWorks 2023',
    '' );
FILE_SCHEMA (( 'AUTOMOTIVE_DESIGN' ));
ENDSEC;

DATA;
#1 = AXIS2_PLACEMENT_3D ( 'NONE', #124, #24, #252 ) ;
#2 = STYLED_ITEM ( 'NONE', ( #204 ), #229 ) ;
#3 = APPLICATION_CONTEXT ( 'automotive_design' ) ;
#4 = EDGE_CURVE ( 'NONE', #167, #135, #258, .T. ) ;
#5 = ADVANCED_FACE ( 'NONE', ( #198 ), #83, .T. ) ;
#6 = ORIENTED_EDGE ( 'NONE', *, *, #270, .F. ) ;
#7 = DIRECTION ( 'NONE',  ( -9.372495030932666506E-17, 1.000000000000000000, -0.000000000000000000 ) ) ;
#8 = STYLED_ITEM ( 'NONE', ( #153 ), #32 ) ;
#9 = ORIENTED_EDGE ( 'NONE', *, *, #145, .F. ) ;
#10 = DIMENSIONAL_EXPONENTS ( 1.000000000000000000, 0.000000000000000000, 0.000000000000000000, 0.000000000000000000, 0.000000000000000000, 0.000000000000000000, 0.000000000000000000 ) ;
#11 =( NAMED_UNIT ( * ) SI_UNIT ( $, .STERADIAN. ) SOLID_ANGLE_UNIT ( ) );
#12 = ORIENTED_EDGE ( 'NONE', *, *, #52, .F. ) ;
#13 = PRESENTATION_STYLE_ASSIGNMENT (( #199 ) ) ;
#14 =( NAMED_UNIT ( * ) PLANE_ANGLE_UNIT ( ) SI_UNIT ( $, .RADIAN. ) );
#15 = ORIENTED_EDGE ( 'NONE', *, *, #302, .T. ) ;
#16 = CARTESIAN_POINT ( 'NONE',  ( 0.1874999999999999722, 2.500000000000000000, 2.296212748401286185E-17 ) ) ;
#17 = AXIS2_PLACEMENT_3D ( 'NONE', #130, #231, #28 ) ;
#18 = ORIENTED_EDGE ( 'NONE', *, *, #45, .T. ) ;
#19 = PLANE ( 'NONE',  #33 ) ;
#20 =( LENGTH_UNIT ( ) NAMED_UNIT ( * ) SI_UNIT ( $, .METRE. ) );
#21 = DIRECTION ( 'NONE',  ( -9.372495030932666506E-17, 1.000000000000000000, -0.000000000000000000 ) ) ;
#22 = FILL_AREA_STYLE_COLOUR ( '', #297 ) ;
#23 = PRESENTATION_LAYER_ASSIGNMENT (  '', '', ( #163 ) ) ;
#24 = DIRECTION ( 'NONE',  ( 0.000000000000000000, 1.000000000000000000, 0.000000000000000000 ) ) ;
#25 = DIRECTION ( 'NONE',  ( -1.000000000000000000, 0.000000000000000000, 0.000000000000000000 ) ) ;
#26 = LENGTH_MEASURE_WITH_UNIT ( LENGTH_MEASURE( 0.02539999999999999897 ), #128 );
#27 = UNCERTAINTY_MEASURE_WITH_UNIT (LENGTH_MEASURE( 1.000000000000000082E-05 ), #290, 'distance_accuracy_value', 'NONE');
#28 = DIRECTION ( 'NONE',  ( -1.000000000000000000, 0.000000000000000000, 0.000000000000000000 ) ) ;
#29 =( GEOMETRIC_REPRESENTATION_CONTEXT ( 3 ) GLOBAL_UNCERTAINTY_ASSIGNED_CONTEXT ( ( #27 ) ) GLOBAL_UNIT_ASSIGNED_CONTEXT ( ( #290, #136, #100 ) ) REPRESENTATION_CONTEXT ( 'NONE', 'WORKASPACE' ) );
#30 = VECTOR ( 'NONE', #108, 39.37007874015748854 ) ;
#31 = CARTESIAN_POINT ( 'NONE',  ( 0.1874999999999998890, 2.500000000000000000, 2.296212748401284952E-17 ) ) ;
#32 = ADVANCED_FACE ( 'NONE', ( #71 ), #126, .T. ) ;
#33 = AXIS2_PLACEMENT_3D ( 'NONE', #157, #184, #304 ) ;
#34 = LENGTH_MEASURE_WITH_UNIT ( LENGTH_MEASURE( 0.02539999999999999897 ), #97 );
#35 = LENGTH_MEASURE_WITH_UNIT ( LENGTH_MEASURE( 0.02539999999999999897 ), #200 );
#36 = MECHANICAL_DESIGN_GEOMETRIC_PRESENTATION_REPRESENTATION (  '', ( #8 ), #60 ) ;
#37 = COLOUR_RGB ( '',0.7921568627450980005, 0.8196078431372548767, 0.9333333333333333481 ) ;
#38 = SURFACE_STYLE_FILL_AREA ( #169 ) ;
#39 = EDGE_LOOP ( 'NONE', ( #237, #170 ) ) ;
#40 = ADVANCED_FACE ( 'NONE', ( #111 ), #303, .F. ) ;
#41 = ORIENTED_EDGE ( 'NONE', *, *, #176, .T. ) ;
#42 = CARTESIAN_POINT ( 'NONE',  ( 0.000000000000000000, 0.2641377481542529493, 0.000000000000000000 ) ) ;
#43 = PRESENTATION_LAYER_ASSIGNMENT (  '', '', ( #2 ) ) ;
#44 = DIRECTION ( 'NONE',  ( -1.000000000000000000, -1.821231995776178437E-16, 0.000000000000000000 ) ) ;
#45 = EDGE_CURVE ( 'NONE', #135, #167, #171, .T. ) ;
#46 =( CONVERSION_BASED_UNIT ( 'INCH', #93 ) LENGTH_UNIT ( ) NAMED_UNIT ( #212 ) );
#47 = DIRECTION ( 'NONE',  ( -0.000000000000000000, -1.000000000000000000, -0.000000000000000000 ) ) ;
#48 = SURFACE_STYLE_FILL_AREA ( #294 ) ;
#49 = DIRECTION ( 'NONE',  ( 0.000000000000000000, -1.000000000000000000, -0.000000000000000000 ) ) ;
#50 = CIRCLE ( 'NONE', #188, 0.03500000000000000333 ) ;
#51 = CARTESIAN_POINT ( 'NONE',  ( 0.1874999999999999722, 0.2641377481542530603, 2.296212748401286185E-17 ) ) ;
#52 = EDGE_CURVE ( 'NONE', #115, #119, #308, .T. ) ;
#53 = CARTESIAN_POINT ( 'NONE',  ( 4.286263797015735979E-18, 0.000000000000000000, -0.03500000000000000333 ) ) ;
#54 = ADVANCED_FACE ( 'NONE', ( #152 ), #300, .T. ) ;
#55 = AXIS2_PLACEMENT_3D ( 'NONE', #159, #21, #181 ) ;
#56 = CYLINDRICAL_SURFACE ( 'NONE', #289, 0.1874999999999998057 ) ;
#57 =( NAMED_UNIT ( * ) PLANE_ANGLE_UNIT ( ) SI_UNIT ( $, .RADIAN. ) );
#58 = DIMENSIONAL_EXPONENTS ( 1.000000000000000000, 0.000000000000000000, 0.000000000000000000, 0.000000000000000000, 0.000000000000000000, 0.000000000000000000, 0.000000000000000000 ) ;
#59 = ORIENTED_EDGE ( 'NONE', *, *, #134, .T. ) ;
#60 =( GEOMETRIC_REPRESENTATION_CONTEXT ( 3 ) GLOBAL_UNCERTAINTY_ASSIGNED_CONTEXT ( ( #228 ) ) GLOBAL_UNIT_ASSIGNED_CONTEXT ( ( #46, #127, #248 ) ) REPRESENTATION_CONTEXT ( 'NONE', 'WORKASPACE' ) );
#61 = CIRCLE ( 'NONE', #74, 0.03500000000000000333 ) ;
#62 = ORIENTED_EDGE ( 'NONE', *, *, #4, .F. ) ;
#63 = DIRECTION ( 'NONE',  ( 0.000000000000000000, 0.000000000000000000, -1.000000000000000000 ) ) ;
#64 = DIRECTION ( 'NONE',  ( -1.000000000000000000, 0.000000000000000000, 0.000000000000000000 ) ) ;
#65 = VERTEX_POINT ( 'NONE', #185 ) ;
#66 =( CONVERSION_BASED_UNIT ( 'INCH', #82 ) LENGTH_UNIT ( ) NAMED_UNIT ( #58 ) );
#67 = DIRECTION ( 'NONE',  ( -0.000000000000000000, -1.000000000000000000, -0.000000000000000000 ) ) ;
#68 = EDGE_LOOP ( 'NONE', ( #18, #81, #190, #99 ) ) ;
#69 =( GEOMETRIC_REPRESENTATION_CONTEXT ( 3 ) GLOBAL_UNCERTAINTY_ASSIGNED_CONTEXT ( ( #182 ) ) GLOBAL_UNIT_ASSIGNED_CONTEXT ( ( #197, #267, #11 ) ) REPRESENTATION_CONTEXT ( 'NONE', 'WORKASPACE' ) );
#70 = FILL_AREA_STYLE_COLOUR ( '', #285 ) ;
#71 = FACE_OUTER_BOUND ( 'NONE', #217, .T. ) ;
#72 = APPLICATION_PROTOCOL_DEFINITION ( 'draft international standard', 'automotive_design', 1998, #3 ) ;
#73 = DIRECTION ( 'NONE',  ( -0.000000000000000000, -1.000000000000000000, -0.000000000000000000 ) ) ;
#74 = AXIS2_PLACEMENT_3D ( 'NONE', #256, #73, #232 ) ;
#75 = CARTESIAN_POINT ( 'NONE',  ( 0.000000000000000000, 0.000000000000000000, 0.000000000000000000 ) ) ;
#76 = AXIS2_PLACEMENT_3D ( 'NONE', #149, #246, #94 ) ;
#77 = AXIS2_PLACEMENT_3D ( 'NONE', #75, #160, #180 ) ;
#78 = EDGE_CURVE ( 'NONE', #239, #265, #203, .T. ) ;
#79 =( NAMED_UNIT ( * ) SI_UNIT ( $, .STERADIAN. ) SOLID_ANGLE_UNIT ( ) );
#80 = CONICAL_SURFACE ( 'NONE', #286, 0.03500000000000000333, 0.5235987755983001479 ) ;
#81 = ORIENTED_EDGE ( 'NONE', *, *, #145, .T. ) ;
#82 = LENGTH_MEASURE_WITH_UNIT ( LENGTH_MEASURE( 0.02539999999999999897 ), #101 );
#83 = PLANE ( 'NONE',  #132 ) ;
#84 = FILL_AREA_STYLE_COLOUR ( '', #37 ) ;
#85 = CLOSED_SHELL ( 'NONE', ( #54, #281, #175, #40 ) ) ;
#86 = DIRECTION ( 'NONE',  ( 0.000000000000000000, 0.000000000000000000, -1.000000000000000000 ) ) ;
#87 = SURFACE_STYLE_FILL_AREA ( #274 ) ;
#88 = ADVANCED_BREP_SHAPE_REPRESENTATION ( '59816', ( #202, #210, #77 ), #121 ) ;
#89 = CARTESIAN_POINT ( 'NONE',  ( -0.1874999999999994449, 0.2641377481542530048, 0.000000000000000000 ) ) ;
#90 = EDGE_CURVE ( 'NONE', #135, #239, #211, .T. ) ;
#91 = DIRECTION ( 'NONE',  ( 9.372495030932666506E-17, -1.000000000000000000, 0.000000000000000000 ) ) ;
#92 = FILL_AREA_STYLE_COLOUR ( '', #116 ) ;
#93 = LENGTH_MEASURE_WITH_UNIT ( LENGTH_MEASURE( 0.02539999999999999897 ), #156 );
#94 = DIRECTION ( 'NONE',  ( -1.000000000000000000, 0.000000000000000000, 0.000000000000000000 ) ) ;
#95 =( CONVERSION_BASED_UNIT ( 'INCH', #26 ) LENGTH_UNIT ( ) NAMED_UNIT ( #164 ) );
#96 = LINE ( 'NONE', #31, #307 ) ;
#97 =( LENGTH_UNIT ( ) NAMED_UNIT ( * ) SI_UNIT ( $, .METRE. ) );
#98 = MECHANICAL_DESIGN_GEOMETRIC_PRESENTATION_REPRESENTATION (  '', ( #163 ), #251 ) ;
#99 = ORIENTED_EDGE ( 'NONE', *, *, #90, .F. ) ;
#100 =( NAMED_UNIT ( * ) SI_UNIT ( $, .STERADIAN. ) SOLID_ANGLE_UNIT ( ) );
#101 =( LENGTH_UNIT ( ) NAMED_UNIT ( * ) SI_UNIT ( $, .METRE. ) );
#102 = ORIENTED_EDGE ( 'NONE', *, *, #4, .T. ) ;
#103 = AXIS2_PLACEMENT_3D ( 'NONE', #238, #264, #64 ) ;
#104 = DIRECTION ( 'NONE',  ( -9.372495030932666506E-17, 1.000000000000000000, -0.000000000000000000 ) ) ;
#105 = FACE_OUTER_BOUND ( 'NONE', #173, .T. ) ;
#106 = ORIENTED_EDGE ( 'NONE', *, *, #208, .T. ) ;
#107 = MECHANICAL_DESIGN_GEOMETRIC_PRESENTATION_REPRESENTATION (  '', ( #2 ), #276 ) ;
#108 = DIRECTION ( 'NONE',  ( 6.123233995736778362E-17, 0.8660254037844379305, -0.5000000000000009992 ) ) ;
#109 = CARTESIAN_POINT ( 'NONE',  ( 0.000000000000000000, 0.000000000000000000, 0.03500000000000000333 ) ) ;
#110 = LINE ( 'NONE', #109, #138 ) ;
#111 = FACE_OUTER_BOUND ( 'NONE', #39, .T. ) ;
#112 =( NAMED_UNIT ( * ) PLANE_ANGLE_UNIT ( ) SI_UNIT ( $, .RADIAN. ) );
#113 = CLOSED_SHELL ( 'NONE', ( #32, #234, #229, #5 ) ) ;
#114 = AXIS2_PLACEMENT_3D ( 'NONE', #240, #150, #220 ) ;
#115 = VERTEX_POINT ( 'NONE', #154 ) ;
#116 = COLOUR_RGB ( '',0.7921568627450980005, 0.8196078431372548767, 0.9333333333333333481 ) ;
#117 = ORIENTED_EDGE ( 'NONE', *, *, #208, .F. ) ;
#118 = DIRECTION ( 'NONE',  ( 0.000000000000000000, 0.000000000000000000, 1.000000000000000000 ) ) ;
#119 = VERTEX_POINT ( 'NONE', #282 ) ;
#120 = FACE_OUTER_BOUND ( 'NONE', #266, .T. ) ;
#121 =( GEOMETRIC_REPRESENTATION_CONTEXT ( 3 ) GLOBAL_UNCERTAINTY_ASSIGNED_CONTEXT ( ( #207 ) ) GLOBAL_UNIT_ASSIGNED_CONTEXT ( ( #95, #112, #131 ) ) REPRESENTATION_CONTEXT ( 'NONE', 'WORKASPACE' ) );
#122 = SURFACE_STYLE_USAGE ( .BOTH. , #242 ) ;
#123 = DIRECTION ( 'NONE',  ( 0.000000000000000000, 1.000000000000000000, 0.000000000000000000 ) ) ;
#124 = CARTESIAN_POINT ( 'NONE',  ( 0.000000000000000000, 0.000000000000000000, 0.000000000000000000 ) ) ;
#125 = DIRECTION ( 'NONE',  ( 0.000000000000000000, 0.000000000000000000, -1.000000000000000000 ) ) ;
#126 = CONICAL_SURFACE ( 'NONE', #1, 0.03500000000000000333, 0.5235987755983001479 ) ;
#127 =( NAMED_UNIT ( * ) PLANE_ANGLE_UNIT ( ) SI_UNIT ( $, .RADIAN. ) );
#128 =( LENGTH_UNIT ( ) NAMED_UNIT ( * ) SI_UNIT ( $, .METRE. ) );
#129 = SURFACE_STYLE_USAGE ( .BOTH. , #254 ) ;
#130 = CARTESIAN_POINT ( 'NONE',  ( 6.123233995736772199E-17, 2.500000000000000000, 0.000000000000000000 ) ) ;
#131 =( NAMED_UNIT ( * ) SI_UNIT ( $, .STERADIAN. ) SOLID_ANGLE_UNIT ( ) );
#132 = AXIS2_PLACEMENT_3D ( 'NONE', #209, #49, #125 ) ;
#133 =( GEOMETRIC_REPRESENTATION_CONTEXT ( 3 ) GLOBAL_UNCERTAINTY_ASSIGNED_CONTEXT ( ( #279 ) ) GLOBAL_UNIT_ASSIGNED_CONTEXT ( ( #260, #14, #79 ) ) REPRESENTATION_CONTEXT ( 'NONE', 'WORKASPACE' ) );
#134 = EDGE_CURVE ( 'NONE', #115, #65, #61, .T. ) ;
#135 = VERTEX_POINT ( 'NONE', #89 ) ;
#136 =( NAMED_UNIT ( * ) PLANE_ANGLE_UNIT ( ) SI_UNIT ( $, .RADIAN. ) );
#137 =( NAMED_UNIT ( * ) SI_UNIT ( $, .STERADIAN. ) SOLID_ANGLE_UNIT ( ) );
#138 = VECTOR ( 'NONE', #301, 39.37007874015748854 ) ;
#139 = ORIENTED_EDGE ( 'NONE', *, *, #45, .F. ) ;
#140 = CARTESIAN_POINT ( 'NONE',  ( 0.000000000000000000, 0.000000000000000000, 0.000000000000000000 ) ) ;
#141 = ORIENTED_EDGE ( 'NONE', *, *, #176, .F. ) ;
#142 = PRODUCT_RELATED_PRODUCT_CATEGORY ( 'part', '', ( #280 ) ) ;
#143 = FILL_AREA_STYLE ('',( #174 ) ) ;
#144 = PLANE ( 'NONE',  #114 ) ;
#145 = EDGE_CURVE ( 'NONE', #167, #265, #96, .T. ) ;
#146 = PRESENTATION_LAYER_ASSIGNMENT (  '', '', ( #288 ) ) ;
#147 = PRESENTATION_LAYER_ASSIGNMENT (  '', '', ( #221 ) ) ;
#148 = SURFACE_SIDE_STYLE ('',( #38 ) ) ;
#149 = CARTESIAN_POINT ( 'NONE',  ( 6.123233995736772199E-17, 2.500000000000000000, 0.000000000000000000 ) ) ;
#150 = DIRECTION ( 'NONE',  ( 0.000000000000000000, 1.000000000000000000, 0.000000000000000000 ) ) ;
#151 =( CONVERSION_BASED_UNIT ( 'INCH', #179 ) LENGTH_UNIT ( ) NAMED_UNIT ( #259 ) );
#152 = FACE_OUTER_BOUND ( 'NONE', #68, .T. ) ;
#153 = PRESENTATION_STYLE_ASSIGNMENT (( #205 ) ) ;
#154 = CARTESIAN_POINT ( 'NONE',  ( 1.362419564051430200E-17, 0.000000000000000000, -0.03500000000000000333 ) ) ;
#155 = AXIS2_PLACEMENT_3D ( 'NONE', #42, #47, #63 ) ;
#156 =( LENGTH_UNIT ( ) NAMED_UNIT ( * ) SI_UNIT ( $, .METRE. ) );
#157 = CARTESIAN_POINT ( 'NONE',  ( 2.707884184101096125E-16, 0.2641377481542529493, 0.000000000000000000 ) ) ;
#158 = SURFACE_STYLE_FILL_AREA ( #275 ) ;
#159 = CARTESIAN_POINT ( 'NONE',  ( 2.707884184101096125E-16, 0.2641377481542530603, 0.000000000000000000 ) ) ;
#160 = DIRECTION ( 'NONE',  ( 0.000000000000000000, 0.000000000000000000, 1.000000000000000000 ) ) ;
#161 = DIRECTION ( 'NONE',  ( -0.000000000000000000, -1.000000000000000000, -0.000000000000000000 ) ) ;
#162 = PRESENTATION_LAYER_ASSIGNMENT (  '', '', ( #8 ) ) ;
#163 = STYLED_ITEM ( 'NONE', ( #13 ), #234 ) ;
#164 = DIMENSIONAL_EXPONENTS ( 1.000000000000000000, 0.000000000000000000, 0.000000000000000000, 0.000000000000000000, 0.000000000000000000, 0.000000000000000000, 0.000000000000000000 ) ;
#165 = PRODUCT_DEFINITION ( 'UNKNOWN', '', #298, #257 ) ;
#166 = PRESENTATION_LAYER_ASSIGNMENT (  '', '', ( #236 ) ) ;
#167 = VERTEX_POINT ( 'NONE', #51 ) ;
#168 = DIMENSIONAL_EXPONENTS ( 1.000000000000000000, 0.000000000000000000, 0.000000000000000000, 0.000000000000000000, 0.000000000000000000, 0.000000000000000000, 0.000000000000000000 ) ;
#169 = FILL_AREA_STYLE ('',( #84 ) ) ;
#170 = ORIENTED_EDGE ( 'NONE', *, *, #216, .T. ) ;
#171 = CIRCLE ( 'NONE', #55, 0.1874999999999996947 ) ;
#172 = CARTESIAN_POINT ( 'NONE',  ( 0.000000000000000000, 0.2641377481542529493, 0.1874999999999999722 ) ) ;
#173 = EDGE_LOOP ( 'NONE', ( #193, #6 ) ) ;
#174 = FILL_AREA_STYLE_COLOUR ( '', #306 ) ;
#175 = ADVANCED_FACE ( 'NONE', ( #283 ), #56, .T. ) ;
#176 = EDGE_CURVE ( 'NONE', #65, #214, #110, .T. ) ;
#177 = COLOUR_RGB ( '',1.000000000000000000, 0.000000000000000000, 0.000000000000000000 ) ;
#178 = FACE_OUTER_BOUND ( 'NONE', #295, .T. ) ;
#179 = LENGTH_MEASURE_WITH_UNIT ( LENGTH_MEASURE( 0.02539999999999999897 ), #225 );
#180 = DIRECTION ( 'NONE',  ( 1.000000000000000000, 0.000000000000000000, 0.000000000000000000 ) ) ;
#181 = DIRECTION ( 'NONE',  ( -1.000000000000000000, -1.821231995776178437E-16, 0.000000000000000000 ) ) ;
#182 = UNCERTAINTY_MEASURE_WITH_UNIT (LENGTH_MEASURE( 1.000000000000000082E-05 ), #197, 'distance_accuracy_value', 'NONE');
#183 = AXIS2_PLACEMENT_3D ( 'NONE', #253, #161, #269 ) ;
#184 = DIRECTION ( 'NONE',  ( -9.372495030932666506E-17, 1.000000000000000000, 0.000000000000000000 ) ) ;
#185 = CARTESIAN_POINT ( 'NONE',  ( 0.000000000000000000, 0.000000000000000000, 0.03500000000000000333 ) ) ;
#186 = DIRECTION ( 'NONE',  ( -9.372495030932666506E-17, 1.000000000000000000, -0.000000000000000000 ) ) ;
#187 = ORIENTED_EDGE ( 'NONE', *, *, #134, .F. ) ;
#188 = AXIS2_PLACEMENT_3D ( 'NONE', #206, #67, #86 ) ;
#189 = DIMENSIONAL_EXPONENTS ( 1.000000000000000000, 0.000000000000000000, 0.000000000000000000, 0.000000000000000000, 0.000000000000000000, 0.000000000000000000, 0.000000000000000000 ) ;
#190 = ORIENTED_EDGE ( 'NONE', *, *, #78, .F. ) ;
#191 = CARTESIAN_POINT ( 'NONE',  ( 2.707884184101096125E-16, 0.2641377481542530603, 0.000000000000000000 ) ) ;
#192 = LENGTH_MEASURE_WITH_UNIT ( LENGTH_MEASURE( 0.02539999999999999897 ), #20 );
#193 = ORIENTED_EDGE ( 'NONE', *, *, #302, .F. ) ;
#194 =( NAMED_UNIT ( * ) PLANE_ANGLE_UNIT ( ) SI_UNIT ( $, .RADIAN. ) );
#195 = AXIS2_PLACEMENT_3D ( 'NONE', #191, #104, #44 ) ;
#196 = CIRCLE ( 'NONE', #183, 0.1874999999999999722 ) ;
#197 =( CONVERSION_BASED_UNIT ( 'INCH', #34 ) LENGTH_UNIT ( ) NAMED_UNIT ( #10 ) );
#198 = FACE_OUTER_BOUND ( 'NONE', #292, .T. ) ;
#199 = SURFACE_STYLE_USAGE ( .BOTH. , #243 ) ;
#200 =( LENGTH_UNIT ( ) NAMED_UNIT ( * ) SI_UNIT ( $, .METRE. ) );
#201 = MECHANICAL_DESIGN_GEOMETRIC_PRESENTATION_REPRESENTATION (  '', ( #288 ), #29 ) ;
#202 = MANIFOLD_SOLID_BREP ( 'Revolve - Cutting Edge', #113 ) ;
#203 = CIRCLE ( 'NONE', #76, 0.1874999999999999167 ) ;
#204 = PRESENTATION_STYLE_ASSIGNMENT (( #299 ) ) ;
#205 = SURFACE_STYLE_USAGE ( .BOTH. , #272 ) ;
#206 = CARTESIAN_POINT ( 'NONE',  ( 0.000000000000000000, 0.000000000000000000, 0.000000000000000000 ) ) ;
#207 = UNCERTAINTY_MEASURE_WITH_UNIT (LENGTH_MEASURE( 1.000000000000000082E-05 ), #95, 'distance_accuracy_value', 'NONE');
#208 = EDGE_CURVE ( 'NONE', #65, #115, #50, .T. ) ;
#209 = CARTESIAN_POINT ( 'NONE',  ( 0.000000000000000000, 0.000000000000000000, 0.000000000000000000 ) ) ;
#210 = MANIFOLD_SOLID_BREP ( 'Revolve - Tool Body (Tipped Off)', #85 ) ;
#211 = LINE ( 'NONE', #287, #277 ) ;
#212 = DIMENSIONAL_EXPONENTS ( 1.000000000000000000, 0.000000000000000000, 0.000000000000000000, 0.000000000000000000, 0.000000000000000000, 0.000000000000000000, 0.000000000000000000 ) ;
#213 = APPLICATION_CONTEXT ( 'automotive_design' ) ;
#214 = VERTEX_POINT ( 'NONE', #172 ) ;
#215 = EDGE_LOOP ( 'NONE', ( #9, #102, #262, #291 ) ) ;
#216 = EDGE_CURVE ( 'NONE', #265, #239, #244, .T. ) ;
#217 = EDGE_LOOP ( 'NONE', ( #187, #296, #219, #141 ) ) ;
#218 = FILL_AREA_STYLE_COLOUR ( '', #177 ) ;
#219 = ORIENTED_EDGE ( 'NONE', *, *, #270, .T. ) ;
#220 = DIRECTION ( 'NONE',  ( 0.000000000000000000, -0.000000000000000000, 1.000000000000000000 ) ) ;
#221 = STYLED_ITEM ( 'NONE', ( #230 ), #202 ) ;
#222 = PRESENTATION_STYLE_ASSIGNMENT (( #122 ) ) ;
#223 = FILL_AREA_STYLE ('',( #22 ) ) ;
#224 = SURFACE_STYLE_FILL_AREA ( #223 ) ;
#225 =( LENGTH_UNIT ( ) NAMED_UNIT ( * ) SI_UNIT ( $, .METRE. ) );
#226 = DIRECTION ( 'NONE',  ( 1.000000000000000000, 9.372495030932666506E-17, 0.000000000000000000 ) ) ;
#227 = MECHANICAL_DESIGN_GEOMETRIC_PRESENTATION_REPRESENTATION (  '', ( #221 ), #69 ) ;
#228 = UNCERTAINTY_MEASURE_WITH_UNIT (LENGTH_MEASURE( 1.000000000000000082E-05 ), #46, 'distance_accuracy_value', 'NONE');
#229 = ADVANCED_FACE ( 'NONE', ( #178 ), #80, .T. ) ;
#230 = PRESENTATION_STYLE_ASSIGNMENT (( #129 ) ) ;
#231 = DIRECTION ( 'NONE',  ( -9.372495030932666506E-17, 1.000000000000000000, -0.000000000000000000 ) ) ;
#232 = DIRECTION ( 'NONE',  ( 0.000000000000000000, 0.000000000000000000, -1.000000000000000000 ) ) ;
#233 = DIRECTION ( 'NONE',  ( -9.372495030932666506E-17, 1.000000000000000000, -0.000000000000000000 ) ) ;
#234 = ADVANCED_FACE ( 'NONE', ( #105 ), #144, .T. ) ;
#235 = SURFACE_STYLE_FILL_AREA ( #143 ) ;
#236 = STYLED_ITEM ( 'NONE', ( #241 ), #210 ) ;
#237 = ORIENTED_EDGE ( 'NONE', *, *, #78, .T. ) ;
#238 = CARTESIAN_POINT ( 'NONE',  ( 6.123233995736772199E-17, 2.500000000000000000, 0.000000000000000000 ) ) ;
#239 = VERTEX_POINT ( 'NONE', #247 ) ;
#240 = CARTESIAN_POINT ( 'NONE',  ( 0.000000000000000000, 0.2641377481542529493, 0.000000000000000000 ) ) ;
#241 = PRESENTATION_STYLE_ASSIGNMENT (( #245 ) ) ;
#242 = SURFACE_SIDE_STYLE ('',( #235 ) ) ;
#243 = SURFACE_SIDE_STYLE ('',( #224 ) ) ;
#244 = CIRCLE ( 'NONE', #103, 0.1874999999999999167 ) ;
#245 = SURFACE_STYLE_USAGE ( .BOTH. , #148 ) ;
#246 = DIRECTION ( 'NONE',  ( -9.372495030932666506E-17, 1.000000000000000000, -0.000000000000000000 ) ) ;
#247 = CARTESIAN_POINT ( 'NONE',  ( -0.1874999999999998335, 2.500000000000000000, 0.000000000000000000 ) ) ;
#248 =( NAMED_UNIT ( * ) SI_UNIT ( $, .STERADIAN. ) SOLID_ANGLE_UNIT ( ) );
#249 = PRODUCT_CONTEXT ( 'NONE', #3, 'mechanical' ) ;
#250 = CARTESIAN_POINT ( 'NONE',  ( 6.123233995736772199E-17, 2.500000000000000000, 0.000000000000000000 ) ) ;
#251 =( GEOMETRIC_REPRESENTATION_CONTEXT ( 3 ) GLOBAL_UNCERTAINTY_ASSIGNED_CONTEXT ( ( #284 ) ) GLOBAL_UNIT_ASSIGNED_CONTEXT ( ( #66, #194, #263 ) ) REPRESENTATION_CONTEXT ( 'NONE', 'WORKASPACE' ) );
#252 = DIRECTION ( 'NONE',  ( 0.000000000000000000, 0.000000000000000000, 1.000000000000000000 ) ) ;
#253 = CARTESIAN_POINT ( 'NONE',  ( 0.000000000000000000, 0.2641377481542529493, 0.000000000000000000 ) ) ;
#254 = SURFACE_SIDE_STYLE ('',( #158 ) ) ;
#255 = SHAPE_DEFINITION_REPRESENTATION ( #273, #88 ) ;
#256 = CARTESIAN_POINT ( 'NONE',  ( 0.000000000000000000, 0.000000000000000000, 0.000000000000000000 ) ) ;
#257 = PRODUCT_DEFINITION_CONTEXT ( 'detailed design', #213, 'design' ) ;
#258 = CIRCLE ( 'NONE', #195, 0.1874999999999996947 ) ;
#259 = DIMENSIONAL_EXPONENTS ( 1.000000000000000000, 0.000000000000000000, 0.000000000000000000, 0.000000000000000000, 0.000000000000000000, 0.000000000000000000, 0.000000000000000000 ) ;
#260 =( CONVERSION_BASED_UNIT ( 'INCH', #192 ) LENGTH_UNIT ( ) NAMED_UNIT ( #189 ) );
#261 = AXIS2_PLACEMENT_3D ( 'NONE', #305, #91, #226 ) ;
#262 = ORIENTED_EDGE ( 'NONE', *, *, #90, .T. ) ;
#263 =( NAMED_UNIT ( * ) SI_UNIT ( $, .STERADIAN. ) SOLID_ANGLE_UNIT ( ) );
#264 = DIRECTION ( 'NONE',  ( -9.372495030932666506E-17, 1.000000000000000000, -0.000000000000000000 ) ) ;
#265 = VERTEX_POINT ( 'NONE', #16 ) ;
#266 = EDGE_LOOP ( 'NONE', ( #139, #62 ) ) ;
#267 =( NAMED_UNIT ( * ) PLANE_ANGLE_UNIT ( ) SI_UNIT ( $, .RADIAN. ) );
#268 = MECHANICAL_DESIGN_GEOMETRIC_PRESENTATION_REPRESENTATION (  '', ( #236 ), #133 ) ;
#269 = DIRECTION ( 'NONE',  ( 0.000000000000000000, 0.000000000000000000, -1.000000000000000000 ) ) ;
#270 = EDGE_CURVE ( 'NONE', #119, #214, #293, .T. ) ;
#271 = SURFACE_SIDE_STYLE ('',( #48 ) ) ;
#272 = SURFACE_SIDE_STYLE ('',( #87 ) ) ;
#273 = PRODUCT_DEFINITION_SHAPE ( 'NONE', 'NONE',  #165 ) ;
#274 = FILL_AREA_STYLE ('',( #70 ) ) ;
#275 = FILL_AREA_STYLE ('',( #92 ) ) ;
#276 =( GEOMETRIC_REPRESENTATION_CONTEXT ( 3 ) GLOBAL_UNCERTAINTY_ASSIGNED_CONTEXT ( ( #309 ) ) GLOBAL_UNIT_ASSIGNED_CONTEXT ( ( #151, #57, #137 ) ) REPRESENTATION_CONTEXT ( 'NONE', 'WORKASPACE' ) );
#277 = VECTOR ( 'NONE', #7, 39.37007874015748143 ) ;
#278 = APPLICATION_PROTOCOL_DEFINITION ( 'draft international standard', 'automotive_design', 1998, #213 ) ;
#279 = UNCERTAINTY_MEASURE_WITH_UNIT (LENGTH_MEASURE( 1.000000000000000082E-05 ), #260, 'distance_accuracy_value', 'NONE');
#280 = PRODUCT ( '59816', '59816', '', ( #249 ) ) ;
#281 = ADVANCED_FACE ( 'NONE', ( #120 ), #19, .F. ) ;
#282 = CARTESIAN_POINT ( 'NONE',  ( 2.296212748401287109E-17, 0.2641377481542529493, -0.1874999999999999722 ) ) ;
#283 = FACE_OUTER_BOUND ( 'NONE', #215, .T. ) ;
#284 = UNCERTAINTY_MEASURE_WITH_UNIT (LENGTH_MEASURE( 1.000000000000000082E-05 ), #66, 'distance_accuracy_value', 'NONE');
#285 = COLOUR_RGB ( '',1.000000000000000000, 0.000000000000000000, 0.000000000000000000 ) ;
#286 = AXIS2_PLACEMENT_3D ( 'NONE', #140, #123, #118 ) ;
#287 = CARTESIAN_POINT ( 'NONE',  ( -0.1874999999999997502, 2.500000000000000000, 0.000000000000000000 ) ) ;
#288 = STYLED_ITEM ( 'NONE', ( #222 ), #5 ) ;
#289 = AXIS2_PLACEMENT_3D ( 'NONE', #250, #233, #25 ) ;
#290 =( CONVERSION_BASED_UNIT ( 'INCH', #35 ) LENGTH_UNIT ( ) NAMED_UNIT ( #168 ) );
#291 = ORIENTED_EDGE ( 'NONE', *, *, #216, .F. ) ;
#292 = EDGE_LOOP ( 'NONE', ( #106, #59 ) ) ;
#293 = CIRCLE ( 'NONE', #155, 0.1874999999999999722 ) ;
#294 = FILL_AREA_STYLE ('',( #218 ) ) ;
#295 = EDGE_LOOP ( 'NONE', ( #12, #117, #41, #15 ) ) ;
#296 = ORIENTED_EDGE ( 'NONE', *, *, #52, .T. ) ;
#297 = COLOUR_RGB ( '',1.000000000000000000, 0.000000000000000000, 0.000000000000000000 ) ;
#298 = PRODUCT_DEFINITION_FORMATION_WITH_SPECIFIED_SOURCE ( 'ANY', '', #280, .NOT_KNOWN. ) ;
#299 = SURFACE_STYLE_USAGE ( .BOTH. , #271 ) ;
#300 = CYLINDRICAL_SURFACE ( 'NONE', #17, 0.1874999999999998057 ) ;
#301 = DIRECTION ( 'NONE',  ( 0.000000000000000000, 0.8660254037844379305, 0.5000000000000009992 ) ) ;
#302 = EDGE_CURVE ( 'NONE', #214, #119, #196, .T. ) ;
#303 = PLANE ( 'NONE',  #261 ) ;
#304 = DIRECTION ( 'NONE',  ( -1.000000000000000000, -9.372495030932666506E-17, 0.000000000000000000 ) ) ;
#305 = CARTESIAN_POINT ( 'NONE',  ( 0.1874999999999999722, 2.500000000000000000, 0.000000000000000000 ) ) ;
#306 = COLOUR_RGB ( '',1.000000000000000000, 0.000000000000000000, 0.000000000000000000 ) ;
#307 = VECTOR ( 'NONE', #186, 39.37007874015748143 ) ;
#308 = LINE ( 'NONE', #53, #30 ) ;
#309 = UNCERTAINTY_MEASURE_WITH_UNIT (LENGTH_MEASURE( 1.000000000000000082E-05 ), #151, 'distance_accuracy_value', 'NONE');
ENDSEC;
END-ISO-10303-21;
