ISO-10303-21;
HEADER;
FILE_DESCRIPTION (( 'STEP AP214' ),
    '1' );
FILE_NAME ('56677.STEP',
    '2023-06-30T22:12:36',
    ( '' ),
    ( '' ),
    'SwSTEP 2.0',
    'SolidWorks 2023',
    '' );
FILE_SCHEMA (( 'AUTOMOTIVE_DESIGN' ));
ENDSEC;

DATA;
#1 =( GEOMETRIC_REPRESENTATION_CONTEXT ( 3 ) GLOBAL_UNCERTAINTY_ASSIGNED_CONTEXT ( ( #350 ) ) GLOBAL_UNIT_ASSIGNED_CONTEXT ( ( #259, #343, #336 ) ) REPRESENTATION_CONTEXT ( 'NONE', 'WORKASPACE' ) );
#2 =( NAMED_UNIT ( * ) SI_UNIT ( $, .STERADIAN. ) SOLID_ANGLE_UNIT ( ) );
#3 = FACE_OUTER_BOUND ( 'NONE', #107, .T. ) ;
#4 =( LENGTH_UNIT ( ) NAMED_UNIT ( * ) SI_UNIT ( $, .METRE. ) );
#5 =( NAMED_UNIT ( * ) PLANE_ANGLE_UNIT ( ) SI_UNIT ( $, .RADIAN. ) );
#6 = LENGTH_MEASURE_WITH_UNIT ( LENGTH_MEASURE( 0.02539999999999999897 ), #4 );
#7 = MECHANICAL_DESIGN_GEOMETRIC_PRESENTATION_REPRESENTATION (  '', ( #25 ), #1 ) ;
#8 = DIRECTION ( 'NONE',  ( 0.000000000000000000, 0.000000000000000000, -1.000000000000000000 ) ) ;
#9 = FILL_AREA_STYLE ('',( #308 ) ) ;
#10 = ORIENTED_EDGE ( 'NONE', *, *, #28, .F. ) ;
#11 = VECTOR ( 'NONE', #101, 39.37007874015748143 ) ;
#12 =( NAMED_UNIT ( * ) SI_UNIT ( $, .STERADIAN. ) SOLID_ANGLE_UNIT ( ) );
#13 = ORIENTED_EDGE ( 'NONE', *, *, #171, .F. ) ;
#14 = EDGE_CURVE ( 'NONE', #147, #170, #223, .T. ) ;
#15 = CARTESIAN_POINT ( 'NONE',  ( -1.224646799147353207E-16, 5.000000000000000000, 0.000000000000000000 ) ) ;
#16 = ORIENTED_EDGE ( 'NONE', *, *, #222, .T. ) ;
#17 = LENGTH_MEASURE_WITH_UNIT ( LENGTH_MEASURE( 0.02539999999999999897 ), #220 );
#18 = EDGE_LOOP ( 'NONE', ( #165, #291, #27, #289 ) ) ;
#19 = LINE ( 'NONE', #313, #11 ) ;
#20 = EDGE_LOOP ( 'NONE', ( #311, #194, #134, #44 ) ) ;
#21 = COLOUR_RGB ( '',0.7921568627450980005, 0.8196078431372548767, 0.9333333333333333481 ) ;
#22 = DIRECTION ( 'NONE',  ( -1.224646799147353207E-16, 1.000000000000000000, -0.000000000000000000 ) ) ;
#23 = PRESENTATION_LAYER_ASSIGNMENT (  '', '', ( #48 ) ) ;
#24 = FILL_AREA_STYLE_COLOUR ( '', #135 ) ;
#25 = STYLED_ITEM ( 'NONE', ( #141 ), #233 ) ;
#26 = FACE_OUTER_BOUND ( 'NONE', #199, .T. ) ;
#27 = ORIENTED_EDGE ( 'NONE', *, *, #14, .F. ) ;
#28 = EDGE_CURVE ( 'NONE', #359, #316, #40, .T. ) ;
#29 = PLANE ( 'NONE',  #248 ) ;
#30 = CIRCLE ( 'NONE', #214, 0.3750000000000000555 ) ;
#31 = SURFACE_STYLE_USAGE ( .BOTH. , #298 ) ;
#32 =( LENGTH_UNIT ( ) NAMED_UNIT ( * ) SI_UNIT ( $, .METRE. ) );
#33 = EDGE_CURVE ( 'NONE', #341, #316, #30, .T. ) ;
#34 = CARTESIAN_POINT ( 'NONE',  ( -0.3750000000000000555, 0.3750000000000001110, 4.592425496802574219E-17 ) ) ;
#35 = PRESENTATION_STYLE_ASSIGNMENT (( #184 ) ) ;
#36 = SURFACE_STYLE_USAGE ( .BOTH. , #65 ) ;
#37 = DIMENSIONAL_EXPONENTS ( 1.000000000000000000, 0.000000000000000000, 0.000000000000000000, 0.000000000000000000, 0.000000000000000000, 0.000000000000000000, 0.000000000000000000 ) ;
#38 = APPLICATION_CONTEXT ( 'automotive_design' ) ;
#39 =( NAMED_UNIT ( * ) SI_UNIT ( $, .STERADIAN. ) SOLID_ANGLE_UNIT ( ) );
#40 = CIRCLE ( 'NONE', #83, 0.3750000000000000555 ) ;
#41 = CARTESIAN_POINT ( 'NONE',  ( 0.000000000000000000, 0.3750000000000001110, -0.3749999999999999445 ) ) ;
#42 = ADVANCED_FACE ( 'NONE', ( #3 ), #115, .T. ) ;
#43 = DIRECTION ( 'NONE',  ( 0.000000000000000000, 0.000000000000000000, -1.000000000000000000 ) ) ;
#44 = ORIENTED_EDGE ( 'NONE', *, *, #28, .T. ) ;
#45 = CARTESIAN_POINT ( 'NONE',  ( 2.143131898507867804E-16, 2.250000000000000444, 0.000000000000000000 ) ) ;
#46 = MECHANICAL_DESIGN_GEOMETRIC_PRESENTATION_REPRESENTATION (  '', ( #148 ), #247 ) ;
#47 = VECTOR ( 'NONE', #172, 39.37007874015748143 ) ;
#48 = STYLED_ITEM ( 'NONE', ( #35 ), #154 ) ;
#49 = DIRECTION ( 'NONE',  ( 0.000000000000000000, 0.000000000000000000, -1.000000000000000000 ) ) ;
#50 = ORIENTED_EDGE ( 'NONE', *, *, #137, .F. ) ;
#51 = ADVANCED_FACE ( 'NONE', ( #369 ), #232, .T. ) ;
#52 = AXIS2_PLACEMENT_3D ( 'NONE', #45, #198, #221 ) ;
#53 = CARTESIAN_POINT ( 'NONE',  ( 0.000000000000000000, 2.250000000000000000, 0.000000000000000000 ) ) ;
#54 = LINE ( 'NONE', #178, #47 ) ;
#55 = ORIENTED_EDGE ( 'NONE', *, *, #127, .T. ) ;
#56 = SPHERICAL_SURFACE ( 'NONE', #191, 0.3750000000000000555 ) ;
#57 =( NAMED_UNIT ( * ) SI_UNIT ( $, .STERADIAN. ) SOLID_ANGLE_UNIT ( ) );
#58 = DIRECTION ( 'NONE',  ( -1.000000000000000000, 0.000000000000000000, 0.000000000000000000 ) ) ;
#59 = CYLINDRICAL_SURFACE ( 'NONE', #332, 0.3749999999999996669 ) ;
#60 = COLOUR_RGB ( '',1.000000000000000000, 0.000000000000000000, 0.000000000000000000 ) ;
#61 = EDGE_CURVE ( 'NONE', #162, #147, #246, .T. ) ;
#62 = FILL_AREA_STYLE ('',( #215 ) ) ;
#63 = DIRECTION ( 'NONE',  ( -0.000000000000000000, -1.000000000000000000, -0.000000000000000000 ) ) ;
#64 = AXIS2_PLACEMENT_3D ( 'NONE', #304, #63, #243 ) ;
#65 = SURFACE_SIDE_STYLE ('',( #153 ) ) ;
#66 =( CONVERSION_BASED_UNIT ( 'INCH', #303 ) LENGTH_UNIT ( ) NAMED_UNIT ( #275 ) );
#67 = DIMENSIONAL_EXPONENTS ( 1.000000000000000000, 0.000000000000000000, 0.000000000000000000, 0.000000000000000000, 0.000000000000000000, 0.000000000000000000, 0.000000000000000000 ) ;
#68 = FILL_AREA_STYLE ('',( #337 ) ) ;
#69 = PRESENTATION_LAYER_ASSIGNMENT (  '', '', ( #240 ) ) ;
#70 = ORIENTED_EDGE ( 'NONE', *, *, #180, .F. ) ;
#71 = CARTESIAN_POINT ( 'NONE',  ( 0.000000000000000000, 2.250000000000000000, 0.000000000000000000 ) ) ;
#72 = ORIENTED_EDGE ( 'NONE', *, *, #330, .T. ) ;
#73 = PRESENTATION_LAYER_ASSIGNMENT (  '', '', ( #201 ) ) ;
#74 = DIRECTION ( 'NONE',  ( -0.000000000000000000, -1.000000000000000000, -0.000000000000000000 ) ) ;
#75 = AXIS2_PLACEMENT_3D ( 'NONE', #176, #294, #323 ) ;
#76 = DIRECTION ( 'NONE',  ( 0.000000000000000000, 0.000000000000000000, 1.000000000000000000 ) ) ;
#77 = ORIENTED_EDGE ( 'NONE', *, *, #320, .F. ) ;
#78 = CIRCLE ( 'NONE', #286, 0.3749999999999999445 ) ;
#79 = CARTESIAN_POINT ( 'NONE',  ( 0.3749999999999997780, 2.250000000000000444, 4.592425496802571754E-17 ) ) ;
#80 = ORIENTED_EDGE ( 'NONE', *, *, #171, .T. ) ;
#81 = CIRCLE ( 'NONE', #271, 0.3749999999999999445 ) ;
#82 = DIRECTION ( 'NONE',  ( -1.000000000000000000, 0.000000000000000000, 0.000000000000000000 ) ) ;
#83 = AXIS2_PLACEMENT_3D ( 'NONE', #370, #348, #202 ) ;
#84 = PRODUCT_RELATED_PRODUCT_CATEGORY ( 'part', '', ( #229 ) ) ;
#85 = LENGTH_MEASURE_WITH_UNIT ( LENGTH_MEASURE( 0.02539999999999999897 ), #372 );
#86 = UNCERTAINTY_MEASURE_WITH_UNIT (LENGTH_MEASURE( 1.000000000000000082E-05 ), #120, 'distance_accuracy_value', 'NONE');
#87 =( CONVERSION_BASED_UNIT ( 'INCH', #270 ) LENGTH_UNIT ( ) NAMED_UNIT ( #283 ) );
#88 = SURFACE_SIDE_STYLE ('',( #91 ) ) ;
#89 = SURFACE_SIDE_STYLE ('',( #262 ) ) ;
#90 = DIMENSIONAL_EXPONENTS ( 1.000000000000000000, 0.000000000000000000, 0.000000000000000000, 0.000000000000000000, 0.000000000000000000, 0.000000000000000000, 0.000000000000000000 ) ;
#91 = SURFACE_STYLE_FILL_AREA ( #204 ) ;
#92 = CIRCLE ( 'NONE', #306, 0.3749999999999999445 ) ;
#93 = CARTESIAN_POINT ( 'NONE',  ( 0.3749999999999997780, 5.000000000000000000, 0.000000000000000000 ) ) ;
#94 = DIRECTION ( 'NONE',  ( -1.224646799147353207E-16, 1.000000000000000000, -0.000000000000000000 ) ) ;
#95 = DIRECTION ( 'NONE',  ( 1.224646799147353207E-16, -1.000000000000000000, 0.000000000000000000 ) ) ;
#96 = PRODUCT_DEFINITION_FORMATION_WITH_SPECIFIED_SOURCE ( 'ANY', '', #229, .NOT_KNOWN. ) ;
#97 = DIRECTION ( 'NONE',  ( 1.000000000000000000, 0.000000000000000000, 0.000000000000000000 ) ) ;
#98 = FILL_AREA_STYLE_COLOUR ( '', #21 ) ;
#99 = DIRECTION ( 'NONE',  ( 1.000000000000000000, 1.224646799147353207E-16, 0.000000000000000000 ) ) ;
#100 = FACE_OUTER_BOUND ( 'NONE', #344, .T. ) ;
#101 = DIRECTION ( 'NONE',  ( -1.224646799147353207E-16, 1.000000000000000000, -0.000000000000000000 ) ) ;
#102 = MECHANICAL_DESIGN_GEOMETRIC_PRESENTATION_REPRESENTATION (  '', ( #166 ), #302 ) ;
#103 =( NAMED_UNIT ( * ) PLANE_ANGLE_UNIT ( ) SI_UNIT ( $, .RADIAN. ) );
#104 = DIRECTION ( 'NONE',  ( 0.000000000000000000, 0.000000000000000000, -1.000000000000000000 ) ) ;
#105 = EDGE_LOOP ( 'NONE', ( #346, #226, #10, #224 ) ) ;
#106 = DIRECTION ( 'NONE',  ( 1.000000000000000000, 0.000000000000000000, 0.000000000000000000 ) ) ;
#107 = EDGE_LOOP ( 'NONE', ( #55, #131, #50, #197, #280 ) ) ;
#108 = AXIS2_PLACEMENT_3D ( 'NONE', #213, #152, #244 ) ;
#109 = ORIENTED_EDGE ( 'NONE', *, *, #157, .F. ) ;
#110 = MANIFOLD_SOLID_BREP ( 'Revolve - Cutting Edge', #196 ) ;
#111 = DIRECTION ( 'NONE',  ( -0.000000000000000000, -1.000000000000000000, -0.000000000000000000 ) ) ;
#112 = FILL_AREA_STYLE_COLOUR ( '', #352 ) ;
#113 = ADVANCED_FACE ( 'NONE', ( #159 ), #355, .F. ) ;
#114 = DIRECTION ( 'NONE',  ( 0.000000000000000000, 0.000000000000000000, 1.000000000000000000 ) ) ;
#115 = CYLINDRICAL_SURFACE ( 'NONE', #75, 0.3749999999999998335 ) ;
#116 = CARTESIAN_POINT ( 'NONE',  ( -4.592425496802575451E-17, 0.3750000000000000555, 0.000000000000000000 ) ) ;
#117 = CIRCLE ( 'NONE', #52, 0.3749999999999995559 ) ;
#118 =( LENGTH_UNIT ( ) NAMED_UNIT ( * ) SI_UNIT ( $, .METRE. ) );
#119 = SURFACE_STYLE_FILL_AREA ( #179 ) ;
#120 =( CONVERSION_BASED_UNIT ( 'INCH', #85 ) LENGTH_UNIT ( ) NAMED_UNIT ( #90 ) );
#121 = MECHANICAL_DESIGN_GEOMETRIC_PRESENTATION_REPRESENTATION (  '', ( #240 ), #234 ) ;
#122 = FACE_OUTER_BOUND ( 'NONE', #20, .T. ) ;
#123 =( CONVERSION_BASED_UNIT ( 'INCH', #358 ) LENGTH_UNIT ( ) NAMED_UNIT ( #225 ) );
#124 = EDGE_CURVE ( 'NONE', #284, #162, #216, .T. ) ;
#125 = FILL_AREA_STYLE ('',( #98 ) ) ;
#126 = DIRECTION ( 'NONE',  ( 0.000000000000000000, 1.000000000000000000, 0.000000000000000000 ) ) ;
#127 = EDGE_CURVE ( 'NONE', #142, #287, #267, .T. ) ;
#128 = CARTESIAN_POINT ( 'NONE',  ( 0.000000000000000000, 2.250000000000000000, -0.3749999999999997780 ) ) ;
#129 =( NAMED_UNIT ( * ) PLANE_ANGLE_UNIT ( ) SI_UNIT ( $, .RADIAN. ) );
#130 = AXIS2_PLACEMENT_3D ( 'NONE', #53, #169, #195 ) ;
#131 = ORIENTED_EDGE ( 'NONE', *, *, #320, .T. ) ;
#132 = CARTESIAN_POINT ( 'NONE',  ( 2.143131898507868051E-16, 2.250000000000000000, 0.000000000000000000 ) ) ;
#133 = CLOSED_SHELL ( 'NONE', ( #269, #367, #293, #113 ) ) ;
#134 = ORIENTED_EDGE ( 'NONE', *, *, #205, .T. ) ;
#135 = COLOUR_RGB ( '',1.000000000000000000, 0.000000000000000000, 0.000000000000000000 ) ;
#136 = ORIENTED_EDGE ( 'NONE', *, *, #222, .F. ) ;
#137 = EDGE_CURVE ( 'NONE', #359, #364, #92, .T. ) ;
#138 = SURFACE_SIDE_STYLE ('',( #340 ) ) ;
#139 = ORIENTED_EDGE ( 'NONE', *, *, #127, .F. ) ;
#140 =( GEOMETRIC_REPRESENTATION_CONTEXT ( 3 ) GLOBAL_UNCERTAINTY_ASSIGNED_CONTEXT ( ( #206 ) ) GLOBAL_UNIT_ASSIGNED_CONTEXT ( ( #87, #290, #2 ) ) REPRESENTATION_CONTEXT ( 'NONE', 'WORKASPACE' ) );
#141 = PRESENTATION_STYLE_ASSIGNMENT (( #257 ) ) ;
#142 = VERTEX_POINT ( 'NONE', #128 ) ;
#143 = AXIS2_PLACEMENT_3D ( 'NONE', #349, #22, #82 ) ;
#144 = PRODUCT_DEFINITION ( 'UNKNOWN', '', #96, #192 ) ;
#145 = FILL_AREA_STYLE ('',( #24 ) ) ;
#146 = ADVANCED_BREP_SHAPE_REPRESENTATION ( '56677', ( #110, #233, #305 ), #312 ) ;
#147 = VERTEX_POINT ( 'NONE', #250 ) ;
#148 = STYLED_ITEM ( 'NONE', ( #321 ), #42 ) ;
#149 = SURFACE_STYLE_USAGE ( .BOTH. , #89 ) ;
#150 = PRESENTATION_STYLE_ASSIGNMENT (( #31 ) ) ;
#151 = CARTESIAN_POINT ( 'NONE',  ( 0.000000000000000000, 0.000000000000000000, 0.000000000000000000 ) ) ;
#152 = DIRECTION ( 'NONE',  ( -0.000000000000000000, -1.000000000000000000, -0.000000000000000000 ) ) ;
#153 = SURFACE_STYLE_FILL_AREA ( #125 ) ;
#154 = ADVANCED_FACE ( 'NONE', ( #122 ), #254, .T. ) ;
#155 =( GEOMETRIC_REPRESENTATION_CONTEXT ( 3 ) GLOBAL_UNCERTAINTY_ASSIGNED_CONTEXT ( ( #326 ) ) GLOBAL_UNIT_ASSIGNED_CONTEXT ( ( #164, #129, #12 ) ) REPRESENTATION_CONTEXT ( 'NONE', 'WORKASPACE' ) );
#156 = CARTESIAN_POINT ( 'NONE',  ( 0.000000000000000000, 0.3750000000000001110, 0.000000000000000000 ) ) ;
#157 = EDGE_CURVE ( 'NONE', #341, #251, #173, .T. ) ;
#158 = APPLICATION_CONTEXT ( 'automotive_design' ) ;
#159 = FACE_OUTER_BOUND ( 'NONE', #190, .T. ) ;
#160 = DIRECTION ( 'NONE',  ( -0.000000000000000000, -1.000000000000000000, -0.000000000000000000 ) ) ;
#161 = PRESENTATION_LAYER_ASSIGNMENT (  '', '', ( #25 ) ) ;
#162 = VERTEX_POINT ( 'NONE', #310 ) ;
#163 = APPLICATION_PROTOCOL_DEFINITION ( 'draft international standard', 'automotive_design', 1998, #158 ) ;
#164 =( CONVERSION_BASED_UNIT ( 'INCH', #6 ) LENGTH_UNIT ( ) NAMED_UNIT ( #37 ) );
#165 = ORIENTED_EDGE ( 'NONE', *, *, #180, .T. ) ;
#166 = STYLED_ITEM ( 'NONE', ( #268 ), #334 ) ;
#167 = AXIS2_PLACEMENT_3D ( 'NONE', #301, #94, #331 ) ;
#168 = DIMENSIONAL_EXPONENTS ( 1.000000000000000000, 0.000000000000000000, 0.000000000000000000, 0.000000000000000000, 0.000000000000000000, 0.000000000000000000, 0.000000000000000000 ) ;
#169 = DIRECTION ( 'NONE',  ( -0.000000000000000000, -1.000000000000000000, -0.000000000000000000 ) ) ;
#170 = VERTEX_POINT ( 'NONE', #288 ) ;
#171 = EDGE_CURVE ( 'NONE', #170, #147, #256, .T. ) ;
#172 = DIRECTION ( 'NONE',  ( -0.000000000000000000, -1.000000000000000000, -0.000000000000000000 ) ) ;
#173 = CIRCLE ( 'NONE', #362, 0.3749999999999999445 ) ;
#174 = AXIS2_PLACEMENT_3D ( 'NONE', #93, #95, #99 ) ;
#175 = DIRECTION ( 'NONE',  ( 1.000000000000000000, 0.000000000000000000, 0.000000000000000000 ) ) ;
#176 = CARTESIAN_POINT ( 'NONE',  ( 0.000000000000000000, 0.000000000000000000, 0.000000000000000000 ) ) ;
#177 = DIRECTION ( 'NONE',  ( -1.000000000000000000, 0.000000000000000000, 0.000000000000000000 ) ) ;
#178 = CARTESIAN_POINT ( 'NONE',  ( 0.000000000000000000, 0.000000000000000000, -0.3749999999999998335 ) ) ;
#179 = FILL_AREA_STYLE ('',( #112 ) ) ;
#180 = EDGE_CURVE ( 'NONE', #162, #284, #117, .T. ) ;
#181 =( CONVERSION_BASED_UNIT ( 'INCH', #207 ) LENGTH_UNIT ( ) NAMED_UNIT ( #168 ) );
#182 = UNCERTAINTY_MEASURE_WITH_UNIT (LENGTH_MEASURE( 1.000000000000000082E-05 ), #66, 'distance_accuracy_value', 'NONE');
#183 = SURFACE_STYLE_FILL_AREA ( #62 ) ;
#184 = SURFACE_STYLE_USAGE ( .BOTH. , #328 ) ;
#185 = SHAPE_DEFINITION_REPRESENTATION ( #230, #146 ) ;
#186 = VECTOR ( 'NONE', #357, 39.37007874015748143 ) ;
#187 = PRESENTATION_LAYER_ASSIGNMENT (  '', '', ( #166 ) ) ;
#188 = DIRECTION ( 'NONE',  ( 0.000000000000000000, 0.000000000000000000, 1.000000000000000000 ) ) ;
#189 = FACE_OUTER_BOUND ( 'NONE', #105, .T. ) ;
#190 = EDGE_LOOP ( 'NONE', ( #365, #80 ) ) ;
#191 = AXIS2_PLACEMENT_3D ( 'NONE', #116, #114, #175 ) ;
#192 = PRODUCT_DEFINITION_CONTEXT ( 'detailed design', #158, 'design' ) ;
#193 = CARTESIAN_POINT ( 'NONE',  ( -4.592425496802575451E-17, 0.3750000000000000555, 0.000000000000000000 ) ) ;
#194 = ORIENTED_EDGE ( 'NONE', *, *, #157, .T. ) ;
#195 = DIRECTION ( 'NONE',  ( 0.000000000000000000, 0.000000000000000000, -1.000000000000000000 ) ) ;
#196 = CLOSED_SHELL ( 'NONE', ( #252, #42, #334, #51, #154 ) ) ;
#197 = ORIENTED_EDGE ( 'NONE', *, *, #205, .F. ) ;
#198 = DIRECTION ( 'NONE',  ( -1.224646799147353207E-16, 1.000000000000000000, -0.000000000000000000 ) ) ;
#199 = EDGE_LOOP ( 'NONE', ( #139, #136 ) ) ;
#200 = CARTESIAN_POINT ( 'NONE',  ( -1.224646799147353207E-16, 5.000000000000000000, 0.000000000000000000 ) ) ;
#201 = STYLED_ITEM ( 'NONE', ( #347 ), #252 ) ;
#202 = DIRECTION ( 'NONE',  ( -1.000000000000000000, 0.000000000000000000, 0.000000000000000000 ) ) ;
#203 = AXIS2_PLACEMENT_3D ( 'NONE', #193, #76, #106 ) ;
#204 = FILL_AREA_STYLE ('',( #327 ) ) ;
#205 = EDGE_CURVE ( 'NONE', #251, #359, #78, .T. ) ;
#206 = UNCERTAINTY_MEASURE_WITH_UNIT (LENGTH_MEASURE( 1.000000000000000082E-05 ), #87, 'distance_accuracy_value', 'NONE');
#207 = LENGTH_MEASURE_WITH_UNIT ( LENGTH_MEASURE( 0.02539999999999999897 ), #238 );
#208 = VECTOR ( 'NONE', #111, 39.37007874015748143 ) ;
#209 = DIRECTION ( 'NONE',  ( -1.000000000000000000, -1.224646799147353207E-16, 0.000000000000000000 ) ) ;
#210 = SURFACE_STYLE_USAGE ( .BOTH. , #88 ) ;
#211 = EDGE_CURVE ( 'NONE', #284, #170, #19, .T. ) ;
#212 = CARTESIAN_POINT ( 'NONE',  ( -0.3749999999999998335, 5.000000000000000000, 0.000000000000000000 ) ) ;
#213 = CARTESIAN_POINT ( 'NONE',  ( 0.000000000000000000, 0.000000000000000000, 0.000000000000000000 ) ) ;
#214 = AXIS2_PLACEMENT_3D ( 'NONE', #265, #300, #325 ) ;
#215 = FILL_AREA_STYLE_COLOUR ( '', #353 ) ;
#216 = CIRCLE ( 'NONE', #167, 0.3749999999999995559 ) ;
#217 = CARTESIAN_POINT ( 'NONE',  ( 0.000000000000000000, 0.3750000000000001110, 0.000000000000000000 ) ) ;
#218 = FACE_OUTER_BOUND ( 'NONE', #18, .T. ) ;
#219 = EDGE_CURVE ( 'NONE', #364, #341, #81, .T. ) ;
#220 =( LENGTH_UNIT ( ) NAMED_UNIT ( * ) SI_UNIT ( $, .METRE. ) );
#221 = DIRECTION ( 'NONE',  ( -1.000000000000000000, 0.000000000000000000, 0.000000000000000000 ) ) ;
#222 = EDGE_CURVE ( 'NONE', #287, #142, #245, .T. ) ;
#223 = CIRCLE ( 'NONE', #143, 0.3749999999999998890 ) ;
#224 = ORIENTED_EDGE ( 'NONE', *, *, #137, .T. ) ;
#225 = DIMENSIONAL_EXPONENTS ( 1.000000000000000000, 0.000000000000000000, 0.000000000000000000, 0.000000000000000000, 0.000000000000000000, 0.000000000000000000, 0.000000000000000000 ) ;
#226 = ORIENTED_EDGE ( 'NONE', *, *, #33, .T. ) ;
#227 =( NAMED_UNIT ( * ) PLANE_ANGLE_UNIT ( ) SI_UNIT ( $, .RADIAN. ) );
#228 =( NAMED_UNIT ( * ) PLANE_ANGLE_UNIT ( ) SI_UNIT ( $, .RADIAN. ) );
#229 = PRODUCT ( '56677', '56677', '', ( #307 ) ) ;
#230 = PRODUCT_DEFINITION_SHAPE ( 'NONE', 'NONE',  #144 ) ;
#231 = SURFACE_SIDE_STYLE ('',( #299 ) ) ;
#232 = CYLINDRICAL_SURFACE ( 'NONE', #108, 0.3749999999999998335 ) ;
#233 = MANIFOLD_SOLID_BREP ( 'Revolve - Tool Body (Straight Shanked)', #133 ) ;
#234 =( GEOMETRIC_REPRESENTATION_CONTEXT ( 3 ) GLOBAL_UNCERTAINTY_ASSIGNED_CONTEXT ( ( #295 ) ) GLOBAL_UNIT_ASSIGNED_CONTEXT ( ( #123, #5, #333 ) ) REPRESENTATION_CONTEXT ( 'NONE', 'WORKASPACE' ) );
#235 = CARTESIAN_POINT ( 'NONE',  ( 4.592425496802572370E-17, 0.000000000000000000, 0.3749999999999998335 ) ) ;
#236 =( NAMED_UNIT ( * ) PLANE_ANGLE_UNIT ( ) SI_UNIT ( $, .RADIAN. ) );
#237 = LENGTH_MEASURE_WITH_UNIT ( LENGTH_MEASURE( 0.02539999999999999897 ), #118 );
#238 =( LENGTH_UNIT ( ) NAMED_UNIT ( * ) SI_UNIT ( $, .METRE. ) );
#239 = UNCERTAINTY_MEASURE_WITH_UNIT (LENGTH_MEASURE( 1.000000000000000082E-05 ), #324, 'distance_accuracy_value', 'NONE');
#240 = STYLED_ITEM ( 'NONE', ( #272 ), #110 ) ;
#241 = AXIS2_PLACEMENT_3D ( 'NONE', #132, #276, #209 ) ;
#242 = MECHANICAL_DESIGN_GEOMETRIC_PRESENTATION_REPRESENTATION (  '', ( #48 ), #155 ) ;
#243 = DIRECTION ( 'NONE',  ( 0.000000000000000000, 0.000000000000000000, -1.000000000000000000 ) ) ;
#244 = DIRECTION ( 'NONE',  ( 0.000000000000000000, 0.000000000000000000, -1.000000000000000000 ) ) ;
#245 = CIRCLE ( 'NONE', #130, 0.3749999999999997780 ) ;
#246 = LINE ( 'NONE', #212, #186 ) ;
#247 =( GEOMETRIC_REPRESENTATION_CONTEXT ( 3 ) GLOBAL_UNCERTAINTY_ASSIGNED_CONTEXT ( ( #86 ) ) GLOBAL_UNIT_ASSIGNED_CONTEXT ( ( #120, #236, #57 ) ) REPRESENTATION_CONTEXT ( 'NONE', 'WORKASPACE' ) );
#248 = AXIS2_PLACEMENT_3D ( 'NONE', #71, #126, #354 ) ;
#249 = CARTESIAN_POINT ( 'NONE',  ( 4.592425496802574219E-17, 0.3750000000000001110, 0.3749999999999999445 ) ) ;
#250 = CARTESIAN_POINT ( 'NONE',  ( -0.3750000000000000555, 5.000000000000000000, 0.000000000000000000 ) ) ;
#251 = VERTEX_POINT ( 'NONE', #41 ) ;
#252 = ADVANCED_FACE ( 'NONE', ( #189 ), #56, .T. ) ;
#253 =( GEOMETRIC_REPRESENTATION_CONTEXT ( 3 ) GLOBAL_UNCERTAINTY_ASSIGNED_CONTEXT ( ( #322 ) ) GLOBAL_UNIT_ASSIGNED_CONTEXT ( ( #181, #228, #39 ) ) REPRESENTATION_CONTEXT ( 'NONE', 'WORKASPACE' ) );
#254 = SPHERICAL_SURFACE ( 'NONE', #203, 0.3750000000000000555 ) ;
#255 = ORIENTED_EDGE ( 'NONE', *, *, #61, .T. ) ;
#256 = CIRCLE ( 'NONE', #285, 0.3749999999999998890 ) ;
#257 = SURFACE_STYLE_USAGE ( .BOTH. , #138 ) ;
#258 = ORIENTED_EDGE ( 'NONE', *, *, #211, .F. ) ;
#259 =( CONVERSION_BASED_UNIT ( 'INCH', #17 ) LENGTH_UNIT ( ) NAMED_UNIT ( #356 ) );
#260 = EDGE_LOOP ( 'NONE', ( #77, #16, #72, #109, #282 ) ) ;
#261 = CARTESIAN_POINT ( 'NONE',  ( 0.000000000000000000, 0.3750000000000001110, 0.000000000000000000 ) ) ;
#262 = SURFACE_STYLE_FILL_AREA ( #145 ) ;
#263 =( NAMED_UNIT ( * ) SI_UNIT ( $, .STERADIAN. ) SOLID_ANGLE_UNIT ( ) );
#264 = CARTESIAN_POINT ( 'NONE',  ( 4.592425496802571754E-17, 2.250000000000000000, 0.3749999999999997780 ) ) ;
#265 = CARTESIAN_POINT ( 'NONE',  ( -4.592425496802575451E-17, 0.3750000000000000555, 0.000000000000000000 ) ) ;
#266 = MECHANICAL_DESIGN_GEOMETRIC_PRESENTATION_REPRESENTATION (  '', ( #361 ), #253 ) ;
#267 = CIRCLE ( 'NONE', #64, 0.3749999999999997780 ) ;
#268 = PRESENTATION_STYLE_ASSIGNMENT (( #149 ) ) ;
#269 = ADVANCED_FACE ( 'NONE', ( #218 ), #371, .T. ) ;
#270 = LENGTH_MEASURE_WITH_UNIT ( LENGTH_MEASURE( 0.02539999999999999897 ), #32 );
#271 = AXIS2_PLACEMENT_3D ( 'NONE', #279, #74, #43 ) ;
#272 = PRESENTATION_STYLE_ASSIGNMENT (( #36 ) ) ;
#273 = PRESENTATION_LAYER_ASSIGNMENT (  '', '', ( #361 ) ) ;
#274 =( LENGTH_UNIT ( ) NAMED_UNIT ( * ) SI_UNIT ( $, .METRE. ) );
#275 = DIMENSIONAL_EXPONENTS ( 1.000000000000000000, 0.000000000000000000, 0.000000000000000000, 0.000000000000000000, 0.000000000000000000, 0.000000000000000000, 0.000000000000000000 ) ;
#276 = DIRECTION ( 'NONE',  ( -1.224646799147353207E-16, 1.000000000000000000, 0.000000000000000000 ) ) ;
#277 = PRESENTATION_LAYER_ASSIGNMENT (  '', '', ( #148 ) ) ;
#278 = DIRECTION ( 'NONE',  ( -0.000000000000000000, -1.000000000000000000, -0.000000000000000000 ) ) ;
#279 = CARTESIAN_POINT ( 'NONE',  ( 0.000000000000000000, 0.3750000000000001110, 0.000000000000000000 ) ) ;
#280 = ORIENTED_EDGE ( 'NONE', *, *, #330, .F. ) ;
#281 = PLANE ( 'NONE',  #241 ) ;
#282 = ORIENTED_EDGE ( 'NONE', *, *, #219, .F. ) ;
#283 = DIMENSIONAL_EXPONENTS ( 1.000000000000000000, 0.000000000000000000, 0.000000000000000000, 0.000000000000000000, 0.000000000000000000, 0.000000000000000000, 0.000000000000000000 ) ;
#284 = VERTEX_POINT ( 'NONE', #79 ) ;
#285 = AXIS2_PLACEMENT_3D ( 'NONE', #15, #363, #342 ) ;
#286 = AXIS2_PLACEMENT_3D ( 'NONE', #261, #315, #104 ) ;
#287 = VERTEX_POINT ( 'NONE', #264 ) ;
#288 = CARTESIAN_POINT ( 'NONE',  ( 0.3749999999999997780, 5.000000000000000000, 4.592425496802571754E-17 ) ) ;
#289 = ORIENTED_EDGE ( 'NONE', *, *, #61, .F. ) ;
#290 =( NAMED_UNIT ( * ) PLANE_ANGLE_UNIT ( ) SI_UNIT ( $, .RADIAN. ) );
#291 = ORIENTED_EDGE ( 'NONE', *, *, #211, .T. ) ;
#292 = CARTESIAN_POINT ( 'NONE',  ( -1.224646799147353207E-16, 5.000000000000000000, 0.000000000000000000 ) ) ;
#293 = ADVANCED_FACE ( 'NONE', ( #318 ), #59, .T. ) ;
#294 = DIRECTION ( 'NONE',  ( -0.000000000000000000, -1.000000000000000000, -0.000000000000000000 ) ) ;
#295 = UNCERTAINTY_MEASURE_WITH_UNIT (LENGTH_MEASURE( 1.000000000000000082E-05 ), #123, 'distance_accuracy_value', 'NONE');
#296 = CARTESIAN_POINT ( 'NONE',  ( -2.296212748401287726E-17, 0.000000000000000000, 0.000000000000000000 ) ) ;
#297 = MECHANICAL_DESIGN_GEOMETRIC_PRESENTATION_REPRESENTATION (  '', ( #201 ), #140 ) ;
#298 = SURFACE_SIDE_STYLE ('',( #119 ) ) ;
#299 = SURFACE_STYLE_FILL_AREA ( #9 ) ;
#300 = DIRECTION ( 'NONE',  ( 1.224646799147353207E-16, -0.000000000000000000, 1.000000000000000000 ) ) ;
#301 = CARTESIAN_POINT ( 'NONE',  ( 2.143131898507867804E-16, 2.250000000000000444, 0.000000000000000000 ) ) ;
#302 =( GEOMETRIC_REPRESENTATION_CONTEXT ( 3 ) GLOBAL_UNCERTAINTY_ASSIGNED_CONTEXT ( ( #239 ) ) GLOBAL_UNIT_ASSIGNED_CONTEXT ( ( #324, #227, #263 ) ) REPRESENTATION_CONTEXT ( 'NONE', 'WORKASPACE' ) );
#303 = LENGTH_MEASURE_WITH_UNIT ( LENGTH_MEASURE( 0.02539999999999999897 ), #309 );
#304 = CARTESIAN_POINT ( 'NONE',  ( 0.000000000000000000, 2.250000000000000000, 0.000000000000000000 ) ) ;
#305 = AXIS2_PLACEMENT_3D ( 'NONE', #151, #188, #97 ) ;
#306 = AXIS2_PLACEMENT_3D ( 'NONE', #217, #278, #8 ) ;
#307 = PRODUCT_CONTEXT ( 'NONE', #38, 'mechanical' ) ;
#308 = FILL_AREA_STYLE_COLOUR ( '', #317 ) ;
#309 =( LENGTH_UNIT ( ) NAMED_UNIT ( * ) SI_UNIT ( $, .METRE. ) );
#310 = CARTESIAN_POINT ( 'NONE',  ( -0.3749999999999993339, 2.250000000000000444, 0.000000000000000000 ) ) ;
#311 = ORIENTED_EDGE ( 'NONE', *, *, #33, .F. ) ;
#312 =( GEOMETRIC_REPRESENTATION_CONTEXT ( 3 ) GLOBAL_UNCERTAINTY_ASSIGNED_CONTEXT ( ( #182 ) ) GLOBAL_UNIT_ASSIGNED_CONTEXT ( ( #66, #103, #360 ) ) REPRESENTATION_CONTEXT ( 'NONE', 'WORKASPACE' ) );
#313 = CARTESIAN_POINT ( 'NONE',  ( 0.3749999999999995559, 5.000000000000000000, 4.592425496802570521E-17 ) ) ;
#314 = EDGE_LOOP ( 'NONE', ( #258, #338, #255, #13 ) ) ;
#315 = DIRECTION ( 'NONE',  ( -0.000000000000000000, -1.000000000000000000, -0.000000000000000000 ) ) ;
#316 = VERTEX_POINT ( 'NONE', #296 ) ;
#317 = COLOUR_RGB ( '',1.000000000000000000, 0.000000000000000000, 0.000000000000000000 ) ;
#318 = FACE_OUTER_BOUND ( 'NONE', #314, .T. ) ;
#319 = ORIENTED_EDGE ( 'NONE', *, *, #124, .F. ) ;
#320 = EDGE_CURVE ( 'NONE', #287, #364, #368, .T. ) ;
#321 = PRESENTATION_STYLE_ASSIGNMENT (( #210 ) ) ;
#322 = UNCERTAINTY_MEASURE_WITH_UNIT (LENGTH_MEASURE( 1.000000000000000082E-05 ), #181, 'distance_accuracy_value', 'NONE');
#323 = DIRECTION ( 'NONE',  ( 0.000000000000000000, 0.000000000000000000, -1.000000000000000000 ) ) ;
#324 =( CONVERSION_BASED_UNIT ( 'INCH', #237 ) LENGTH_UNIT ( ) NAMED_UNIT ( #67 ) );
#325 = DIRECTION ( 'NONE',  ( 1.000000000000000000, 0.000000000000000000, -1.224646799147353207E-16 ) ) ;
#326 = UNCERTAINTY_MEASURE_WITH_UNIT (LENGTH_MEASURE( 1.000000000000000082E-05 ), #164, 'distance_accuracy_value', 'NONE');
#327 = FILL_AREA_STYLE_COLOUR ( '', #60 ) ;
#328 = SURFACE_SIDE_STYLE ('',( #183 ) ) ;
#329 = COLOUR_RGB ( '',0.7921568627450980005, 0.8196078431372548767, 0.9333333333333333481 ) ;
#330 = EDGE_CURVE ( 'NONE', #142, #251, #54, .T. ) ;
#331 = DIRECTION ( 'NONE',  ( -1.000000000000000000, 0.000000000000000000, 0.000000000000000000 ) ) ;
#332 = AXIS2_PLACEMENT_3D ( 'NONE', #200, #373, #177 ) ;
#333 =( NAMED_UNIT ( * ) SI_UNIT ( $, .STERADIAN. ) SOLID_ANGLE_UNIT ( ) );
#334 = ADVANCED_FACE ( 'NONE', ( #26 ), #29, .T. ) ;
#335 = CARTESIAN_POINT ( 'NONE',  ( 0.3749999999999999445, 0.3750000000000001110, 0.000000000000000000 ) ) ;
#336 =( NAMED_UNIT ( * ) SI_UNIT ( $, .STERADIAN. ) SOLID_ANGLE_UNIT ( ) );
#337 = FILL_AREA_STYLE_COLOUR ( '', #329 ) ;
#338 = ORIENTED_EDGE ( 'NONE', *, *, #124, .T. ) ;
#339 = APPLICATION_PROTOCOL_DEFINITION ( 'draft international standard', 'automotive_design', 1998, #38 ) ;
#340 = SURFACE_STYLE_FILL_AREA ( #68 ) ;
#341 = VERTEX_POINT ( 'NONE', #34 ) ;
#342 = DIRECTION ( 'NONE',  ( -1.000000000000000000, 0.000000000000000000, 0.000000000000000000 ) ) ;
#343 =( NAMED_UNIT ( * ) PLANE_ANGLE_UNIT ( ) SI_UNIT ( $, .RADIAN. ) );
#344 = EDGE_LOOP ( 'NONE', ( #70, #319 ) ) ;
#345 = DIRECTION ( 'NONE',  ( -1.224646799147353207E-16, 1.000000000000000000, -0.000000000000000000 ) ) ;
#346 = ORIENTED_EDGE ( 'NONE', *, *, #219, .T. ) ;
#347 = PRESENTATION_STYLE_ASSIGNMENT (( #351 ) ) ;
#348 = DIRECTION ( 'NONE',  ( 0.000000000000000000, 0.000000000000000000, -1.000000000000000000 ) ) ;
#349 = CARTESIAN_POINT ( 'NONE',  ( -1.224646799147353207E-16, 5.000000000000000000, 0.000000000000000000 ) ) ;
#350 = UNCERTAINTY_MEASURE_WITH_UNIT (LENGTH_MEASURE( 1.000000000000000082E-05 ), #259, 'distance_accuracy_value', 'NONE');
#351 = SURFACE_STYLE_USAGE ( .BOTH. , #231 ) ;
#352 = COLOUR_RGB ( '',1.000000000000000000, 0.000000000000000000, 0.000000000000000000 ) ;
#353 = COLOUR_RGB ( '',1.000000000000000000, 0.000000000000000000, 0.000000000000000000 ) ;
#354 = DIRECTION ( 'NONE',  ( 0.000000000000000000, -0.000000000000000000, 1.000000000000000000 ) ) ;
#355 = PLANE ( 'NONE',  #174 ) ;
#356 = DIMENSIONAL_EXPONENTS ( 1.000000000000000000, 0.000000000000000000, 0.000000000000000000, 0.000000000000000000, 0.000000000000000000, 0.000000000000000000, 0.000000000000000000 ) ;
#357 = DIRECTION ( 'NONE',  ( -1.224646799147353207E-16, 1.000000000000000000, -0.000000000000000000 ) ) ;
#358 = LENGTH_MEASURE_WITH_UNIT ( LENGTH_MEASURE( 0.02539999999999999897 ), #274 );
#359 = VERTEX_POINT ( 'NONE', #335 ) ;
#360 =( NAMED_UNIT ( * ) SI_UNIT ( $, .STERADIAN. ) SOLID_ANGLE_UNIT ( ) );
#361 = STYLED_ITEM ( 'NONE', ( #150 ), #51 ) ;
#362 = AXIS2_PLACEMENT_3D ( 'NONE', #156, #160, #49 ) ;
#363 = DIRECTION ( 'NONE',  ( -1.224646799147353207E-16, 1.000000000000000000, -0.000000000000000000 ) ) ;
#364 = VERTEX_POINT ( 'NONE', #249 ) ;
#365 = ORIENTED_EDGE ( 'NONE', *, *, #14, .T. ) ;
#366 = AXIS2_PLACEMENT_3D ( 'NONE', #292, #345, #58 ) ;
#367 = ADVANCED_FACE ( 'NONE', ( #100 ), #281, .F. ) ;
#368 = LINE ( 'NONE', #235, #208 ) ;
#369 = FACE_OUTER_BOUND ( 'NONE', #260, .T. ) ;
#370 = CARTESIAN_POINT ( 'NONE',  ( -4.592425496802575451E-17, 0.3750000000000000555, 0.000000000000000000 ) ) ;
#371 = CYLINDRICAL_SURFACE ( 'NONE', #366, 0.3749999999999996669 ) ;
#372 =( LENGTH_UNIT ( ) NAMED_UNIT ( * ) SI_UNIT ( $, .METRE. ) );
#373 = DIRECTION ( 'NONE',  ( -1.224646799147353207E-16, 1.000000000000000000, -0.000000000000000000 ) ) ;
ENDSEC;
END-ISO-10303-21;
