ISO-10303-21;
HEADER;
FILE_DESCRIPTION (( 'STEP AP214' ),
    '1' );
FILE_NAME ('17557.STEP',
    '2023-06-30T21:54:27',
    ( '' ),
    ( '' ),
    'SwSTEP 2.0',
    'SolidWorks 2023',
    '' );
FILE_SCHEMA (( 'AUTOMOTIVE_DESIGN' ));
ENDSEC;

DATA;
#1 = AXIS2_PLACEMENT_3D ( 'NONE', #369, #187, #185 ) ;
#2 = EDGE_CURVE ( 'NONE', #256, #140, #138, .T. ) ;
#3 = VERTEX_POINT ( 'NONE', #123 ) ;
#4 = AXIS2_PLACEMENT_3D ( 'NONE', #171, #120, #116 ) ;
#5 = ORIENTED_EDGE ( 'NONE', *, *, #304, .T. ) ;
#6 = DIMENSIONAL_EXPONENTS ( 1.000000000000000000, 0.000000000000000000, 0.000000000000000000, 0.000000000000000000, 0.000000000000000000, 0.000000000000000000, 0.000000000000000000 ) ;
#7 = EDGE_LOOP ( 'NONE', ( #64, #148, #5, #90 ) ) ;
#8 =( NAMED_UNIT ( * ) SI_UNIT ( $, .STERADIAN. ) SOLID_ANGLE_UNIT ( ) );
#9 = COLOUR_RGB ( '',1.000000000000000000, 0.000000000000000000, 0.000000000000000000 ) ;
#10 =( GEOMETRIC_REPRESENTATION_CONTEXT ( 3 ) GLOBAL_UNCERTAINTY_ASSIGNED_CONTEXT ( ( #15 ) ) GLOBAL_UNIT_ASSIGNED_CONTEXT ( ( #239, #236, #206 ) ) REPRESENTATION_CONTEXT ( 'NONE', 'WORKASPACE' ) );
#11 = CARTESIAN_POINT ( 'NONE',  ( 0.000000000000000000, 0.3125000000000000555, -0.3125000000000000000 ) ) ;
#12 = FACE_OUTER_BOUND ( 'NONE', #31, .T. ) ;
#13 = EDGE_LOOP ( 'NONE', ( #349, #166 ) ) ;
#14 = LENGTH_MEASURE_WITH_UNIT ( LENGTH_MEASURE( 0.02539999999999999897 ), #43 );
#15 = UNCERTAINTY_MEASURE_WITH_UNIT (LENGTH_MEASURE( 1.000000000000000082E-05 ), #239, 'distance_accuracy_value', 'NONE');
#16 = DIRECTION ( 'NONE',  ( -0.000000000000000000, -1.000000000000000000, -0.000000000000000000 ) ) ;
#17 = STYLED_ITEM ( 'NONE', ( #63 ), #222 ) ;
#18 = FACE_OUTER_BOUND ( 'NONE', #203, .T. ) ;
#19 = EDGE_CURVE ( 'NONE', #209, #112, #270, .T. ) ;
#20 = CARTESIAN_POINT ( 'NONE',  ( 0.000000000000000000, 0.000000000000000000, 0.000000000000000000 ) ) ;
#21 = CARTESIAN_POINT ( 'NONE',  ( -6.123233995736770966E-17, 3.000000000000000444, 0.000000000000000000 ) ) ;
#22 = APPLICATION_PROTOCOL_DEFINITION ( 'draft international standard', 'automotive_design', 1998, #54 ) ;
#23 = PRESENTATION_STYLE_ASSIGNMENT (( #240 ) ) ;
#24 = CARTESIAN_POINT ( 'NONE',  ( 0.000000000000000000, 0.3125000000000000555, 0.000000000000000000 ) ) ;
#25 = MECHANICAL_DESIGN_GEOMETRIC_PRESENTATION_REPRESENTATION (  '', ( #137 ), #37 ) ;
#26 = CARTESIAN_POINT ( 'NONE',  ( -3.827021247335478926E-17, 0.3125000000000000000, 0.000000000000000000 ) ) ;
#27 = SURFACE_STYLE_FILL_AREA ( #361 ) ;
#28 = STYLED_ITEM ( 'NONE', ( #74 ), #198 ) ;
#29 = LENGTH_MEASURE_WITH_UNIT ( LENGTH_MEASURE( 0.02539999999999999897 ), #366 );
#30 = PRODUCT_RELATED_PRODUCT_CATEGORY ( 'part', '', ( #234 ) ) ;
#31 = EDGE_LOOP ( 'NONE', ( #38, #199, #139, #176 ) ) ;
#32 = MECHANICAL_DESIGN_GEOMETRIC_PRESENTATION_REPRESENTATION (  '', ( #246 ), #238 ) ;
#33 =( GEOMETRIC_REPRESENTATION_CONTEXT ( 3 ) GLOBAL_UNCERTAINTY_ASSIGNED_CONTEXT ( ( #359 ) ) GLOBAL_UNIT_ASSIGNED_CONTEXT ( ( #241, #186, #132 ) ) REPRESENTATION_CONTEXT ( 'NONE', 'WORKASPACE' ) );
#34 = CIRCLE ( 'NONE', #111, 0.3125000000000000000 ) ;
#35 = DIRECTION ( 'NONE',  ( -1.483695731438215170E-16, 1.000000000000000000, -0.000000000000000000 ) ) ;
#36 = PLANE ( 'NONE',  #175 ) ;
#37 =( GEOMETRIC_REPRESENTATION_CONTEXT ( 3 ) GLOBAL_UNCERTAINTY_ASSIGNED_CONTEXT ( ( #55 ) ) GLOBAL_UNIT_ASSIGNED_CONTEXT ( ( #65, #297, #8 ) ) REPRESENTATION_CONTEXT ( 'NONE', 'WORKASPACE' ) );
#38 = ORIENTED_EDGE ( 'NONE', *, *, #208, .T. ) ;
#39 = DIRECTION ( 'NONE',  ( -1.000000000000000000, 0.000000000000000000, 0.000000000000000000 ) ) ;
#40 = EDGE_CURVE ( 'NONE', #3, #112, #257, .T. ) ;
#41 =( LENGTH_UNIT ( ) NAMED_UNIT ( * ) SI_UNIT ( $, .METRE. ) );
#42 = CARTESIAN_POINT ( 'NONE',  ( -6.123233995736772199E-17, 3.000000000000000444, 0.000000000000000000 ) ) ;
#43 =( LENGTH_UNIT ( ) NAMED_UNIT ( * ) SI_UNIT ( $, .METRE. ) );
#44 = ORIENTED_EDGE ( 'NONE', *, *, #46, .T. ) ;
#45 = FILL_AREA_STYLE_COLOUR ( '', #9 ) ;
#46 = EDGE_CURVE ( 'NONE', #287, #299, #34, .T. ) ;
#47 = LENGTH_MEASURE_WITH_UNIT ( LENGTH_MEASURE( 0.02539999999999999897 ), #190 );
#48 = SURFACE_SIDE_STYLE ('',( #278 ) ) ;
#49 = DIRECTION ( 'NONE',  ( -1.483695731438215170E-16, 1.000000000000000000, -0.000000000000000000 ) ) ;
#50 = FACE_OUTER_BOUND ( 'NONE', #84, .T. ) ;
#51 = PRESENTATION_LAYER_ASSIGNMENT (  '', '', ( #137 ) ) ;
#52 = SURFACE_SIDE_STYLE ('',( #307 ) ) ;
#53 = EDGE_LOOP ( 'NONE', ( #227, #114 ) ) ;
#54 = APPLICATION_CONTEXT ( 'automotive_design' ) ;
#55 = UNCERTAINTY_MEASURE_WITH_UNIT (LENGTH_MEASURE( 1.000000000000000082E-05 ), #65, 'distance_accuracy_value', 'NONE');
#56 = VERTEX_POINT ( 'NONE', #11 ) ;
#57 =( LENGTH_UNIT ( ) NAMED_UNIT ( * ) SI_UNIT ( $, .METRE. ) );
#58 = MANIFOLD_SOLID_BREP ( 'Revolve - Cutting Edge', #250 ) ;
#59 = CARTESIAN_POINT ( 'NONE',  ( 0.000000000000000000, 0.3125000000000000555, 0.000000000000000000 ) ) ;
#60 = FILL_AREA_STYLE ('',( #237 ) ) ;
#61 = COLOUR_RGB ( '',1.000000000000000000, 0.000000000000000000, 0.000000000000000000 ) ;
#62 = FILL_AREA_STYLE ('',( #292 ) ) ;
#63 = PRESENTATION_STYLE_ASSIGNMENT (( #200 ) ) ;
#64 = ORIENTED_EDGE ( 'NONE', *, *, #242, .F. ) ;
#65 =( CONVERSION_BASED_UNIT ( 'INCH', #14 ) LENGTH_UNIT ( ) NAMED_UNIT ( #340 ) );
#66 = CARTESIAN_POINT ( 'NONE',  ( -0.3124999999999999445, 3.000000000000000444, 0.000000000000000000 ) ) ;
#67 = PRESENTATION_STYLE_ASSIGNMENT (( #296 ) ) ;
#68 = AXIS2_PLACEMENT_3D ( 'NONE', #136, #372, #341 ) ;
#69 = PLANE ( 'NONE',  #68 ) ;
#70 = DIRECTION ( 'NONE',  ( -0.000000000000000000, -1.000000000000000000, -0.000000000000000000 ) ) ;
#71 = UNCERTAINTY_MEASURE_WITH_UNIT (LENGTH_MEASURE( 1.000000000000000082E-05 ), #73, 'distance_accuracy_value', 'NONE');
#72 = CARTESIAN_POINT ( 'NONE',  ( 0.000000000000000000, 0.000000000000000000, 0.000000000000000000 ) ) ;
#73 =( CONVERSION_BASED_UNIT ( 'INCH', #29 ) LENGTH_UNIT ( ) NAMED_UNIT ( #286 ) );
#74 = PRESENTATION_STYLE_ASSIGNMENT (( #158 ) ) ;
#75 = PRODUCT_CONTEXT ( 'NONE', #228, 'mechanical' ) ;
#76 = DIRECTION ( 'NONE',  ( -0.000000000000000000, -1.000000000000000000, -0.000000000000000000 ) ) ;
#77 = PRESENTATION_LAYER_ASSIGNMENT (  '', '', ( #28 ) ) ;
#78 = VECTOR ( 'NONE', #70, 39.37007874015748143 ) ;
#79 = PRODUCT_DEFINITION ( 'UNKNOWN', '', #87, #201 ) ;
#80 = CARTESIAN_POINT ( 'NONE',  ( 0.000000000000000000, 0.3125000000000000555, 0.000000000000000000 ) ) ;
#81 =( LENGTH_UNIT ( ) NAMED_UNIT ( * ) SI_UNIT ( $, .METRE. ) );
#82 = DIRECTION ( 'NONE',  ( -1.483695731438215170E-16, 1.000000000000000000, 0.000000000000000000 ) ) ;
#83 = DIRECTION ( 'NONE',  ( -1.483695731438215170E-16, 1.000000000000000000, -0.000000000000000000 ) ) ;
#84 = EDGE_LOOP ( 'NONE', ( #345, #113 ) ) ;
#85 = EDGE_CURVE ( 'NONE', #140, #56, #177, .T. ) ;
#86 = PRESENTATION_LAYER_ASSIGNMENT (  '', '', ( #246 ) ) ;
#87 = PRODUCT_DEFINITION_FORMATION_WITH_SPECIFIED_SOURCE ( 'ANY', '', #234, .NOT_KNOWN. ) ;
#88 = ORIENTED_EDGE ( 'NONE', *, *, #127, .T. ) ;
#89 = ORIENTED_EDGE ( 'NONE', *, *, #40, .T. ) ;
#90 = ORIENTED_EDGE ( 'NONE', *, *, #119, .T. ) ;
#91 = FACE_OUTER_BOUND ( 'NONE', #223, .T. ) ;
#92 = ORIENTED_EDGE ( 'NONE', *, *, #157, .T. ) ;
#93 = CYLINDRICAL_SURFACE ( 'NONE', #147, 0.3125000000000000000 ) ;
#94 = ORIENTED_EDGE ( 'NONE', *, *, #304, .F. ) ;
#95 = SURFACE_STYLE_FILL_AREA ( #60 ) ;
#96 = UNCERTAINTY_MEASURE_WITH_UNIT (LENGTH_MEASURE( 1.000000000000000082E-05 ), #251, 'distance_accuracy_value', 'NONE');
#97 = SURFACE_SIDE_STYLE ('',( #351 ) ) ;
#98 = DIRECTION ( 'NONE',  ( 0.000000000000000000, 0.000000000000000000, -1.000000000000000000 ) ) ;
#99 =( CONVERSION_BASED_UNIT ( 'INCH', #357 ) LENGTH_UNIT ( ) NAMED_UNIT ( #285 ) );
#100 = DIRECTION ( 'NONE',  ( 0.000000000000000000, 0.000000000000000000, -1.000000000000000000 ) ) ;
#101 = AXIS2_PLACEMENT_3D ( 'NONE', #26, #109, #215 ) ;
#102 = FACE_OUTER_BOUND ( 'NONE', #13, .T. ) ;
#103 = SURFACE_STYLE_USAGE ( .BOTH. , #368 ) ;
#104 =( CONVERSION_BASED_UNIT ( 'INCH', #271 ) LENGTH_UNIT ( ) NAMED_UNIT ( #360 ) );
#105 = CARTESIAN_POINT ( 'NONE',  ( 0.000000000000000000, 0.3125000000000000555, 0.000000000000000000 ) ) ;
#106 = FILL_AREA_STYLE_COLOUR ( '', #61 ) ;
#107 = COLOUR_RGB ( '',0.7921568627450980005, 0.8196078431372548767, 0.9333333333333333481 ) ;
#108 = CIRCLE ( 'NONE', #288, 0.3124999999999999445 ) ;
#109 = DIRECTION ( 'NONE',  ( 0.000000000000000000, 0.000000000000000000, 1.000000000000000000 ) ) ;
#110 =( NAMED_UNIT ( * ) SI_UNIT ( $, .STERADIAN. ) SOLID_ANGLE_UNIT ( ) );
#111 = AXIS2_PLACEMENT_3D ( 'NONE', #59, #173, #353 ) ;
#112 = VERTEX_POINT ( 'NONE', #276 ) ;
#113 = ORIENTED_EDGE ( 'NONE', *, *, #2, .F. ) ;
#114 = ORIENTED_EDGE ( 'NONE', *, *, #19, .T. ) ;
#115 = AXIS2_PLACEMENT_3D ( 'NONE', #20, #356, #98 ) ;
#116 = DIRECTION ( 'NONE',  ( 0.000000000000000000, 0.000000000000000000, -1.000000000000000000 ) ) ;
#117 =( NAMED_UNIT ( * ) SI_UNIT ( $, .STERADIAN. ) SOLID_ANGLE_UNIT ( ) );
#118 = VECTOR ( 'NONE', #35, 39.37007874015748143 ) ;
#119 = EDGE_CURVE ( 'NONE', #168, #325, #225, .T. ) ;
#120 = DIRECTION ( 'NONE',  ( -0.000000000000000000, -1.000000000000000000, -0.000000000000000000 ) ) ;
#121 = MECHANICAL_DESIGN_GEOMETRIC_PRESENTATION_REPRESENTATION (  '', ( #28 ), #230 ) ;
#122 =( GEOMETRIC_REPRESENTATION_CONTEXT ( 3 ) GLOBAL_UNCERTAINTY_ASSIGNED_CONTEXT ( ( #71 ) ) GLOBAL_UNIT_ASSIGNED_CONTEXT ( ( #73, #191, #336 ) ) REPRESENTATION_CONTEXT ( 'NONE', 'WORKASPACE' ) );
#123 = CARTESIAN_POINT ( 'NONE',  ( -0.3124999999999993894, 0.7499999999999998890, 0.000000000000000000 ) ) ;
#124 = CARTESIAN_POINT ( 'NONE',  ( -6.123233995736772199E-17, 3.000000000000000444, 0.000000000000000000 ) ) ;
#125 = DIRECTION ( 'NONE',  ( 0.000000000000000000, 0.000000000000000000, -1.000000000000000000 ) ) ;
#126 = FILL_AREA_STYLE_COLOUR ( '', #107 ) ;
#127 = EDGE_CURVE ( 'NONE', #289, #3, #205, .T. ) ;
#128 = VECTOR ( 'NONE', #16, 39.37007874015748143 ) ;
#129 = PRESENTATION_LAYER_ASSIGNMENT (  '', '', ( #294 ) ) ;
#130 = FILL_AREA_STYLE ('',( #126 ) ) ;
#131 = ADVANCED_FACE ( 'NONE', ( #18 ), #156, .T. ) ;
#132 =( NAMED_UNIT ( * ) SI_UNIT ( $, .STERADIAN. ) SOLID_ANGLE_UNIT ( ) );
#133 = FILL_AREA_STYLE ('',( #269 ) ) ;
#134 = CARTESIAN_POINT ( 'NONE',  ( 0.3124999999999999445, 0.7499999999999998890, 3.827021247335477694E-17 ) ) ;
#135 = CARTESIAN_POINT ( 'NONE',  ( 0.000000000000000000, 0.000000000000000000, 0.000000000000000000 ) ) ;
#136 = CARTESIAN_POINT ( 'NONE',  ( 0.000000000000000000, 0.7500000000000001110, 0.000000000000000000 ) ) ;
#137 = STYLED_ITEM ( 'NONE', ( #67 ), #254 ) ;
#138 = CIRCLE ( 'NONE', #4, 0.3124999999999999445 ) ;
#139 = ORIENTED_EDGE ( 'NONE', *, *, #275, .F. ) ;
#140 = VERTEX_POINT ( 'NONE', #309 ) ;
#141 = COLOUR_RGB ( '',1.000000000000000000, 0.000000000000000000, 0.000000000000000000 ) ;
#142 =( GEOMETRIC_REPRESENTATION_CONTEXT ( 3 ) GLOBAL_UNCERTAINTY_ASSIGNED_CONTEXT ( ( #195 ) ) GLOBAL_UNIT_ASSIGNED_CONTEXT ( ( #99, #332, #272 ) ) REPRESENTATION_CONTEXT ( 'NONE', 'WORKASPACE' ) );
#143 = ORIENTED_EDGE ( 'NONE', *, *, #315, .T. ) ;
#144 = CARTESIAN_POINT ( 'NONE',  ( -3.827021247335478926E-17, 0.3125000000000000000, 0.000000000000000000 ) ) ;
#145 = ORIENTED_EDGE ( 'NONE', *, *, #85, .F. ) ;
#146 = LENGTH_MEASURE_WITH_UNIT ( LENGTH_MEASURE( 0.02539999999999999897 ), #57 );
#147 = AXIS2_PLACEMENT_3D ( 'NONE', #72, #216, #154 ) ;
#148 = ORIENTED_EDGE ( 'NONE', *, *, #261, .T. ) ;
#149 = DIRECTION ( 'NONE',  ( -1.483695731438215170E-16, 1.000000000000000000, -0.000000000000000000 ) ) ;
#150 = DIRECTION ( 'NONE',  ( 1.000000000000000000, 1.483695731438215170E-16, 0.000000000000000000 ) ) ;
#151 = CIRCLE ( 'NONE', #316, 0.3125000000000000000 ) ;
#152 = ADVANCED_FACE ( 'NONE', ( #182 ), #300, .T. ) ;
#153 = ORIENTED_EDGE ( 'NONE', *, *, #119, .F. ) ;
#154 = DIRECTION ( 'NONE',  ( 0.000000000000000000, 0.000000000000000000, -1.000000000000000000 ) ) ;
#155 = COLOUR_RGB ( '',0.7921568627450980005, 0.8196078431372548767, 0.9333333333333333481 ) ;
#156 = CYLINDRICAL_SURFACE ( 'NONE', #219, 0.3124999999999998890 ) ;
#157 = EDGE_CURVE ( 'NONE', #168, #287, #196, .T. ) ;
#158 = SURFACE_STYLE_USAGE ( .BOTH. , #48 ) ;
#159 = CARTESIAN_POINT ( 'NONE',  ( -1.913510623667739463E-17, 0.000000000000000000, 0.000000000000000000 ) ) ;
#160 = FACE_OUTER_BOUND ( 'NONE', #7, .T. ) ;
#161 = FILL_AREA_STYLE ('',( #45 ) ) ;
#162 = SURFACE_STYLE_USAGE ( .BOTH. , #52 ) ;
#163 = CARTESIAN_POINT ( 'NONE',  ( 2.725991996162307345E-16, 0.7499999999999998890, 0.000000000000000000 ) ) ;
#164 = APPLICATION_PROTOCOL_DEFINITION ( 'draft international standard', 'automotive_design', 1998, #228 ) ;
#165 = AXIS2_PLACEMENT_3D ( 'NONE', #218, #125, #243 ) ;
#166 = ORIENTED_EDGE ( 'NONE', *, *, #127, .F. ) ;
#167 = EDGE_CURVE ( 'NONE', #140, #256, #108, .T. ) ;
#168 = VERTEX_POINT ( 'NONE', #301 ) ;
#169 = ORIENTED_EDGE ( 'NONE', *, *, #242, .T. ) ;
#170 = VECTOR ( 'NONE', #49, 39.37007874015748143 ) ;
#171 = CARTESIAN_POINT ( 'NONE',  ( 0.000000000000000000, 0.7500000000000001110, 0.000000000000000000 ) ) ;
#172 =( NAMED_UNIT ( * ) PLANE_ANGLE_UNIT ( ) SI_UNIT ( $, .RADIAN. ) );
#173 = DIRECTION ( 'NONE',  ( -0.000000000000000000, -1.000000000000000000, -0.000000000000000000 ) ) ;
#174 = CARTESIAN_POINT ( 'NONE',  ( 0.3124999999999999445, 3.000000000000000444, 3.827021247335477694E-17 ) ) ;
#175 = AXIS2_PLACEMENT_3D ( 'NONE', #293, #263, #150 ) ;
#176 = ORIENTED_EDGE ( 'NONE', *, *, #40, .F. ) ;
#177 = LINE ( 'NONE', #265, #128 ) ;
#178 = UNCERTAINTY_MEASURE_WITH_UNIT (LENGTH_MEASURE( 1.000000000000000082E-05 ), #104, 'distance_accuracy_value', 'NONE');
#179 = PRESENTATION_STYLE_ASSIGNMENT (( #295 ) ) ;
#180 =( CONVERSION_BASED_UNIT ( 'INCH', #146 ) LENGTH_UNIT ( ) NAMED_UNIT ( #6 ) );
#181 = CIRCLE ( 'NONE', #193, 0.3125000000000000000 ) ;
#182 = FACE_OUTER_BOUND ( 'NONE', #317, .T. ) ;
#183 =( NAMED_UNIT ( * ) SI_UNIT ( $, .STERADIAN. ) SOLID_ANGLE_UNIT ( ) );
#184 = LINE ( 'NONE', #335, #170 ) ;
#185 = DIRECTION ( 'NONE',  ( -1.000000000000000000, 0.000000000000000000, 0.000000000000000000 ) ) ;
#186 =( NAMED_UNIT ( * ) PLANE_ANGLE_UNIT ( ) SI_UNIT ( $, .RADIAN. ) );
#187 = DIRECTION ( 'NONE',  ( -1.483695731438215170E-16, 1.000000000000000000, -0.000000000000000000 ) ) ;
#188 = PRESENTATION_STYLE_ASSIGNMENT (( #103 ) ) ;
#189 = DIRECTION ( 'NONE',  ( -1.000000000000000000, 0.000000000000000000, 0.000000000000000000 ) ) ;
#190 =( LENGTH_UNIT ( ) NAMED_UNIT ( * ) SI_UNIT ( $, .METRE. ) );
#191 =( NAMED_UNIT ( * ) PLANE_ANGLE_UNIT ( ) SI_UNIT ( $, .RADIAN. ) );
#192 = ORIENTED_EDGE ( 'NONE', *, *, #46, .F. ) ;
#193 = AXIS2_PLACEMENT_3D ( 'NONE', #21, #212, #252 ) ;
#194 = CLOSED_SHELL ( 'NONE', ( #235, #358, #131, #224 ) ) ;
#195 = UNCERTAINTY_MEASURE_WITH_UNIT (LENGTH_MEASURE( 1.000000000000000082E-05 ), #99, 'distance_accuracy_value', 'NONE');
#196 = CIRCLE ( 'NONE', #330, 0.3125000000000000000 ) ;
#197 = AXIS2_PLACEMENT_3D ( 'NONE', #217, #82, #280 ) ;
#198 = ADVANCED_FACE ( 'NONE', ( #50 ), #69, .T. ) ;
#199 = ORIENTED_EDGE ( 'NONE', *, *, #298, .T. ) ;
#200 = SURFACE_STYLE_USAGE ( .BOTH. , #97 ) ;
#201 = PRODUCT_DEFINITION_CONTEXT ( 'detailed design', #54, 'design' ) ;
#202 = CARTESIAN_POINT ( 'NONE',  ( -6.123233995736770966E-17, 3.000000000000000444, 0.000000000000000000 ) ) ;
#203 = EDGE_LOOP ( 'NONE', ( #231, #88, #89, #221 ) ) ;
#204 = FACE_OUTER_BOUND ( 'NONE', #311, .T. ) ;
#205 = CIRCLE ( 'NONE', #1, 0.3124999999999996669 ) ;
#206 =( NAMED_UNIT ( * ) SI_UNIT ( $, .STERADIAN. ) SOLID_ANGLE_UNIT ( ) );
#207 = DIRECTION ( 'NONE',  ( 1.000000000000000000, 0.000000000000000000, 0.000000000000000000 ) ) ;
#208 = EDGE_CURVE ( 'NONE', #3, #289, #312, .T. ) ;
#209 = VERTEX_POINT ( 'NONE', #174 ) ;
#210 = FACE_OUTER_BOUND ( 'NONE', #53, .T. ) ;
#211 = CARTESIAN_POINT ( 'NONE',  ( 0.000000000000000000, 0.7500000000000001110, 0.000000000000000000 ) ) ;
#212 = DIRECTION ( 'NONE',  ( -1.483695731438215170E-16, 1.000000000000000000, -0.000000000000000000 ) ) ;
#213 = MECHANICAL_DESIGN_GEOMETRIC_PRESENTATION_REPRESENTATION (  '', ( #17 ), #281 ) ;
#214 = DIRECTION ( 'NONE',  ( 0.000000000000000000, 0.000000000000000000, -1.000000000000000000 ) ) ;
#215 = DIRECTION ( 'NONE',  ( 1.000000000000000000, 0.000000000000000000, 0.000000000000000000 ) ) ;
#216 = DIRECTION ( 'NONE',  ( -0.000000000000000000, -1.000000000000000000, -0.000000000000000000 ) ) ;
#217 = CARTESIAN_POINT ( 'NONE',  ( 2.725991996162306852E-16, 0.7500000000000001110, 0.000000000000000000 ) ) ;
#218 = CARTESIAN_POINT ( 'NONE',  ( -3.827021247335478926E-17, 0.3125000000000000000, 0.000000000000000000 ) ) ;
#219 = AXIS2_PLACEMENT_3D ( 'NONE', #124, #267, #189 ) ;
#220 = SPHERICAL_SURFACE ( 'NONE', #101, 0.3125000000000000000 ) ;
#221 = ORIENTED_EDGE ( 'NONE', *, *, #19, .F. ) ;
#222 = ADVANCED_FACE ( 'NONE', ( #91 ), #259, .T. ) ;
#223 = EDGE_LOOP ( 'NONE', ( #44, #169, #153, #92 ) ) ;
#224 = ADVANCED_FACE ( 'NONE', ( #210 ), #36, .F. ) ;
#225 = CIRCLE ( 'NONE', #165, 0.3125000000000000000 ) ;
#226 = MECHANICAL_DESIGN_GEOMETRIC_PRESENTATION_REPRESENTATION (  '', ( #352 ), #142 ) ;
#227 = ORIENTED_EDGE ( 'NONE', *, *, #275, .T. ) ;
#228 = APPLICATION_CONTEXT ( 'automotive_design' ) ;
#229 = ORIENTED_EDGE ( 'NONE', *, *, #261, .F. ) ;
#230 =( GEOMETRIC_REPRESENTATION_CONTEXT ( 3 ) GLOBAL_UNCERTAINTY_ASSIGNED_CONTEXT ( ( #96 ) ) GLOBAL_UNIT_ASSIGNED_CONTEXT ( ( #251, #310, #110 ) ) REPRESENTATION_CONTEXT ( 'NONE', 'WORKASPACE' ) );
#231 = ORIENTED_EDGE ( 'NONE', *, *, #298, .F. ) ;
#232 = DIRECTION ( 'NONE',  ( 0.000000000000000000, 0.000000000000000000, 1.000000000000000000 ) ) ;
#233 = DIRECTION ( 'NONE',  ( 1.224646799147353207E-16, -0.000000000000000000, 1.000000000000000000 ) ) ;
#234 = PRODUCT ( '17557', '17557', '', ( #75 ) ) ;
#235 = ADVANCED_FACE ( 'NONE', ( #12 ), #327, .T. ) ;
#236 =( NAMED_UNIT ( * ) PLANE_ANGLE_UNIT ( ) SI_UNIT ( $, .RADIAN. ) );
#237 = FILL_AREA_STYLE_COLOUR ( '', #141 ) ;
#238 =( GEOMETRIC_REPRESENTATION_CONTEXT ( 3 ) GLOBAL_UNCERTAINTY_ASSIGNED_CONTEXT ( ( #178 ) ) GLOBAL_UNIT_ASSIGNED_CONTEXT ( ( #104, #273, #183 ) ) REPRESENTATION_CONTEXT ( 'NONE', 'WORKASPACE' ) );
#239 =( CONVERSION_BASED_UNIT ( 'INCH', #264 ) LENGTH_UNIT ( ) NAMED_UNIT ( #319 ) );
#240 = SURFACE_STYLE_USAGE ( .BOTH. , #253 ) ;
#241 =( CONVERSION_BASED_UNIT ( 'INCH', #47 ) LENGTH_UNIT ( ) NAMED_UNIT ( #255 ) );
#242 = EDGE_CURVE ( 'NONE', #299, #325, #258, .T. ) ;
#243 = DIRECTION ( 'NONE',  ( -1.000000000000000000, 0.000000000000000000, 0.000000000000000000 ) ) ;
#244 = PRODUCT_DEFINITION_SHAPE ( 'NONE', 'NONE',  #79 ) ;
#245 = DIRECTION ( 'NONE',  ( 0.000000000000000000, 0.000000000000000000, -1.000000000000000000 ) ) ;
#246 = STYLED_ITEM ( 'NONE', ( #23 ), #152 ) ;
#247 = AXIS2_PLACEMENT_3D ( 'NONE', #135, #308, #338 ) ;
#248 = DIRECTION ( 'NONE',  ( 0.000000000000000000, 0.000000000000000000, -1.000000000000000000 ) ) ;
#249 = CARTESIAN_POINT ( 'NONE',  ( -0.3125000000000000000, 0.3125000000000000555, 3.827021247335477694E-17 ) ) ;
#250 = CLOSED_SHELL ( 'NONE', ( #222, #254, #198, #152, #355 ) ) ;
#251 =( CONVERSION_BASED_UNIT ( 'INCH', #334 ) LENGTH_UNIT ( ) NAMED_UNIT ( #303 ) );
#252 = DIRECTION ( 'NONE',  ( -1.000000000000000000, 0.000000000000000000, 0.000000000000000000 ) ) ;
#253 = SURFACE_SIDE_STYLE ('',( #27 ) ) ;
#254 = ADVANCED_FACE ( 'NONE', ( #204 ), #93, .T. ) ;
#255 = DIMENSIONAL_EXPONENTS ( 1.000000000000000000, 0.000000000000000000, 0.000000000000000000, 0.000000000000000000, 0.000000000000000000, 0.000000000000000000, 0.000000000000000000 ) ;
#256 = VERTEX_POINT ( 'NONE', #302 ) ;
#257 = LINE ( 'NONE', #66, #118 ) ;
#258 = CIRCLE ( 'NONE', #337, 0.3125000000000000000 ) ;
#259 = SPHERICAL_SURFACE ( 'NONE', #305, 0.3125000000000000000 ) ;
#260 = PRESENTATION_LAYER_ASSIGNMENT (  '', '', ( #352 ) ) ;
#261 = EDGE_CURVE ( 'NONE', #299, #56, #346, .T. ) ;
#262 = SURFACE_SIDE_STYLE ('',( #326 ) ) ;
#263 = DIRECTION ( 'NONE',  ( 1.483695731438215170E-16, -1.000000000000000000, 0.000000000000000000 ) ) ;
#264 = LENGTH_MEASURE_WITH_UNIT ( LENGTH_MEASURE( 0.02539999999999999897 ), #41 );
#265 = CARTESIAN_POINT ( 'NONE',  ( 0.000000000000000000, 0.000000000000000000, -0.3125000000000000000 ) ) ;
#266 = AXIS2_PLACEMENT_3D ( 'NONE', #42, #149, #39 ) ;
#267 = DIRECTION ( 'NONE',  ( -1.483695731438215170E-16, 1.000000000000000000, -0.000000000000000000 ) ) ;
#268 = MECHANICAL_DESIGN_GEOMETRIC_PRESENTATION_REPRESENTATION (  '', ( #373 ), #10 ) ;
#269 = FILL_AREA_STYLE_COLOUR ( '', #371 ) ;
#270 = CIRCLE ( 'NONE', #283, 0.3125000000000000000 ) ;
#271 = LENGTH_MEASURE_WITH_UNIT ( LENGTH_MEASURE( 0.02539999999999999897 ), #306 );
#272 =( NAMED_UNIT ( * ) SI_UNIT ( $, .STERADIAN. ) SOLID_ANGLE_UNIT ( ) );
#273 =( NAMED_UNIT ( * ) PLANE_ANGLE_UNIT ( ) SI_UNIT ( $, .RADIAN. ) );
#274 = DIRECTION ( 'NONE',  ( -0.000000000000000000, -1.000000000000000000, -0.000000000000000000 ) ) ;
#275 = EDGE_CURVE ( 'NONE', #112, #209, #181, .T. ) ;
#276 = CARTESIAN_POINT ( 'NONE',  ( -0.3125000000000000555, 3.000000000000000444, 0.000000000000000000 ) ) ;
#277 = PLANE ( 'NONE',  #197 ) ;
#278 = SURFACE_STYLE_FILL_AREA ( #161 ) ;
#279 = PRESENTATION_STYLE_ASSIGNMENT (( #162 ) ) ;
#280 = DIRECTION ( 'NONE',  ( -1.000000000000000000, -1.483695731438215170E-16, 0.000000000000000000 ) ) ;
#281 =( GEOMETRIC_REPRESENTATION_CONTEXT ( 3 ) GLOBAL_UNCERTAINTY_ASSIGNED_CONTEXT ( ( #344 ) ) GLOBAL_UNIT_ASSIGNED_CONTEXT ( ( #180, #172, #117 ) ) REPRESENTATION_CONTEXT ( 'NONE', 'WORKASPACE' ) );
#282 = SHAPE_DEFINITION_REPRESENTATION ( #244, #331 ) ;
#283 = AXIS2_PLACEMENT_3D ( 'NONE', #202, #291, #322 ) ;
#284 = ORIENTED_EDGE ( 'NONE', *, *, #315, .F. ) ;
#285 = DIMENSIONAL_EXPONENTS ( 1.000000000000000000, 0.000000000000000000, 0.000000000000000000, 0.000000000000000000, 0.000000000000000000, 0.000000000000000000, 0.000000000000000000 ) ;
#286 = DIMENSIONAL_EXPONENTS ( 1.000000000000000000, 0.000000000000000000, 0.000000000000000000, 0.000000000000000000, 0.000000000000000000, 0.000000000000000000, 0.000000000000000000 ) ;
#287 = VERTEX_POINT ( 'NONE', #339 ) ;
#288 = AXIS2_PLACEMENT_3D ( 'NONE', #211, #328, #248 ) ;
#289 = VERTEX_POINT ( 'NONE', #134 ) ;
#290 = MECHANICAL_DESIGN_GEOMETRIC_PRESENTATION_REPRESENTATION (  '', ( #294 ), #33 ) ;
#291 = DIRECTION ( 'NONE',  ( -1.483695731438215170E-16, 1.000000000000000000, -0.000000000000000000 ) ) ;
#292 = FILL_AREA_STYLE_COLOUR ( '', #155 ) ;
#293 = CARTESIAN_POINT ( 'NONE',  ( 0.3124999999999999445, 3.000000000000000444, 0.000000000000000000 ) ) ;
#294 = STYLED_ITEM ( 'NONE', ( #279 ), #355 ) ;
#295 = SURFACE_STYLE_USAGE ( .BOTH. , #262 ) ;
#296 = SURFACE_STYLE_USAGE ( .BOTH. , #324 ) ;
#297 =( NAMED_UNIT ( * ) PLANE_ANGLE_UNIT ( ) SI_UNIT ( $, .RADIAN. ) );
#298 = EDGE_CURVE ( 'NONE', #289, #209, #184, .T. ) ;
#299 = VERTEX_POINT ( 'NONE', #249 ) ;
#300 = CYLINDRICAL_SURFACE ( 'NONE', #115, 0.3125000000000000000 ) ;
#301 = CARTESIAN_POINT ( 'NONE',  ( 0.3125000000000000000, 0.3125000000000000555, 0.000000000000000000 ) ) ;
#302 = CARTESIAN_POINT ( 'NONE',  ( 3.827021247335477694E-17, 0.7500000000000001110, 0.3124999999999999445 ) ) ;
#303 = DIMENSIONAL_EXPONENTS ( 1.000000000000000000, 0.000000000000000000, 0.000000000000000000, 0.000000000000000000, 0.000000000000000000, 0.000000000000000000, 0.000000000000000000 ) ;
#304 = EDGE_CURVE ( 'NONE', #56, #168, #151, .T. ) ;
#305 = AXIS2_PLACEMENT_3D ( 'NONE', #144, #232, #207 ) ;
#306 =( LENGTH_UNIT ( ) NAMED_UNIT ( * ) SI_UNIT ( $, .METRE. ) );
#307 = SURFACE_STYLE_FILL_AREA ( #133 ) ;
#308 = DIRECTION ( 'NONE',  ( 0.000000000000000000, 0.000000000000000000, 1.000000000000000000 ) ) ;
#309 = CARTESIAN_POINT ( 'NONE',  ( 0.000000000000000000, 0.7500000000000001110, -0.3124999999999999445 ) ) ;
#310 =( NAMED_UNIT ( * ) PLANE_ANGLE_UNIT ( ) SI_UNIT ( $, .RADIAN. ) );
#311 = EDGE_LOOP ( 'NONE', ( #347, #143, #343, #94, #145 ) ) ;
#312 = CIRCLE ( 'NONE', #342, 0.3124999999999996669 ) ;
#313 = MANIFOLD_SOLID_BREP ( 'Revolve - Tool Body (Straight Shanked)', #194 ) ;
#314 = ORIENTED_EDGE ( 'NONE', *, *, #85, .T. ) ;
#315 = EDGE_CURVE ( 'NONE', #256, #287, #329, .T. ) ;
#316 = AXIS2_PLACEMENT_3D ( 'NONE', #24, #274, #214 ) ;
#317 = EDGE_LOOP ( 'NONE', ( #284, #320, #314, #229, #192 ) ) ;
#318 = FILL_AREA_STYLE_COLOUR ( '', #323 ) ;
#319 = DIMENSIONAL_EXPONENTS ( 1.000000000000000000, 0.000000000000000000, 0.000000000000000000, 0.000000000000000000, 0.000000000000000000, 0.000000000000000000, 0.000000000000000000 ) ;
#320 = ORIENTED_EDGE ( 'NONE', *, *, #2, .T. ) ;
#321 = CARTESIAN_POINT ( 'NONE',  ( -3.827021247335478926E-17, 0.3125000000000000000, 0.000000000000000000 ) ) ;
#322 = DIRECTION ( 'NONE',  ( -1.000000000000000000, 0.000000000000000000, 0.000000000000000000 ) ) ;
#323 = COLOUR_RGB ( '',1.000000000000000000, 0.000000000000000000, 0.000000000000000000 ) ;
#324 = SURFACE_SIDE_STYLE ('',( #95 ) ) ;
#325 = VERTEX_POINT ( 'NONE', #159 ) ;
#326 = SURFACE_STYLE_FILL_AREA ( #62 ) ;
#327 = CYLINDRICAL_SURFACE ( 'NONE', #266, 0.3124999999999998890 ) ;
#328 = DIRECTION ( 'NONE',  ( -0.000000000000000000, -1.000000000000000000, -0.000000000000000000 ) ) ;
#329 = LINE ( 'NONE', #362, #78 ) ;
#330 = AXIS2_PLACEMENT_3D ( 'NONE', #80, #367, #100 ) ;
#331 = ADVANCED_BREP_SHAPE_REPRESENTATION ( '17557', ( #58, #313, #247 ), #122 ) ;
#332 =( NAMED_UNIT ( * ) PLANE_ANGLE_UNIT ( ) SI_UNIT ( $, .RADIAN. ) );
#333 = PRESENTATION_LAYER_ASSIGNMENT (  '', '', ( #373 ) ) ;
#334 = LENGTH_MEASURE_WITH_UNIT ( LENGTH_MEASURE( 0.02539999999999999897 ), #364 );
#335 = CARTESIAN_POINT ( 'NONE',  ( 0.3124999999999998335, 3.000000000000000444, 3.827021247335477078E-17 ) ) ;
#336 =( NAMED_UNIT ( * ) SI_UNIT ( $, .STERADIAN. ) SOLID_ANGLE_UNIT ( ) );
#337 = AXIS2_PLACEMENT_3D ( 'NONE', #321, #233, #350 ) ;
#338 = DIRECTION ( 'NONE',  ( 1.000000000000000000, 0.000000000000000000, 0.000000000000000000 ) ) ;
#339 = CARTESIAN_POINT ( 'NONE',  ( 3.827021247335478926E-17, 0.3125000000000000555, 0.3125000000000000000 ) ) ;
#340 = DIMENSIONAL_EXPONENTS ( 1.000000000000000000, 0.000000000000000000, 0.000000000000000000, 0.000000000000000000, 0.000000000000000000, 0.000000000000000000, 0.000000000000000000 ) ;
#341 = DIRECTION ( 'NONE',  ( 0.000000000000000000, -0.000000000000000000, 1.000000000000000000 ) ) ;
#342 = AXIS2_PLACEMENT_3D ( 'NONE', #163, #83, #354 ) ;
#343 = ORIENTED_EDGE ( 'NONE', *, *, #157, .F. ) ;
#344 = UNCERTAINTY_MEASURE_WITH_UNIT (LENGTH_MEASURE( 1.000000000000000082E-05 ), #180, 'distance_accuracy_value', 'NONE');
#345 = ORIENTED_EDGE ( 'NONE', *, *, #167, .F. ) ;
#346 = CIRCLE ( 'NONE', #363, 0.3125000000000000000 ) ;
#347 = ORIENTED_EDGE ( 'NONE', *, *, #167, .T. ) ;
#348 = FILL_AREA_STYLE ('',( #318 ) ) ;
#349 = ORIENTED_EDGE ( 'NONE', *, *, #208, .F. ) ;
#350 = DIRECTION ( 'NONE',  ( 1.000000000000000000, 0.000000000000000000, -1.224646799147353207E-16 ) ) ;
#351 = SURFACE_STYLE_FILL_AREA ( #348 ) ;
#352 = STYLED_ITEM ( 'NONE', ( #188 ), #313 ) ;
#353 = DIRECTION ( 'NONE',  ( 0.000000000000000000, 0.000000000000000000, -1.000000000000000000 ) ) ;
#354 = DIRECTION ( 'NONE',  ( -1.000000000000000000, 0.000000000000000000, 0.000000000000000000 ) ) ;
#355 = ADVANCED_FACE ( 'NONE', ( #160 ), #220, .T. ) ;
#356 = DIRECTION ( 'NONE',  ( -0.000000000000000000, -1.000000000000000000, -0.000000000000000000 ) ) ;
#357 = LENGTH_MEASURE_WITH_UNIT ( LENGTH_MEASURE( 0.02539999999999999897 ), #81 );
#358 = ADVANCED_FACE ( 'NONE', ( #102 ), #277, .F. ) ;
#359 = UNCERTAINTY_MEASURE_WITH_UNIT (LENGTH_MEASURE( 1.000000000000000082E-05 ), #241, 'distance_accuracy_value', 'NONE');
#360 = DIMENSIONAL_EXPONENTS ( 1.000000000000000000, 0.000000000000000000, 0.000000000000000000, 0.000000000000000000, 0.000000000000000000, 0.000000000000000000, 0.000000000000000000 ) ;
#361 = FILL_AREA_STYLE ('',( #106 ) ) ;
#362 = CARTESIAN_POINT ( 'NONE',  ( 3.827021247335478926E-17, 0.000000000000000000, 0.3125000000000000000 ) ) ;
#363 = AXIS2_PLACEMENT_3D ( 'NONE', #105, #76, #245 ) ;
#364 =( LENGTH_UNIT ( ) NAMED_UNIT ( * ) SI_UNIT ( $, .METRE. ) );
#365 = SURFACE_STYLE_FILL_AREA ( #130 ) ;
#366 =( LENGTH_UNIT ( ) NAMED_UNIT ( * ) SI_UNIT ( $, .METRE. ) );
#367 = DIRECTION ( 'NONE',  ( -0.000000000000000000, -1.000000000000000000, -0.000000000000000000 ) ) ;
#368 = SURFACE_SIDE_STYLE ('',( #365 ) ) ;
#369 = CARTESIAN_POINT ( 'NONE',  ( 2.725991996162307345E-16, 0.7499999999999998890, 0.000000000000000000 ) ) ;
#370 = PRESENTATION_LAYER_ASSIGNMENT (  '', '', ( #17 ) ) ;
#371 = COLOUR_RGB ( '',1.000000000000000000, 0.000000000000000000, 0.000000000000000000 ) ;
#372 = DIRECTION ( 'NONE',  ( 0.000000000000000000, 1.000000000000000000, 0.000000000000000000 ) ) ;
#373 = STYLED_ITEM ( 'NONE', ( #179 ), #58 ) ;
ENDSEC;
END-ISO-10303-21;
