ISO-10303-21;
HEADER;
FILE_DESCRIPTION (( 'STEP AP214' ),
    '1' );
FILE_NAME ('83525.STEP',
    '2023-06-23T10:36:42',
    ( '' ),
    ( '' ),
    'SwSTEP 2.0',
    'SolidWorks 2023',
    '' );
FILE_SCHEMA (( 'AUTOMOTIVE_DESIGN' ));
ENDSEC;

DATA;
#1 = FACE_OUTER_BOUND ( 'NONE', #238, .T. ) ;
#2 = PRODUCT ( '83525', '83525', '', ( #172 ) ) ;
#3 = STYLED_ITEM ( 'NONE', ( #8 ), #220 ) ;
#4 = SURFACE_STYLE_USAGE ( .BOTH. , #64 ) ;
#5 = UNCERTAINTY_MEASURE_WITH_UNIT (LENGTH_MEASURE( 1.000000000000000082E-05 ), #203, 'distance_accuracy_value', 'NONE');
#6 = DIRECTION ( 'NONE',  ( 0.000000000000000000, 0.000000000000000000, -1.000000000000000000 ) ) ;
#7 = STYLED_ITEM ( 'NONE', ( #261 ), #70 ) ;
#8 = PRESENTATION_STYLE_ASSIGNMENT (( #9 ) ) ;
#9 = SURFACE_STYLE_USAGE ( .BOTH. , #225 ) ;
#10 = AXIS2_PLACEMENT_3D ( 'NONE', #100, #142, #198 ) ;
#11 =( CONVERSION_BASED_UNIT ( 'INCH', #287 ) LENGTH_UNIT ( ) NAMED_UNIT ( #62 ) );
#12 = FACE_OUTER_BOUND ( 'NONE', #103, .T. ) ;
#13 = ORIENTED_EDGE ( 'NONE', *, *, #249, .T. ) ;
#14 = AXIS2_PLACEMENT_3D ( 'NONE', #150, #56, #247 ) ;
#15 = ORIENTED_EDGE ( 'NONE', *, *, #128, .F. ) ;
#16 = PLANE ( 'NONE',  #217 ) ;
#17 = FILL_AREA_STYLE ('',( #275 ) ) ;
#18 = CARTESIAN_POINT ( 'NONE',  ( 0.000000000000000000, 0.000000000000000000, 0.000000000000000000 ) ) ;
#19 = DIMENSIONAL_EXPONENTS ( 1.000000000000000000, 0.000000000000000000, 0.000000000000000000, 0.000000000000000000, 0.000000000000000000, 0.000000000000000000, 0.000000000000000000 ) ;
#20 = AXIS2_PLACEMENT_3D ( 'NONE', #73, #78, #244 ) ;
#21 = PLANE ( 'NONE',  #162 ) ;
#22 = UNCERTAINTY_MEASURE_WITH_UNIT (LENGTH_MEASURE( 1.000000000000000082E-05 ), #11, 'distance_accuracy_value', 'NONE');
#23 = SURFACE_STYLE_USAGE ( .BOTH. , #241 ) ;
#24 = CARTESIAN_POINT ( 'NONE',  ( -0.3750000000000005551, 6.000000000000000888, 0.000000000000000000 ) ) ;
#25 = STYLED_ITEM ( 'NONE', ( #188 ), #269 ) ;
#26 =( NAMED_UNIT ( * ) PLANE_ANGLE_UNIT ( ) SI_UNIT ( $, .RADIAN. ) );
#27 = DIRECTION ( 'NONE',  ( 0.000000000000000000, -0.000000000000000000, 1.000000000000000000 ) ) ;
#28 = ORIENTED_EDGE ( 'NONE', *, *, #235, .T. ) ;
#29 = STYLED_ITEM ( 'NONE', ( #256 ), #30 ) ;
#30 = ADVANCED_FACE ( 'NONE', ( #12 ), #86, .T. ) ;
#31 = MECHANICAL_DESIGN_GEOMETRIC_PRESENTATION_REPRESENTATION (  '', ( #3 ), #77 ) ;
#32 = EDGE_LOOP ( 'NONE', ( #38, #274 ) ) ;
#33 = DIRECTION ( 'NONE',  ( -8.906522175617116587E-17, 1.000000000000000000, -0.000000000000000000 ) ) ;
#34 = STYLED_ITEM ( 'NONE', ( #242 ), #71 ) ;
#35 = FILL_AREA_STYLE_COLOUR ( '', #292 ) ;
#36 =( CONVERSION_BASED_UNIT ( 'INCH', #114 ) LENGTH_UNIT ( ) NAMED_UNIT ( #194 ) );
#37 =( NAMED_UNIT ( * ) SI_UNIT ( $, .STERADIAN. ) SOLID_ANGLE_UNIT ( ) );
#38 = ORIENTED_EDGE ( 'NONE', *, *, #128, .T. ) ;
#39 = PLANE ( 'NONE',  #10 ) ;
#40 =( GEOMETRIC_REPRESENTATION_CONTEXT ( 3 ) GLOBAL_UNCERTAINTY_ASSIGNED_CONTEXT ( ( #264 ) ) GLOBAL_UNIT_ASSIGNED_CONTEXT ( ( #36, #297, #137 ) ) REPRESENTATION_CONTEXT ( 'NONE', 'WORKASPACE' ) );
#41 = DIRECTION ( 'NONE',  ( -8.906522175617116587E-17, 1.000000000000000000, -0.000000000000000000 ) ) ;
#42 = DIRECTION ( 'NONE',  ( 0.000000000000000000, 0.000000000000000000, -1.000000000000000000 ) ) ;
#43 = AXIS2_PLACEMENT_3D ( 'NONE', #305, #279, #97 ) ;
#44 = DIMENSIONAL_EXPONENTS ( 1.000000000000000000, 0.000000000000000000, 0.000000000000000000, 0.000000000000000000, 0.000000000000000000, 0.000000000000000000, 0.000000000000000000 ) ;
#45 = CLOSED_SHELL ( 'NONE', ( #145, #87, #303, #281 ) ) ;
#46 = SURFACE_STYLE_FILL_AREA ( #167 ) ;
#47 =( GEOMETRIC_REPRESENTATION_CONTEXT ( 3 ) GLOBAL_UNCERTAINTY_ASSIGNED_CONTEXT ( ( #216 ) ) GLOBAL_UNIT_ASSIGNED_CONTEXT ( ( #166, #26, #240 ) ) REPRESENTATION_CONTEXT ( 'NONE', 'WORKASPACE' ) );
#48 = ADVANCED_BREP_SHAPE_REPRESENTATION ( '83525', ( #71, #269, #43 ), #110 ) ;
#49 = CARTESIAN_POINT ( 'NONE',  ( 1.487365073714239744E-33, 3.250000000000000000, 0.000000000000000000 ) ) ;
#50 = CIRCLE ( 'NONE', #92, 0.3750000000000000555 ) ;
#51 = EDGE_CURVE ( 'NONE', #113, #117, #91, .T. ) ;
#52 = CARTESIAN_POINT ( 'NONE',  ( 0.000000000000000000, 3.250000000000000000, -0.3750000000000000555 ) ) ;
#53 =( GEOMETRIC_REPRESENTATION_CONTEXT ( 3 ) GLOBAL_UNCERTAINTY_ASSIGNED_CONTEXT ( ( #257 ) ) GLOBAL_UNIT_ASSIGNED_CONTEXT ( ( #301, #273, #37 ) ) REPRESENTATION_CONTEXT ( 'NONE', 'WORKASPACE' ) );
#54 = DIRECTION ( 'NONE',  ( -1.000000000000000000, 0.000000000000000000, 0.000000000000000000 ) ) ;
#55 = COLOUR_RGB ( '',0.7921568627450980005, 0.8196078431372548767, 0.9333333333333333481 ) ;
#56 = DIRECTION ( 'NONE',  ( -8.906522175617116587E-17, 1.000000000000000000, -0.000000000000000000 ) ) ;
#57 = SURFACE_STYLE_FILL_AREA ( #245 ) ;
#58 = VERTEX_POINT ( 'NONE', #253 ) ;
#59 = DIRECTION ( 'NONE',  ( 0.000000000000000000, 0.000000000000000000, -1.000000000000000000 ) ) ;
#60 = SURFACE_STYLE_USAGE ( .BOTH. , #212 ) ;
#61 = MECHANICAL_DESIGN_GEOMETRIC_PRESENTATION_REPRESENTATION (  '', ( #25 ), #40 ) ;
#62 = DIMENSIONAL_EXPONENTS ( 1.000000000000000000, 0.000000000000000000, 0.000000000000000000, 0.000000000000000000, 0.000000000000000000, 0.000000000000000000, 0.000000000000000000 ) ;
#63 =( LENGTH_UNIT ( ) NAMED_UNIT ( * ) SI_UNIT ( $, .METRE. ) );
#64 = SURFACE_SIDE_STYLE ('',( #138 ) ) ;
#65 = CARTESIAN_POINT ( 'NONE',  ( -2.449293598294707400E-16, 6.000000000000000888, 0.000000000000000000 ) ) ;
#66 = EDGE_CURVE ( 'NONE', #117, #58, #126, .T. ) ;
#67 = FILL_AREA_STYLE_COLOUR ( '', #215 ) ;
#68 = CIRCLE ( 'NONE', #149, 0.3750000000000000555 ) ;
#69 = SURFACE_SIDE_STYLE ('',( #46 ) ) ;
#70 = ADVANCED_FACE ( 'NONE', ( #191 ), #39, .T. ) ;
#71 = MANIFOLD_SOLID_BREP ( 'Revolve - Cutting Edge', #96 ) ;
#72 =( CONVERSION_BASED_UNIT ( 'INCH', #286 ) LENGTH_UNIT ( ) NAMED_UNIT ( #19 ) );
#73 = CARTESIAN_POINT ( 'NONE',  ( -2.449293598294707400E-16, 6.000000000000000888, 0.000000000000000000 ) ) ;
#74 = AXIS2_PLACEMENT_3D ( 'NONE', #183, #266, #27 ) ;
#75 = FILL_AREA_STYLE_COLOUR ( '', #246 ) ;
#76 = FACE_OUTER_BOUND ( 'NONE', #296, .T. ) ;
#77 =( GEOMETRIC_REPRESENTATION_CONTEXT ( 3 ) GLOBAL_UNCERTAINTY_ASSIGNED_CONTEXT ( ( #5 ) ) GLOBAL_UNIT_ASSIGNED_CONTEXT ( ( #203, #293, #295 ) ) REPRESENTATION_CONTEXT ( 'NONE', 'WORKASPACE' ) );
#78 = DIRECTION ( 'NONE',  ( -8.906522175617116587E-17, 1.000000000000000000, -0.000000000000000000 ) ) ;
#79 = VERTEX_POINT ( 'NONE', #24 ) ;
#80 = DIRECTION ( 'NONE',  ( -0.000000000000000000, -1.000000000000000000, -0.000000000000000000 ) ) ;
#81 = ORIENTED_EDGE ( 'NONE', *, *, #143, .T. ) ;
#82 = DIRECTION ( 'NONE',  ( -0.000000000000000000, -1.000000000000000000, -0.000000000000000000 ) ) ;
#83 = UNCERTAINTY_MEASURE_WITH_UNIT (LENGTH_MEASURE( 1.000000000000000082E-05 ), #308, 'distance_accuracy_value', 'NONE');
#84 = CIRCLE ( 'NONE', #20, 0.3750000000000002776 ) ;
#85 = CARTESIAN_POINT ( 'NONE',  ( 0.000000000000000000, 0.000000000000000000, 0.000000000000000000 ) ) ;
#86 = CYLINDRICAL_SURFACE ( 'NONE', #283, 0.3750000000000000555 ) ;
#87 = ADVANCED_FACE ( 'NONE', ( #95 ), #21, .F. ) ;
#88 = CARTESIAN_POINT ( 'NONE',  ( 4.592425496802575451E-17, 0.000000000000000000, 0.3750000000000000555 ) ) ;
#89 = PRODUCT_DEFINITION_CONTEXT ( 'detailed design', #146, 'design' ) ;
#90 = DIRECTION ( 'NONE',  ( 8.906522175617116587E-17, -1.000000000000000000, 0.000000000000000000 ) ) ;
#91 = LINE ( 'NONE', #88, #179 ) ;
#92 = AXIS2_PLACEMENT_3D ( 'NONE', #104, #127, #6 ) ;
#93 = ORIENTED_EDGE ( 'NONE', *, *, #235, .F. ) ;
#94 = PRODUCT_DEFINITION_SHAPE ( 'NONE', 'NONE',  #195 ) ;
#95 = FACE_OUTER_BOUND ( 'NONE', #232, .T. ) ;
#96 = CLOSED_SHELL ( 'NONE', ( #30, #99, #220, #70 ) ) ;
#97 = DIRECTION ( 'NONE',  ( 1.000000000000000000, 0.000000000000000000, 0.000000000000000000 ) ) ;
#98 = AXIS2_PLACEMENT_3D ( 'NONE', #18, #276, #42 ) ;
#99 = ADVANCED_FACE ( 'NONE', ( #1 ), #196, .T. ) ;
#100 = CARTESIAN_POINT ( 'NONE',  ( 0.000000000000000000, 0.000000000000000000, 0.000000000000000000 ) ) ;
#101 = PRODUCT_DEFINITION_FORMATION_WITH_SPECIFIED_SOURCE ( 'ANY', '', #2, .NOT_KNOWN. ) ;
#102 = DIRECTION ( 'NONE',  ( -1.000000000000000000, 0.000000000000000000, 0.000000000000000000 ) ) ;
#103 = EDGE_LOOP ( 'NONE', ( #271, #268, #15, #299 ) ) ;
#104 = CARTESIAN_POINT ( 'NONE',  ( 0.000000000000000000, 3.250000000000000000, 0.000000000000000000 ) ) ;
#105 =( LENGTH_UNIT ( ) NAMED_UNIT ( * ) SI_UNIT ( $, .METRE. ) );
#106 = EDGE_CURVE ( 'NONE', #79, #112, #84, .T. ) ;
#107 = ORIENTED_EDGE ( 'NONE', *, *, #249, .F. ) ;
#108 = AXIS2_PLACEMENT_3D ( 'NONE', #263, #33, #130 ) ;
#109 = CARTESIAN_POINT ( 'NONE',  ( -3.032960542342103792E-32, 3.250000000000000000, 0.000000000000000000 ) ) ;
#110 =( GEOMETRIC_REPRESENTATION_CONTEXT ( 3 ) GLOBAL_UNCERTAINTY_ASSIGNED_CONTEXT ( ( #83 ) ) GLOBAL_UNIT_ASSIGNED_CONTEXT ( ( #308, #148, #165 ) ) REPRESENTATION_CONTEXT ( 'NONE', 'WORKASPACE' ) );
#111 = SURFACE_STYLE_FILL_AREA ( #233 ) ;
#112 = VERTEX_POINT ( 'NONE', #124 ) ;
#113 = VERTEX_POINT ( 'NONE', #222 ) ;
#114 = LENGTH_MEASURE_WITH_UNIT ( LENGTH_MEASURE( 0.02539999999999999897 ), #252 );
#115 = VERTEX_POINT ( 'NONE', #52 ) ;
#116 = CARTESIAN_POINT ( 'NONE',  ( 0.3750000000000000555, 6.000000000000000888, 0.000000000000000000 ) ) ;
#117 = VERTEX_POINT ( 'NONE', #228 ) ;
#118 = DIRECTION ( 'NONE',  ( -8.906522175617116587E-17, 1.000000000000000000, 0.000000000000000000 ) ) ;
#119 = PRESENTATION_STYLE_ASSIGNMENT (( #23 ) ) ;
#120 = PRODUCT_RELATED_PRODUCT_CATEGORY ( 'part', '', ( #2 ) ) ;
#121 = SHAPE_DEFINITION_REPRESENTATION ( #94, #48 ) ;
#122 = AXIS2_PLACEMENT_3D ( 'NONE', #255, #80, #59 ) ;
#123 =( NAMED_UNIT ( * ) PLANE_ANGLE_UNIT ( ) SI_UNIT ( $, .RADIAN. ) );
#124 = CARTESIAN_POINT ( 'NONE',  ( 0.3750000000000000555, 6.000000000000000888, 4.592425496802577300E-17 ) ) ;
#125 = DIRECTION ( 'NONE',  ( -0.000000000000000000, -1.000000000000000000, -0.000000000000000000 ) ) ;
#126 = CIRCLE ( 'NONE', #98, 0.3750000000000000555 ) ;
#127 = DIRECTION ( 'NONE',  ( -0.000000000000000000, -1.000000000000000000, -0.000000000000000000 ) ) ;
#128 = EDGE_CURVE ( 'NONE', #58, #117, #199, .T. ) ;
#129 = FACE_OUTER_BOUND ( 'NONE', #277, .T. ) ;
#130 = DIRECTION ( 'NONE',  ( -1.000000000000000000, 0.000000000000000000, 0.000000000000000000 ) ) ;
#131 = ORIENTED_EDGE ( 'NONE', *, *, #51, .F. ) ;
#132 = AXIS2_PLACEMENT_3D ( 'NONE', #85, #82, #155 ) ;
#133 = ORIENTED_EDGE ( 'NONE', *, *, #66, .F. ) ;
#134 = SURFACE_STYLE_USAGE ( .BOTH. , #209 ) ;
#135 = COLOUR_RGB ( '',1.000000000000000000, 0.000000000000000000, 0.000000000000000000 ) ;
#136 = CIRCLE ( 'NONE', #298, 0.3750000000000000555 ) ;
#137 =( NAMED_UNIT ( * ) SI_UNIT ( $, .STERADIAN. ) SOLID_ANGLE_UNIT ( ) );
#138 = SURFACE_STYLE_FILL_AREA ( #306 ) ;
#139 = FILL_AREA_STYLE_COLOUR ( '', #272 ) ;
#140 = UNCERTAINTY_MEASURE_WITH_UNIT (LENGTH_MEASURE( 1.000000000000000082E-05 ), #72, 'distance_accuracy_value', 'NONE');
#141 = PRESENTATION_LAYER_ASSIGNMENT (  '', '', ( #7 ) ) ;
#142 = DIRECTION ( 'NONE',  ( 0.000000000000000000, -1.000000000000000000, -0.000000000000000000 ) ) ;
#143 = EDGE_CURVE ( 'NONE', #214, #248, #68, .T. ) ;
#144 = SURFACE_STYLE_FILL_AREA ( #169 ) ;
#145 = ADVANCED_FACE ( 'NONE', ( #76 ), #152, .T. ) ;
#146 = APPLICATION_CONTEXT ( 'automotive_design' ) ;
#147 = APPLICATION_PROTOCOL_DEFINITION ( 'draft international standard', 'automotive_design', 1998, #151 ) ;
#148 =( NAMED_UNIT ( * ) PLANE_ANGLE_UNIT ( ) SI_UNIT ( $, .RADIAN. ) );
#149 = AXIS2_PLACEMENT_3D ( 'NONE', #265, #291, #54 ) ;
#150 = CARTESIAN_POINT ( 'NONE',  ( -2.449293598294707400E-16, 6.000000000000000888, 0.000000000000000000 ) ) ;
#151 = APPLICATION_CONTEXT ( 'automotive_design' ) ;
#152 = CYLINDRICAL_SURFACE ( 'NONE', #108, 0.3750000000000001665 ) ;
#153 = MECHANICAL_DESIGN_GEOMETRIC_PRESENTATION_REPRESENTATION (  '', ( #231 ), #224 ) ;
#154 = CYLINDRICAL_SURFACE ( 'NONE', #132, 0.3750000000000000555 ) ;
#155 = DIRECTION ( 'NONE',  ( 0.000000000000000000, 0.000000000000000000, -1.000000000000000000 ) ) ;
#156 = PRESENTATION_LAYER_ASSIGNMENT (  '', '', ( #34 ) ) ;
#157 = EDGE_LOOP ( 'NONE', ( #206, #185 ) ) ;
#158 = CARTESIAN_POINT ( 'NONE',  ( 0.3750000000000000555, 3.250000000000000000, 4.592425496802577300E-17 ) ) ;
#159 = EDGE_CURVE ( 'NONE', #112, #79, #210, .T. ) ;
#160 = DIRECTION ( 'NONE',  ( -0.000000000000000000, -1.000000000000000000, -0.000000000000000000 ) ) ;
#161 = ORIENTED_EDGE ( 'NONE', *, *, #106, .F. ) ;
#162 = AXIS2_PLACEMENT_3D ( 'NONE', #49, #118, #219 ) ;
#163 = DIRECTION ( 'NONE',  ( 0.000000000000000000, 0.000000000000000000, -1.000000000000000000 ) ) ;
#164 = AXIS2_PLACEMENT_3D ( 'NONE', #65, #243, #260 ) ;
#165 =( NAMED_UNIT ( * ) SI_UNIT ( $, .STERADIAN. ) SOLID_ANGLE_UNIT ( ) );
#166 =( CONVERSION_BASED_UNIT ( 'INCH', #282 ) LENGTH_UNIT ( ) NAMED_UNIT ( #44 ) );
#167 = FILL_AREA_STYLE ('',( #173 ) ) ;
#168 = VECTOR ( 'NONE', #180, 39.37007874015748143 ) ;
#169 = FILL_AREA_STYLE ('',( #67 ) ) ;
#170 =( LENGTH_UNIT ( ) NAMED_UNIT ( * ) SI_UNIT ( $, .METRE. ) );
#171 =( LENGTH_UNIT ( ) NAMED_UNIT ( * ) SI_UNIT ( $, .METRE. ) );
#172 = PRODUCT_CONTEXT ( 'NONE', #151, 'mechanical' ) ;
#173 = FILL_AREA_STYLE_COLOUR ( '', #55 ) ;
#174 = EDGE_CURVE ( 'NONE', #115, #113, #50, .T. ) ;
#175 = MECHANICAL_DESIGN_GEOMETRIC_PRESENTATION_REPRESENTATION (  '', ( #7 ), #288 ) ;
#176 = DIRECTION ( 'NONE',  ( 0.000000000000000000, 0.000000000000000000, -1.000000000000000000 ) ) ;
#177 =( NAMED_UNIT ( * ) SI_UNIT ( $, .STERADIAN. ) SOLID_ANGLE_UNIT ( ) );
#178 = EDGE_CURVE ( 'NONE', #248, #214, #136, .T. ) ;
#179 = VECTOR ( 'NONE', #239, 39.37007874015748143 ) ;
#180 = DIRECTION ( 'NONE',  ( -8.906522175617116587E-17, 1.000000000000000000, -0.000000000000000000 ) ) ;
#181 = PRESENTATION_LAYER_ASSIGNMENT (  '', '', ( #3 ) ) ;
#182 = VECTOR ( 'NONE', #237, 39.37007874015748143 ) ;
#183 = CARTESIAN_POINT ( 'NONE',  ( 0.000000000000000000, 3.250000000000000000, 0.000000000000000000 ) ) ;
#184 = ORIENTED_EDGE ( 'NONE', *, *, #178, .T. ) ;
#185 = ORIENTED_EDGE ( 'NONE', *, *, #159, .T. ) ;
#186 = LINE ( 'NONE', #294, #254 ) ;
#187 =( LENGTH_UNIT ( ) NAMED_UNIT ( * ) SI_UNIT ( $, .METRE. ) );
#188 = PRESENTATION_STYLE_ASSIGNMENT (( #134 ) ) ;
#189 = CARTESIAN_POINT ( 'NONE',  ( 0.000000000000000000, 0.000000000000000000, 0.000000000000000000 ) ) ;
#190 = FACE_OUTER_BOUND ( 'NONE', #157, .T. ) ;
#191 = FACE_OUTER_BOUND ( 'NONE', #32, .T. ) ;
#192 = SURFACE_STYLE_FILL_AREA ( #17 ) ;
#193 = FACE_OUTER_BOUND ( 'NONE', #251, .T. ) ;
#194 = DIMENSIONAL_EXPONENTS ( 1.000000000000000000, 0.000000000000000000, 0.000000000000000000, 0.000000000000000000, 0.000000000000000000, 0.000000000000000000, 0.000000000000000000 ) ;
#195 = PRODUCT_DEFINITION ( 'UNKNOWN', '', #101, #89 ) ;
#196 = PLANE ( 'NONE',  #74 ) ;
#197 = PRESENTATION_LAYER_ASSIGNMENT (  '', '', ( #231 ) ) ;
#198 = DIRECTION ( 'NONE',  ( 0.000000000000000000, 0.000000000000000000, -1.000000000000000000 ) ) ;
#199 = CIRCLE ( 'NONE', #259, 0.3750000000000000555 ) ;
#200 = CARTESIAN_POINT ( 'NONE',  ( 0.3749999999999998890, 6.000000000000000888, 4.592425496802576684E-17 ) ) ;
#201 = LINE ( 'NONE', #200, #168 ) ;
#202 = ORIENTED_EDGE ( 'NONE', *, *, #174, .F. ) ;
#203 =( CONVERSION_BASED_UNIT ( 'INCH', #226 ) LENGTH_UNIT ( ) NAMED_UNIT ( #258 ) );
#204 = CARTESIAN_POINT ( 'NONE',  ( 0.000000000000000000, 0.000000000000000000, 0.000000000000000000 ) ) ;
#205 = PRESENTATION_LAYER_ASSIGNMENT (  '', '', ( #25 ) ) ;
#206 = ORIENTED_EDGE ( 'NONE', *, *, #106, .T. ) ;
#207 = EDGE_CURVE ( 'NONE', #248, #112, #201, .T. ) ;
#208 = PRESENTATION_LAYER_ASSIGNMENT (  '', '', ( #29 ) ) ;
#209 = SURFACE_SIDE_STYLE ('',( #111 ) ) ;
#210 = CIRCLE ( 'NONE', #14, 0.3750000000000002776 ) ;
#211 = LINE ( 'NONE', #300, #182 ) ;
#212 = SURFACE_SIDE_STYLE ('',( #192 ) ) ;
#213 = ORIENTED_EDGE ( 'NONE', *, *, #178, .F. ) ;
#214 = VERTEX_POINT ( 'NONE', #230 ) ;
#215 = COLOUR_RGB ( '',1.000000000000000000, 0.000000000000000000, 0.000000000000000000 ) ;
#216 = UNCERTAINTY_MEASURE_WITH_UNIT (LENGTH_MEASURE( 1.000000000000000082E-05 ), #166, 'distance_accuracy_value', 'NONE');
#217 = AXIS2_PLACEMENT_3D ( 'NONE', #116, #90, #250 ) ;
#218 = DIMENSIONAL_EXPONENTS ( 1.000000000000000000, 0.000000000000000000, 0.000000000000000000, 0.000000000000000000, 0.000000000000000000, 0.000000000000000000, 0.000000000000000000 ) ;
#219 = DIRECTION ( 'NONE',  ( -1.000000000000000000, -8.906522175617116587E-17, 0.000000000000000000 ) ) ;
#220 = ADVANCED_FACE ( 'NONE', ( #129 ), #154, .T. ) ;
#221 =( NAMED_UNIT ( * ) SI_UNIT ( $, .STERADIAN. ) SOLID_ANGLE_UNIT ( ) );
#222 = CARTESIAN_POINT ( 'NONE',  ( 4.592425496802575451E-17, 3.250000000000000000, 0.3750000000000000555 ) ) ;
#223 = ORIENTED_EDGE ( 'NONE', *, *, #143, .F. ) ;
#224 =( GEOMETRIC_REPRESENTATION_CONTEXT ( 3 ) GLOBAL_UNCERTAINTY_ASSIGNED_CONTEXT ( ( #22 ) ) GLOBAL_UNIT_ASSIGNED_CONTEXT ( ( #11, #289, #177 ) ) REPRESENTATION_CONTEXT ( 'NONE', 'WORKASPACE' ) );
#225 = SURFACE_SIDE_STYLE ('',( #57 ) ) ;
#226 = LENGTH_MEASURE_WITH_UNIT ( LENGTH_MEASURE( 0.02539999999999999897 ), #105 );
#227 = ORIENTED_EDGE ( 'NONE', *, *, #207, .T. ) ;
#228 = CARTESIAN_POINT ( 'NONE',  ( 4.592425496802575451E-17, 0.000000000000000000, 0.3750000000000000555 ) ) ;
#229 = ORIENTED_EDGE ( 'NONE', *, *, #159, .F. ) ;
#230 = CARTESIAN_POINT ( 'NONE',  ( -0.3750000000000000555, 3.250000000000000000, 0.000000000000000000 ) ) ;
#231 = STYLED_ITEM ( 'NONE', ( #119 ), #99 ) ;
#232 = EDGE_LOOP ( 'NONE', ( #223, #213 ) ) ;
#233 = FILL_AREA_STYLE ('',( #35 ) ) ;
#234 = LENGTH_MEASURE_WITH_UNIT ( LENGTH_MEASURE( 0.02539999999999999897 ), #187 );
#235 = EDGE_CURVE ( 'NONE', #214, #79, #186, .T. ) ;
#236 = MECHANICAL_DESIGN_GEOMETRIC_PRESENTATION_REPRESENTATION (  '', ( #34 ), #47 ) ;
#237 = DIRECTION ( 'NONE',  ( -0.000000000000000000, -1.000000000000000000, -0.000000000000000000 ) ) ;
#238 = EDGE_LOOP ( 'NONE', ( #202, #107 ) ) ;
#239 = DIRECTION ( 'NONE',  ( -0.000000000000000000, -1.000000000000000000, -0.000000000000000000 ) ) ;
#240 =( NAMED_UNIT ( * ) SI_UNIT ( $, .STERADIAN. ) SOLID_ANGLE_UNIT ( ) );
#241 = SURFACE_SIDE_STYLE ('',( #144 ) ) ;
#242 = PRESENTATION_STYLE_ASSIGNMENT (( #285 ) ) ;
#243 = DIRECTION ( 'NONE',  ( -8.906522175617116587E-17, 1.000000000000000000, -0.000000000000000000 ) ) ;
#244 = DIRECTION ( 'NONE',  ( -1.000000000000000000, 0.000000000000000000, 0.000000000000000000 ) ) ;
#245 = FILL_AREA_STYLE ('',( #75 ) ) ;
#246 = COLOUR_RGB ( '',1.000000000000000000, 0.000000000000000000, 0.000000000000000000 ) ;
#247 = DIRECTION ( 'NONE',  ( -1.000000000000000000, 0.000000000000000000, 0.000000000000000000 ) ) ;
#248 = VERTEX_POINT ( 'NONE', #158 ) ;
#249 = EDGE_CURVE ( 'NONE', #113, #115, #307, .T. ) ;
#250 = DIRECTION ( 'NONE',  ( 1.000000000000000000, 8.906522175617116587E-17, 0.000000000000000000 ) ) ;
#251 = EDGE_LOOP ( 'NONE', ( #290, #184, #28, #229 ) ) ;
#252 =( LENGTH_UNIT ( ) NAMED_UNIT ( * ) SI_UNIT ( $, .METRE. ) );
#253 = CARTESIAN_POINT ( 'NONE',  ( 0.000000000000000000, 0.000000000000000000, -0.3750000000000000555 ) ) ;
#254 = VECTOR ( 'NONE', #41, 39.37007874015748143 ) ;
#255 = CARTESIAN_POINT ( 'NONE',  ( 0.000000000000000000, 3.250000000000000000, 0.000000000000000000 ) ) ;
#256 = PRESENTATION_STYLE_ASSIGNMENT (( #60 ) ) ;
#257 = UNCERTAINTY_MEASURE_WITH_UNIT (LENGTH_MEASURE( 1.000000000000000082E-05 ), #301, 'distance_accuracy_value', 'NONE');
#258 = DIMENSIONAL_EXPONENTS ( 1.000000000000000000, 0.000000000000000000, 0.000000000000000000, 0.000000000000000000, 0.000000000000000000, 0.000000000000000000, 0.000000000000000000 ) ;
#259 = AXIS2_PLACEMENT_3D ( 'NONE', #204, #125, #176 ) ;
#260 = DIRECTION ( 'NONE',  ( -1.000000000000000000, 0.000000000000000000, 0.000000000000000000 ) ) ;
#261 = PRESENTATION_STYLE_ASSIGNMENT (( #4 ) ) ;
#262 = CYLINDRICAL_SURFACE ( 'NONE', #164, 0.3750000000000001665 ) ;
#263 = CARTESIAN_POINT ( 'NONE',  ( -2.449293598294707400E-16, 6.000000000000000888, 0.000000000000000000 ) ) ;
#264 = UNCERTAINTY_MEASURE_WITH_UNIT (LENGTH_MEASURE( 1.000000000000000082E-05 ), #36, 'distance_accuracy_value', 'NONE');
#265 = CARTESIAN_POINT ( 'NONE',  ( -3.032960542342103792E-32, 3.250000000000000000, 0.000000000000000000 ) ) ;
#266 = DIRECTION ( 'NONE',  ( 0.000000000000000000, 1.000000000000000000, 0.000000000000000000 ) ) ;
#267 = MECHANICAL_DESIGN_GEOMETRIC_PRESENTATION_REPRESENTATION (  '', ( #29 ), #53 ) ;
#268 = ORIENTED_EDGE ( 'NONE', *, *, #51, .T. ) ;
#269 = MANIFOLD_SOLID_BREP ( 'Revolve - Tool Body (Straight Shanked)', #45 ) ;
#270 = DIRECTION ( 'NONE',  ( -8.906522175617116587E-17, 1.000000000000000000, -0.000000000000000000 ) ) ;
#271 = ORIENTED_EDGE ( 'NONE', *, *, #174, .T. ) ;
#272 = COLOUR_RGB ( '',1.000000000000000000, 0.000000000000000000, 0.000000000000000000 ) ;
#273 =( NAMED_UNIT ( * ) PLANE_ANGLE_UNIT ( ) SI_UNIT ( $, .RADIAN. ) );
#274 = ORIENTED_EDGE ( 'NONE', *, *, #66, .T. ) ;
#275 = FILL_AREA_STYLE_COLOUR ( '', #135 ) ;
#276 = DIRECTION ( 'NONE',  ( -0.000000000000000000, -1.000000000000000000, -0.000000000000000000 ) ) ;
#277 = EDGE_LOOP ( 'NONE', ( #131, #13, #302, #133 ) ) ;
#278 = EDGE_CURVE ( 'NONE', #115, #58, #211, .T. ) ;
#279 = DIRECTION ( 'NONE',  ( 0.000000000000000000, 0.000000000000000000, 1.000000000000000000 ) ) ;
#280 = APPLICATION_PROTOCOL_DEFINITION ( 'draft international standard', 'automotive_design', 1998, #146 ) ;
#281 = ADVANCED_FACE ( 'NONE', ( #190 ), #16, .F. ) ;
#282 = LENGTH_MEASURE_WITH_UNIT ( LENGTH_MEASURE( 0.02539999999999999897 ), #63 );
#283 = AXIS2_PLACEMENT_3D ( 'NONE', #189, #160, #163 ) ;
#284 = LENGTH_MEASURE_WITH_UNIT ( LENGTH_MEASURE( 0.02539999999999999897 ), #170 );
#285 = SURFACE_STYLE_USAGE ( .BOTH. , #69 ) ;
#286 = LENGTH_MEASURE_WITH_UNIT ( LENGTH_MEASURE( 0.02539999999999999897 ), #309 );
#287 = LENGTH_MEASURE_WITH_UNIT ( LENGTH_MEASURE( 0.02539999999999999897 ), #171 );
#288 =( GEOMETRIC_REPRESENTATION_CONTEXT ( 3 ) GLOBAL_UNCERTAINTY_ASSIGNED_CONTEXT ( ( #140 ) ) GLOBAL_UNIT_ASSIGNED_CONTEXT ( ( #72, #123, #221 ) ) REPRESENTATION_CONTEXT ( 'NONE', 'WORKASPACE' ) );
#289 =( NAMED_UNIT ( * ) PLANE_ANGLE_UNIT ( ) SI_UNIT ( $, .RADIAN. ) );
#290 = ORIENTED_EDGE ( 'NONE', *, *, #207, .F. ) ;
#291 = DIRECTION ( 'NONE',  ( -8.906522175617116587E-17, 1.000000000000000000, -0.000000000000000000 ) ) ;
#292 = COLOUR_RGB ( '',0.7921568627450980005, 0.8196078431372548767, 0.9333333333333333481 ) ;
#293 =( NAMED_UNIT ( * ) PLANE_ANGLE_UNIT ( ) SI_UNIT ( $, .RADIAN. ) );
#294 = CARTESIAN_POINT ( 'NONE',  ( -0.3750000000000004441, 6.000000000000000888, 0.000000000000000000 ) ) ;
#295 =( NAMED_UNIT ( * ) SI_UNIT ( $, .STERADIAN. ) SOLID_ANGLE_UNIT ( ) );
#296 = EDGE_LOOP ( 'NONE', ( #81, #227, #161, #93 ) ) ;
#297 =( NAMED_UNIT ( * ) PLANE_ANGLE_UNIT ( ) SI_UNIT ( $, .RADIAN. ) );
#298 = AXIS2_PLACEMENT_3D ( 'NONE', #109, #270, #102 ) ;
#299 = ORIENTED_EDGE ( 'NONE', *, *, #278, .F. ) ;
#300 = CARTESIAN_POINT ( 'NONE',  ( 0.000000000000000000, 0.000000000000000000, -0.3750000000000000555 ) ) ;
#301 =( CONVERSION_BASED_UNIT ( 'INCH', #234 ) LENGTH_UNIT ( ) NAMED_UNIT ( #304 ) );
#302 = ORIENTED_EDGE ( 'NONE', *, *, #278, .T. ) ;
#303 = ADVANCED_FACE ( 'NONE', ( #193 ), #262, .T. ) ;
#304 = DIMENSIONAL_EXPONENTS ( 1.000000000000000000, 0.000000000000000000, 0.000000000000000000, 0.000000000000000000, 0.000000000000000000, 0.000000000000000000, 0.000000000000000000 ) ;
#305 = CARTESIAN_POINT ( 'NONE',  ( 0.000000000000000000, 0.000000000000000000, 0.000000000000000000 ) ) ;
#306 = FILL_AREA_STYLE ('',( #139 ) ) ;
#307 = CIRCLE ( 'NONE', #122, 0.3750000000000000555 ) ;
#308 =( CONVERSION_BASED_UNIT ( 'INCH', #284 ) LENGTH_UNIT ( ) NAMED_UNIT ( #218 ) );
#309 =( LENGTH_UNIT ( ) NAMED_UNIT ( * ) SI_UNIT ( $, .METRE. ) );
ENDSEC;
END-ISO-10303-21;
