ISO-10303-21;
HEADER;
FILE_DESCRIPTION (( 'STEP AP214' ),
    '1' );
FILE_NAME ('Micro_SEM-375-02.STEP',
    '2021-09-02T03:02:31',
    ( '' ),
    ( '' ),
    'SwSTEP 2.0',
    'SolidWorks 2020',
    '' );
FILE_SCHEMA (( 'AUTOMOTIVE_DESIGN' ));
ENDSEC;

DATA;
#1 = DIRECTION ( 'NONE',  ( 1.000000000000000000, 0.0000000000000000000, 0.0000000000000000000 ) ) ;
#2 = AXIS2_PLACEMENT_3D ( 'NONE', #185, #159, #189 ) ;
#3 = DIRECTION ( 'NONE',  ( -0.0000000000000000000, -0.0000000000000000000, -1.000000000000000000 ) ) ;
#4 = ADVANCED_FACE ( 'NONE', ( #240 ), #17, .T. ) ;
#5 = PLANE ( 'NONE',  #19 ) ;
#6 =( NAMED_UNIT ( * ) PLANE_ANGLE_UNIT ( ) SI_UNIT ( $, .RADIAN. ) );
#7 = DIRECTION ( 'NONE',  ( 0.0000000000000000000, 0.0000000000000000000, -1.000000000000000000 ) ) ;
#8 = DIRECTION ( 'NONE',  ( 1.000000000000000000, 0.0000000000000000000, 0.0000000000000000000 ) ) ;
#9 = DIRECTION ( 'NONE',  ( -1.000000000000000000, 0.0000000000000000000, 0.0000000000000000000 ) ) ;
#10 = CYLINDRICAL_SURFACE ( 'NONE', #253, 0.1875000000000000278 ) ;
#11 = CARTESIAN_POINT ( 'NONE',  ( -0.1725000000000001532, 0.0000000000000000000, 2.000000000000000000 ) ) ;
#12 = CIRCLE ( 'NONE', #176, 0.1725000000000001532 ) ;
#13 = FILL_AREA_STYLE_COLOUR ( '', #204 ) ;
#14 = ORIENTED_EDGE ( 'NONE', *, *, #163, .T. ) ;
#15 =( NAMED_UNIT ( * ) PLANE_ANGLE_UNIT ( ) SI_UNIT ( $, .RADIAN. ) );
#16 = VERTEX_POINT ( 'NONE', #267 ) ;
#17 = CYLINDRICAL_SURFACE ( 'NONE', #131, 0.1873124999999999929 ) ;
#18 = ORIENTED_EDGE ( 'NONE', *, *, #166, .F. ) ;
#19 = AXIS2_PLACEMENT_3D ( 'NONE', #235, #162, #277 ) ;
#20 = ADVANCED_FACE ( 'NONE', ( #31 ), #33, .T. ) ;
#21 = ORIENTED_EDGE ( 'NONE', *, *, #193, .T. ) ;
#22 = CIRCLE ( 'NONE', #293, 0.1875000000000000278 ) ;
#23 = CARTESIAN_POINT ( 'NONE',  ( -0.1725000000000001532, 0.0000000000000000000, 2.000000000000000000 ) ) ;
#24 = VERTEX_POINT ( 'NONE', #11 ) ;
#25 = DIRECTION ( 'NONE',  ( -0.1736481776669311916, 2.126576849575783316E-17, 0.9848077530122080203 ) ) ;
#26 = AXIS2_PLACEMENT_3D ( 'NONE', #196, #63, #165 ) ;
#27 = CARTESIAN_POINT ( 'NONE',  ( 0.1873125000000000484, 0.0000000000000000000, 0.6250000000000000000 ) ) ;
#28 = DIRECTION ( 'NONE',  ( 0.0000000000000000000, 0.0000000000000000000, -1.000000000000000000 ) ) ;
#29 = ADVANCED_FACE ( 'NONE', ( #222 ), #10, .T. ) ;
#30 = DIRECTION ( 'NONE',  ( -0.0000000000000000000, -0.0000000000000000000, -1.000000000000000000 ) ) ;
#31 = FACE_OUTER_BOUND ( 'NONE', #126, .T. ) ;
#32 = ADVANCED_FACE ( 'NONE', ( #264 ), #93, .T. ) ;
#33 = CONICAL_SURFACE ( 'NONE', #228, 0.1873124999999999929, 0.1745329251994338915 ) ;
#34 = CARTESIAN_POINT ( 'NONE',  ( -0.1873124999999999929, 0.0000000000000000000, 2.293916535652885596E-17 ) ) ;
#35 = PRODUCT_DEFINITION_CONTEXT ( 'detailed design', #38, 'design' ) ;
#36 = SURFACE_STYLE_FILL_AREA ( #265 ) ;
#37 = CARTESIAN_POINT ( 'NONE',  ( 0.0000000000000000000, 0.0000000000000000000, 0.0000000000000000000 ) ) ;
#38 = APPLICATION_CONTEXT ( 'automotive_design' ) ;
#39 = ADVANCED_FACE ( 'NONE', ( #56 ), #116, .T. ) ;
#40 = FILL_AREA_STYLE_COLOUR ( '', #241 ) ;
#41 = DIRECTION ( 'NONE',  ( -1.000000000000000000, 0.0000000000000000000, 0.0000000000000000000 ) ) ;
#42 = PRESENTATION_LAYER_ASSIGNMENT (  '', '', ( #229 ) ) ;
#43 = ORIENTED_EDGE ( 'NONE', *, *, #166, .T. ) ;
#44 = DIMENSIONAL_EXPONENTS ( 1.000000000000000000, 0.0000000000000000000, 0.0000000000000000000, 0.0000000000000000000, 0.0000000000000000000, 0.0000000000000000000, 0.0000000000000000000 ) ;
#45 = UNCERTAINTY_MEASURE_WITH_UNIT (LENGTH_MEASURE( 1.000000000000000082E-05 ), #80, 'distance_accuracy_value', 'NONE');
#46 = CARTESIAN_POINT ( 'NONE',  ( 0.1725000000000001532, 2.204364238465236130E-17, 2.000000000000000000 ) ) ;
#47 = VERTEX_POINT ( 'NONE', #215 ) ;
#48 = CARTESIAN_POINT ( 'NONE',  ( 0.1873124999999999929, 2.293916535652885596E-17, 0.0000000000000000000 ) ) ;
#49 = EDGE_CURVE ( 'NONE', #206, #167, #22, .T. ) ;
#50 = DIRECTION ( 'NONE',  ( 1.000000000000000000, 0.0000000000000000000, 0.0000000000000000000 ) ) ;
#51 = CIRCLE ( 'NONE', #232, 0.1873124999999999929 ) ;
#52 = EDGE_LOOP ( 'NONE', ( #272, #197, #77, #205 ) ) ;
#53 = DIRECTION ( 'NONE',  ( 1.000000000000000000, 0.0000000000000000000, 0.0000000000000000000 ) ) ;
#54 = CARTESIAN_POINT ( 'NONE',  ( -0.1873124999999999929, 0.0000000000000000000, 4.587833071305771192E-17 ) ) ;
#55 = ADVANCED_BREP_SHAPE_REPRESENTATION ( 'Micro_SEM-375-02', ( #99, #281 ), #86 ) ;
#56 = FACE_OUTER_BOUND ( 'NONE', #285, .T. ) ;
#57 = CIRCLE ( 'NONE', #26, 0.1873124999999999929 ) ;
#58 =( NAMED_UNIT ( * ) PLANE_ANGLE_UNIT ( ) SI_UNIT ( $, .RADIAN. ) );
#59 = ORIENTED_EDGE ( 'NONE', *, *, #297, .F. ) ;
#60 = LINE ( 'NONE', #288, #152 ) ;
#61 = DIRECTION ( 'NONE',  ( -1.000000000000000000, 0.0000000000000000000, 1.224646799147352961E-16 ) ) ;
#62 = SURFACE_STYLE_FILL_AREA ( #226 ) ;
#63 = DIRECTION ( 'NONE',  ( -1.224646799147353207E-16, -0.0000000000000000000, -1.000000000000000000 ) ) ;
#64 = EDGE_LOOP ( 'NONE', ( #250, #266, #69, #248 ) ) ;
#65 = AXIS2_PLACEMENT_3D ( 'NONE', #211, #260, #164 ) ;
#66 = DIRECTION ( 'NONE',  ( 0.0000000000000000000, 0.0000000000000000000, 1.000000000000000000 ) ) ;
#67 = SURFACE_STYLE_USAGE ( .BOTH. , #292 ) ;
#68 = AXIS2_PLACEMENT_3D ( 'NONE', #279, #90, #1 ) ;
#69 = ORIENTED_EDGE ( 'NONE', *, *, #149, .F. ) ;
#70 =( GEOMETRIC_REPRESENTATION_CONTEXT ( 3 ) GLOBAL_UNCERTAINTY_ASSIGNED_CONTEXT ( ( #158 ) ) GLOBAL_UNIT_ASSIGNED_CONTEXT ( ( #160, #6, #82 ) ) REPRESENTATION_CONTEXT ( 'NONE', 'WORKASPACE' ) );
#71 = DIRECTION ( 'NONE',  ( 1.224646799147353207E-16, 0.0000000000000000000, 1.000000000000000000 ) ) ;
#72 = DIRECTION ( 'NONE',  ( -1.224646799147353207E-16, -0.0000000000000000000, -1.000000000000000000 ) ) ;
#73 = DIRECTION ( 'NONE',  ( -0.7071067811865386910, 0.0000000000000000000, -0.7071067811865563435 ) ) ;
#74 = FACE_OUTER_BOUND ( 'NONE', #52, .T. ) ;
#75 = DIRECTION ( 'NONE',  ( -1.000000000000000000, 0.0000000000000000000, 0.0000000000000000000 ) ) ;
#76 = CARTESIAN_POINT ( 'NONE',  ( 7.654042494670957853E-17, 0.0000000000000000000, 0.6250000000000000000 ) ) ;
#77 = ORIENTED_EDGE ( 'NONE', *, *, #105, .T. ) ;
#78 = AXIS2_PLACEMENT_3D ( 'NONE', #137, #3, #282 ) ;
#79 = DIRECTION ( 'NONE',  ( -0.0000000000000000000, -0.0000000000000000000, -1.000000000000000000 ) ) ;
#80 =( CONVERSION_BASED_UNIT ( 'INCH', #245 ) LENGTH_UNIT ( ) NAMED_UNIT ( #129 ) );
#81 = EDGE_LOOP ( 'NONE', ( #18, #123, #83, #136 ) ) ;
#82 =( NAMED_UNIT ( * ) SI_UNIT ( $, .STERADIAN. ) SOLID_ANGLE_UNIT ( ) );
#83 = ORIENTED_EDGE ( 'NONE', *, *, #97, .T. ) ;
#84 = PRODUCT_DEFINITION_SHAPE ( 'NONE', 'NONE',  #247 ) ;
#85 = ORIENTED_EDGE ( 'NONE', *, *, #297, .T. ) ;
#86 =( GEOMETRIC_REPRESENTATION_CONTEXT ( 3 ) GLOBAL_UNCERTAINTY_ASSIGNED_CONTEXT ( ( #274 ) ) GLOBAL_UNIT_ASSIGNED_CONTEXT ( ( #146, #15, #170 ) ) REPRESENTATION_CONTEXT ( 'NONE', 'WORKASPACE' ) );
#87 = DIRECTION ( 'NONE',  ( 1.000000000000000000, 0.0000000000000000000, 0.0000000000000000000 ) ) ;
#88 = CARTESIAN_POINT ( 'NONE',  ( 0.1873124999999999929, 2.293916535652885596E-17, -2.293916535652885596E-17 ) ) ;
#89 = LINE ( 'NONE', #254, #262 ) ;
#90 = DIRECTION ( 'NONE',  ( 0.0000000000000000000, 0.0000000000000000000, 1.000000000000000000 ) ) ;
#91 = FACE_OUTER_BOUND ( 'NONE', #210, .T. ) ;
#92 = LINE ( 'NONE', #216, #198 ) ;
#93 = CYLINDRICAL_SURFACE ( 'NONE', #147, 0.1873124999999999929 ) ;
#94 = DIRECTION ( 'NONE',  ( 1.000000000000000000, 0.0000000000000000000, 0.0000000000000000000 ) ) ;
#95 = DIRECTION ( 'NONE',  ( 1.224646799147353207E-16, 0.0000000000000000000, 1.000000000000000000 ) ) ;
#96 = PRESENTATION_STYLE_ASSIGNMENT (( #143 ) ) ;
#97 = EDGE_CURVE ( 'NONE', #16, #157, #183, .T. ) ;
#98 = DIRECTION ( 'NONE',  ( -1.000000000000000000, 0.0000000000000000000, 0.0000000000000000000 ) ) ;
#99 = MANIFOLD_SOLID_BREP ( 'Cut-Revolve1', #150 ) ;
#100 = ORIENTED_EDGE ( 'NONE', *, *, #296, .T. ) ;
#101 = EDGE_CURVE ( 'NONE', #167, #47, #92, .T. ) ;
#102 = EDGE_LOOP ( 'NONE', ( #59, #298, #202, #225 ) ) ;
#103 =( GEOMETRIC_REPRESENTATION_CONTEXT ( 3 ) GLOBAL_UNCERTAINTY_ASSIGNED_CONTEXT ( ( #45 ) ) GLOBAL_UNIT_ASSIGNED_CONTEXT ( ( #80, #58, #117 ) ) REPRESENTATION_CONTEXT ( 'NONE', 'WORKASPACE' ) );
#104 = ORIENTED_EDGE ( 'NONE', *, *, #209, .F. ) ;
#105 = EDGE_CURVE ( 'NONE', #24, #206, #156, .T. ) ;
#106 = CARTESIAN_POINT ( 'NONE',  ( 0.0000000000000000000, 0.0000000000000000000, 2.000000000000000000 ) ) ;
#107 = CONICAL_SURFACE ( 'NONE', #287, 0.1725000000000001532, 0.7853981633974357335 ) ;
#108 = CARTESIAN_POINT ( 'NONE',  ( -0.1874999999999999445, 0.0000000000000000000, 0.6260633653411784572 ) ) ;
#109 = LINE ( 'NONE', #88, #242 ) ;
#110 = DIRECTION ( 'NONE',  ( -0.0000000000000000000, -0.0000000000000000000, -1.000000000000000000 ) ) ;
#111 = VERTEX_POINT ( 'NONE', #108 ) ;
#112 = FACE_OUTER_BOUND ( 'NONE', #64, .T. ) ;
#113 = CIRCLE ( 'NONE', #142, 0.1875000000000000278 ) ;
#114 = DIRECTION ( 'NONE',  ( -1.224646799147353207E-16, -0.0000000000000000000, -1.000000000000000000 ) ) ;
#115 = LENGTH_MEASURE_WITH_UNIT ( LENGTH_MEASURE( 0.02539999999999999897 ), #122 );
#116 = PLANE ( 'NONE',  #140 ) ;
#117 =( NAMED_UNIT ( * ) SI_UNIT ( $, .STERADIAN. ) SOLID_ANGLE_UNIT ( ) );
#118 = DIRECTION ( 'NONE',  ( 1.000000000000000000, 0.0000000000000000000, 0.0000000000000000000 ) ) ;
#119 = DIRECTION ( 'NONE',  ( 1.000000000000000000, 0.0000000000000000000, 0.0000000000000000000 ) ) ;
#120 = ORIENTED_EDGE ( 'NONE', *, *, #97, .F. ) ;
#121 = MECHANICAL_DESIGN_GEOMETRIC_PRESENTATION_REPRESENTATION (  '', ( #257 ), #103 ) ;
#122 =( LENGTH_UNIT ( ) NAMED_UNIT ( * ) SI_UNIT ( $, .METRE. ) );
#123 = ORIENTED_EDGE ( 'NONE', *, *, #280, .T. ) ;
#124 = DIRECTION ( 'NONE',  ( 0.1736481776669313859, 0.0000000000000000000, 0.9848077530122077983 ) ) ;
#125 = CIRCLE ( 'NONE', #127, 0.1873124999999999929 ) ;
#126 = EDGE_LOOP ( 'NONE', ( #178, #169, #203, #172 ) ) ;
#127 = AXIS2_PLACEMENT_3D ( 'NONE', #237, #72, #256 ) ;
#128 = CARTESIAN_POINT ( 'NONE',  ( -0.1875000000000000278, 0.0000000000000000000, 1.984999999999999654 ) ) ;
#129 = DIMENSIONAL_EXPONENTS ( 1.000000000000000000, 0.0000000000000000000, 0.0000000000000000000, 0.0000000000000000000, 0.0000000000000000000, 0.0000000000000000000, 0.0000000000000000000 ) ;
#130 = LINE ( 'NONE', #238, #270 ) ;
#131 = AXIS2_PLACEMENT_3D ( 'NONE', #37, #199, #61 ) ;
#132 = VECTOR ( 'NONE', #73, 39.37007874015748143 ) ;
#133 = CARTESIAN_POINT ( 'NONE',  ( 7.667064964284941550E-17, 0.0000000000000000000, 0.6260633653411784572 ) ) ;
#134 = EDGE_CURVE ( 'NONE', #167, #206, #276, .T. ) ;
#135 = CARTESIAN_POINT ( 'NONE',  ( 0.1875000000000000278, 2.296212748401287726E-17, 1.984999999999999654 ) ) ;
#136 = ORIENTED_EDGE ( 'NONE', *, *, #234, .F. ) ;
#137 = CARTESIAN_POINT ( 'NONE',  ( 0.0000000000000000000, 0.0000000000000000000, 2.000000000000000000 ) ) ;
#138 = ORIENTED_EDGE ( 'NONE', *, *, #101, .F. ) ;
#139 = APPLICATION_PROTOCOL_DEFINITION ( 'draft international standard', 'automotive_design', 1998, #38 ) ;
#140 = AXIS2_PLACEMENT_3D ( 'NONE', #195, #219, #286 ) ;
#141 = CARTESIAN_POINT ( 'NONE',  ( 0.0000000000000000000, 0.0000000000000000000, 2.000000000000000000 ) ) ;
#142 = AXIS2_PLACEMENT_3D ( 'NONE', #133, #180, #50 ) ;
#143 = SURFACE_STYLE_USAGE ( .BOTH. , #145 ) ;
#144 = CARTESIAN_POINT ( 'NONE',  ( 0.0000000000000000000, 0.0000000000000000000, 0.0000000000000000000 ) ) ;
#145 = SURFACE_SIDE_STYLE ('',( #36 ) ) ;
#146 =( CONVERSION_BASED_UNIT ( 'INCH', #115 ) LENGTH_UNIT ( ) NAMED_UNIT ( #44 ) );
#147 = AXIS2_PLACEMENT_3D ( 'NONE', #144, #200, #171 ) ;
#148 = PRODUCT_DEFINITION_FORMATION_WITH_SPECIFIED_SOURCE ( 'ANY', '', #289, .NOT_KNOWN. ) ;
#149 = EDGE_CURVE ( 'NONE', #111, #47, #294, .T. ) ;
#150 = CLOSED_SHELL ( 'NONE', ( #4, #179, #220, #259, #29, #39, #273, #20, #32, #190 ) ) ;
#151 = ORIENTED_EDGE ( 'NONE', *, *, #283, .F. ) ;
#152 = VECTOR ( 'NONE', #124, 39.37007874015748143 ) ;
#153 = VERTEX_POINT ( 'NONE', #27 ) ;
#154 = EDGE_CURVE ( 'NONE', #47, #111, #113, .T. ) ;
#155 = AXIS2_PLACEMENT_3D ( 'NONE', #258, #255, #53 ) ;
#156 = LINE ( 'NONE', #23, #132 ) ;
#157 = VERTEX_POINT ( 'NONE', #54 ) ;
#158 = UNCERTAINTY_MEASURE_WITH_UNIT (LENGTH_MEASURE( 1.000000000000000082E-05 ), #160, 'distance_accuracy_value', 'NONE');
#159 = DIRECTION ( 'NONE',  ( -1.224646799147353207E-16, -0.0000000000000000000, -1.000000000000000000 ) ) ;
#160 =( CONVERSION_BASED_UNIT ( 'INCH', #207 ) LENGTH_UNIT ( ) NAMED_UNIT ( #182 ) );
#161 = DIRECTION ( 'NONE',  ( -1.224646799147353207E-16, -0.0000000000000000000, -1.000000000000000000 ) ) ;
#162 = DIRECTION ( 'NONE',  ( 0.0000000000000000000, 0.0000000000000000000, 1.000000000000000000 ) ) ;
#163 = EDGE_CURVE ( 'NONE', #206, #111, #89, .T. ) ;
#164 = DIRECTION ( 'NONE',  ( 1.000000000000000000, 0.0000000000000000000, 0.0000000000000000000 ) ) ;
#165 = DIRECTION ( 'NONE',  ( -1.000000000000000000, 0.0000000000000000000, 0.0000000000000000000 ) ) ;
#166 = EDGE_CURVE ( 'NONE', #153, #244, #109, .T. ) ;
#167 = VERTEX_POINT ( 'NONE', #135 ) ;
#168 = CIRCLE ( 'NONE', #2, 0.1873124999999999929 ) ;
#169 = ORIENTED_EDGE ( 'NONE', *, *, #280, .F. ) ;
#170 =( NAMED_UNIT ( * ) SI_UNIT ( $, .STERADIAN. ) SOLID_ANGLE_UNIT ( ) );
#171 = DIRECTION ( 'NONE',  ( -1.000000000000000000, 0.0000000000000000000, 1.224646799147352961E-16 ) ) ;
#172 = ORIENTED_EDGE ( 'NONE', *, *, #154, .T. ) ;
#173 = VERTEX_POINT ( 'NONE', #46 ) ;
#174 = ORIENTED_EDGE ( 'NONE', *, *, #149, .T. ) ;
#175 = AXIS2_PLACEMENT_3D ( 'NONE', #214, #71, #8 ) ;
#176 = AXIS2_PLACEMENT_3D ( 'NONE', #221, #224, #119 ) ;
#177 = ORIENTED_EDGE ( 'NONE', *, *, #134, .T. ) ;
#178 = ORIENTED_EDGE ( 'NONE', *, *, #252, .F. ) ;
#179 = ADVANCED_FACE ( 'NONE', ( #275 ), #201, .T. ) ;
#180 = DIRECTION ( 'NONE',  ( -1.224646799147353207E-16, -0.0000000000000000000, -1.000000000000000000 ) ) ;
#181 =( LENGTH_UNIT ( ) NAMED_UNIT ( * ) SI_UNIT ( $, .METRE. ) );
#182 = DIMENSIONAL_EXPONENTS ( 1.000000000000000000, 0.0000000000000000000, 0.0000000000000000000, 0.0000000000000000000, 0.0000000000000000000, 0.0000000000000000000, 0.0000000000000000000 ) ;
#183 = LINE ( 'NONE', #34, #191 ) ;
#184 = CIRCLE ( 'NONE', #68, 0.1725000000000001532 ) ;
#185 = CARTESIAN_POINT ( 'NONE',  ( 2.809237542898491532E-33, 0.0000000000000000000, 2.293916535652885596E-17 ) ) ;
#186 = LINE ( 'NONE', #218, #249 ) ;
#187 = PRODUCT_RELATED_PRODUCT_CATEGORY ( 'part', '', ( #289 ) ) ;
#188 = CARTESIAN_POINT ( 'NONE',  ( 0.0000000000000000000, 0.0000000000000000000, 1.984999999999999654 ) ) ;
#189 = DIRECTION ( 'NONE',  ( -1.000000000000000000, 0.0000000000000000000, 1.224646799147352961E-16 ) ) ;
#190 = ADVANCED_FACE ( 'NONE', ( #91 ), #5, .F. ) ;
#191 = VECTOR ( 'NONE', #114, 39.37007874015748143 ) ;
#192 = DIRECTION ( 'NONE',  ( 0.0000000000000000000, 0.0000000000000000000, -1.000000000000000000 ) ) ;
#193 = EDGE_CURVE ( 'NONE', #24, #173, #184, .T. ) ;
#194 = CARTESIAN_POINT ( 'NONE',  ( 0.0000000000000000000, 0.0000000000000000000, 0.0000000000000000000 ) ) ;
#195 = CARTESIAN_POINT ( 'NONE',  ( 0.0000000000000000000, 0.0000000000000000000, 2.000000000000000000 ) ) ;
#196 = CARTESIAN_POINT ( 'NONE',  ( 7.654042494670957853E-17, 0.0000000000000000000, 0.6250000000000000000 ) ) ;
#197 = ORIENTED_EDGE ( 'NONE', *, *, #193, .F. ) ;
#198 = VECTOR ( 'NONE', #30, 39.37007874015748143 ) ;
#199 = DIRECTION ( 'NONE',  ( -1.224646799147353207E-16, -0.0000000000000000000, -1.000000000000000000 ) ) ;
#200 = DIRECTION ( 'NONE',  ( -1.224646799147353207E-16, -0.0000000000000000000, -1.000000000000000000 ) ) ;
#201 = CONICAL_SURFACE ( 'NONE', #175, 0.1873124999999999929, 0.1745329251994338915 ) ;
#202 = ORIENTED_EDGE ( 'NONE', *, *, #49, .F. ) ;
#203 = ORIENTED_EDGE ( 'NONE', *, *, #283, .T. ) ;
#204 = COLOUR_RGB ( '',0.7921568627450980005, 0.8196078431372548767, 0.9333333333333333481 ) ;
#205 = ORIENTED_EDGE ( 'NONE', *, *, #134, .F. ) ;
#206 = VERTEX_POINT ( 'NONE', #128 ) ;
#207 = LENGTH_MEASURE_WITH_UNIT ( LENGTH_MEASURE( 0.02539999999999999897 ), #181 );
#208 = ORIENTED_EDGE ( 'NONE', *, *, #154, .F. ) ;
#209 = EDGE_CURVE ( 'NONE', #157, #244, #125, .T. ) ;
#210 = EDGE_LOOP ( 'NONE', ( #231, #271 ) ) ;
#211 = CARTESIAN_POINT ( 'NONE',  ( 0.0000000000000000000, 0.0000000000000000000, 1.984999999999999654 ) ) ;
#212 = MECHANICAL_DESIGN_GEOMETRIC_PRESENTATION_REPRESENTATION (  '', ( #229 ), #70 ) ;
#213 = CYLINDRICAL_SURFACE ( 'NONE', #78, 0.1875000000000000278 ) ;
#214 = CARTESIAN_POINT ( 'NONE',  ( 7.654042494670957853E-17, 0.0000000000000000000, 0.6250000000000000000 ) ) ;
#215 = CARTESIAN_POINT ( 'NONE',  ( 0.1875000000000000833, 2.296212748401288650E-17, 0.6260633653411784572 ) ) ;
#216 = CARTESIAN_POINT ( 'NONE',  ( 0.1875000000000000278, 2.296212748401287726E-17, 2.000000000000000000 ) ) ;
#217 = PRESENTATION_LAYER_ASSIGNMENT (  '', '', ( #257 ) ) ;
#218 = CARTESIAN_POINT ( 'NONE',  ( 0.1725000000000001532, 2.112515728529185460E-17, 2.000000000000000000 ) ) ;
#219 = DIRECTION ( 'NONE',  ( 0.0000000000000000000, 0.0000000000000000000, 1.000000000000000000 ) ) ;
#220 = ADVANCED_FACE ( 'NONE', ( #233 ), #269, .T. ) ;
#221 = CARTESIAN_POINT ( 'NONE',  ( 0.0000000000000000000, 0.0000000000000000000, 2.000000000000000000 ) ) ;
#222 = FACE_OUTER_BOUND ( 'NONE', #291, .T. ) ;
#223 =( LENGTH_UNIT ( ) NAMED_UNIT ( * ) SI_UNIT ( $, .METRE. ) );
#224 = DIRECTION ( 'NONE',  ( 0.0000000000000000000, 0.0000000000000000000, 1.000000000000000000 ) ) ;
#225 = ORIENTED_EDGE ( 'NONE', *, *, #105, .F. ) ;
#226 = FILL_AREA_STYLE ('',( #40 ) ) ;
#227 = ORIENTED_EDGE ( 'NONE', *, *, #296, .F. ) ;
#228 = AXIS2_PLACEMENT_3D ( 'NONE', #290, #95, #118 ) ;
#229 = STYLED_ITEM ( 'NONE', ( #299 ), #99 ) ;
#230 = EDGE_LOOP ( 'NONE', ( #100, #43, #104, #120 ) ) ;
#231 = ORIENTED_EDGE ( 'NONE', *, *, #209, .T. ) ;
#232 = AXIS2_PLACEMENT_3D ( 'NONE', #76, #243, #41 ) ;
#233 = FACE_OUTER_BOUND ( 'NONE', #102, .T. ) ;
#234 = EDGE_CURVE ( 'NONE', #244, #157, #168, .T. ) ;
#235 = CARTESIAN_POINT ( 'NONE',  ( 0.0000000000000000000, 0.0000000000000000000, 0.0000000000000000000 ) ) ;
#236 = AXIS2_PLACEMENT_3D ( 'NONE', #106, #192, #75 ) ;
#237 = CARTESIAN_POINT ( 'NONE',  ( 2.809237542898491532E-33, 0.0000000000000000000, 2.293916535652885596E-17 ) ) ;
#238 = CARTESIAN_POINT ( 'NONE',  ( -0.1873124999999999096, 2.293916535652885596E-17, 0.6250000000000000000 ) ) ;
#239 = CARTESIAN_POINT ( 'NONE',  ( 0.0000000000000000000, 0.0000000000000000000, 2.000000000000000000 ) ) ;
#240 = FACE_OUTER_BOUND ( 'NONE', #230, .T. ) ;
#241 = COLOUR_RGB ( '',0.7921568627450980005, 0.8196078431372548767, 0.9333333333333333481 ) ;
#242 = VECTOR ( 'NONE', #161, 39.37007874015748143 ) ;
#243 = DIRECTION ( 'NONE',  ( -1.224646799147353207E-16, -0.0000000000000000000, -1.000000000000000000 ) ) ;
#244 = VERTEX_POINT ( 'NONE', #48 ) ;
#245 = LENGTH_MEASURE_WITH_UNIT ( LENGTH_MEASURE( 0.02539999999999999897 ), #223 );
#246 = ORIENTED_EDGE ( 'NONE', *, *, #252, .T. ) ;
#247 = PRODUCT_DEFINITION ( 'UNKNOWN', '', #148, #35 ) ;
#248 = ORIENTED_EDGE ( 'NONE', *, *, #163, .F. ) ;
#249 = VECTOR ( 'NONE', #278, 39.37007874015748143 ) ;
#250 = ORIENTED_EDGE ( 'NONE', *, *, #49, .T. ) ;
#251 = APPLICATION_CONTEXT ( 'automotive_design' ) ;
#252 = EDGE_CURVE ( 'NONE', #16, #111, #130, .T. ) ;
#253 = AXIS2_PLACEMENT_3D ( 'NONE', #141, #79, #98 ) ;
#254 = CARTESIAN_POINT ( 'NONE',  ( -0.1875000000000000278, 0.0000000000000000000, 2.000000000000000000 ) ) ;
#255 = DIRECTION ( 'NONE',  ( -1.224646799147353207E-16, -0.0000000000000000000, -1.000000000000000000 ) ) ;
#256 = DIRECTION ( 'NONE',  ( -1.000000000000000000, 0.0000000000000000000, 1.224646799147352961E-16 ) ) ;
#257 = STYLED_ITEM ( 'NONE', ( #96 ), #55 ) ;
#258 = CARTESIAN_POINT ( 'NONE',  ( 7.667064964284941550E-17, 0.0000000000000000000, 0.6260633653411784572 ) ) ;
#259 = ADVANCED_FACE ( 'NONE', ( #112 ), #213, .T. ) ;
#260 = DIRECTION ( 'NONE',  ( 0.0000000000000000000, 0.0000000000000000000, -1.000000000000000000 ) ) ;
#261 = PRODUCT_CONTEXT ( 'NONE', #251, 'mechanical' ) ;
#262 = VECTOR ( 'NONE', #110, 39.37007874015748143 ) ;
#263 = SHAPE_DEFINITION_REPRESENTATION ( #84, #55 ) ;
#264 = FACE_OUTER_BOUND ( 'NONE', #81, .T. ) ;
#265 = FILL_AREA_STYLE ('',( #13 ) ) ;
#266 = ORIENTED_EDGE ( 'NONE', *, *, #101, .T. ) ;
#267 = CARTESIAN_POINT ( 'NONE',  ( -0.1873124999999999096, 2.295064642027086507E-17, 0.6250000000000000000 ) ) ;
#268 = EDGE_CURVE ( 'NONE', #173, #167, #186, .T. ) ;
#269 = CONICAL_SURFACE ( 'NONE', #236, 0.1725000000000001532, 0.7853981633974357335 ) ;
#270 = VECTOR ( 'NONE', #25, 39.37007874015747433 ) ;
#271 = ORIENTED_EDGE ( 'NONE', *, *, #234, .T. ) ;
#272 = ORIENTED_EDGE ( 'NONE', *, *, #268, .F. ) ;
#273 = ADVANCED_FACE ( 'NONE', ( #74 ), #107, .T. ) ;
#274 = UNCERTAINTY_MEASURE_WITH_UNIT (LENGTH_MEASURE( 1.000000000000000082E-05 ), #146, 'distance_accuracy_value', 'NONE');
#275 = FACE_OUTER_BOUND ( 'NONE', #295, .T. ) ;
#276 = CIRCLE ( 'NONE', #65, 0.1875000000000000278 ) ;
#277 = DIRECTION ( 'NONE',  ( 1.000000000000000000, 0.0000000000000000000, -0.0000000000000000000 ) ) ;
#278 = DIRECTION ( 'NONE',  ( 0.7071067811865386910, 8.659560562354824390E-17, -0.7071067811865563435 ) ) ;
#279 = CARTESIAN_POINT ( 'NONE',  ( 0.0000000000000000000, 0.0000000000000000000, 2.000000000000000000 ) ) ;
#280 = EDGE_CURVE ( 'NONE', #153, #16, #51, .T. ) ;
#281 = AXIS2_PLACEMENT_3D ( 'NONE', #194, #66, #94 ) ;
#282 = DIRECTION ( 'NONE',  ( -1.000000000000000000, 0.0000000000000000000, 0.0000000000000000000 ) ) ;
#283 = EDGE_CURVE ( 'NONE', #153, #47, #60, .T. ) ;
#284 = APPLICATION_PROTOCOL_DEFINITION ( 'draft international standard', 'automotive_design', 1998, #251 ) ;
#285 = EDGE_LOOP ( 'NONE', ( #21, #85 ) ) ;
#286 = DIRECTION ( 'NONE',  ( 1.000000000000000000, 0.0000000000000000000, -0.0000000000000000000 ) ) ;
#287 = AXIS2_PLACEMENT_3D ( 'NONE', #239, #28, #9 ) ;
#288 = CARTESIAN_POINT ( 'NONE',  ( 0.1873125000000000484, 0.0000000000000000000, 0.6250000000000000000 ) ) ;
#289 = PRODUCT ( 'Micro_SEM-375-02', 'Micro_SEM-375-02', '', ( #261 ) ) ;
#290 = CARTESIAN_POINT ( 'NONE',  ( 7.654042494670957853E-17, 0.0000000000000000000, 0.6250000000000000000 ) ) ;
#291 = EDGE_LOOP ( 'NONE', ( #138, #177, #14, #208 ) ) ;
#292 = SURFACE_SIDE_STYLE ('',( #62 ) ) ;
#293 = AXIS2_PLACEMENT_3D ( 'NONE', #188, #7, #87 ) ;
#294 = CIRCLE ( 'NONE', #155, 0.1875000000000000278 ) ;
#295 = EDGE_LOOP ( 'NONE', ( #227, #246, #174, #151 ) ) ;
#296 = EDGE_CURVE ( 'NONE', #16, #153, #57, .T. ) ;
#297 = EDGE_CURVE ( 'NONE', #173, #24, #12, .T. ) ;
#298 = ORIENTED_EDGE ( 'NONE', *, *, #268, .T. ) ;
#299 = PRESENTATION_STYLE_ASSIGNMENT (( #67 ) ) ;
ENDSEC;
END-ISO-10303-21;
