ISO-10303-21;
HEADER;
FILE_DESCRIPTION (( 'STEP AP214' ),
    '1' );
FILE_NAME ('81676.STEP',
    '2023-06-30T22:30:52',
    ( '' ),
    ( '' ),
    'SwSTEP 2.0',
    'SolidWorks 2023',
    '' );
FILE_SCHEMA (( 'AUTOMOTIVE_DESIGN' ));
ENDSEC;

DATA;
#1 = SURFACE_STYLE_FILL_AREA ( #258 ) ;
#2 = VERTEX_POINT ( 'NONE', #135 ) ;
#3 = CARTESIAN_POINT ( 'NONE',  ( -0.09374999999999988898, 2.500000000000000000, 0.000000000000000000 ) ) ;
#4 = UNCERTAINTY_MEASURE_WITH_UNIT (LENGTH_MEASURE( 1.000000000000000082E-05 ), #325, 'distance_accuracy_value', 'NONE');
#5 = PRESENTATION_STYLE_ASSIGNMENT (( #55 ) ) ;
#6 = AXIS2_PLACEMENT_3D ( 'NONE', #367, #71, #228 ) ;
#7 = VECTOR ( 'NONE', #233, 39.37007874015748143 ) ;
#8 = APPLICATION_PROTOCOL_DEFINITION ( 'draft international standard', 'automotive_design', 1998, #242 ) ;
#9 = EDGE_CURVE ( 'NONE', #323, #200, #33, .T. ) ;
#10 = PRODUCT ( '81676', '81676', '', ( #238 ) ) ;
#11 =( NAMED_UNIT ( * ) SI_UNIT ( $, .STERADIAN. ) SOLID_ANGLE_UNIT ( ) );
#12 = FACE_OUTER_BOUND ( 'NONE', #30, .T. ) ;
#13 = ORIENTED_EDGE ( 'NONE', *, *, #9, .T. ) ;
#14 = ORIENTED_EDGE ( 'NONE', *, *, #335, .T. ) ;
#15 = DIRECTION ( 'NONE',  ( -1.000000000000000000, 0.000000000000000000, 0.000000000000000000 ) ) ;
#16 = DIRECTION ( 'NONE',  ( 1.224646799147353207E-16, -0.000000000000000000, 1.000000000000000000 ) ) ;
#17 = ADVANCED_FACE ( 'NONE', ( #156 ), #67, .T. ) ;
#18 = MECHANICAL_DESIGN_GEOMETRIC_PRESENTATION_REPRESENTATION (  '', ( #197 ), #370 ) ;
#19 =( NAMED_UNIT ( * ) PLANE_ANGLE_UNIT ( ) SI_UNIT ( $, .RADIAN. ) );
#20 = VECTOR ( 'NONE', #340, 39.37007874015748143 ) ;
#21 = DIMENSIONAL_EXPONENTS ( 1.000000000000000000, 0.000000000000000000, 0.000000000000000000, 0.000000000000000000, 0.000000000000000000, 0.000000000000000000, 0.000000000000000000 ) ;
#22 = ADVANCED_FACE ( 'NONE', ( #12 ), #64, .T. ) ;
#23 = DIRECTION ( 'NONE',  ( -1.644635498670202292E-16, 1.000000000000000000, -0.000000000000000000 ) ) ;
#24 = CARTESIAN_POINT ( 'NONE',  ( -5.740531871003217003E-18, 0.000000000000000000, 0.000000000000000000 ) ) ;
#25 = CARTESIAN_POINT ( 'NONE',  ( 0.000000000000000000, 0.09375000000000001388, 0.000000000000000000 ) ) ;
#26 = CARTESIAN_POINT ( 'NONE',  ( 0.09374999999999987510, 2.500000000000000000, 0.000000000000000000 ) ) ;
#27 = EDGE_LOOP ( 'NONE', ( #295, #53 ) ) ;
#28 = CIRCLE ( 'NONE', #339, 0.09374999999999987510 ) ;
#29 = CARTESIAN_POINT ( 'NONE',  ( 0.000000000000000000, 0.000000000000000000, -0.09374999999999991673 ) ) ;
#30 = EDGE_LOOP ( 'NONE', ( #299, #96 ) ) ;
#31 = AXIS2_PLACEMENT_3D ( 'NONE', #185, #301, #68 ) ;
#32 = AXIS2_PLACEMENT_3D ( 'NONE', #281, #144, #225 ) ;
#33 = LINE ( 'NONE', #133, #20 ) ;
#34 = ADVANCED_BREP_SHAPE_REPRESENTATION ( '81676', ( #174, #296, #131 ), #95 ) ;
#35 = CARTESIAN_POINT ( 'NONE',  ( 1.148106374200642476E-17, 1.000000000000000000, 0.09374999999999987510 ) ) ;
#36 = PRESENTATION_STYLE_ASSIGNMENT (( #297 ) ) ;
#37 = ORIENTED_EDGE ( 'NONE', *, *, #73, .F. ) ;
#38 = ORIENTED_EDGE ( 'NONE', *, *, #54, .F. ) ;
#39 = ADVANCED_FACE ( 'NONE', ( #157 ), #314, .T. ) ;
#40 = CLOSED_SHELL ( 'NONE', ( #39, #206, #22, #148, #17 ) ) ;
#41 = CIRCLE ( 'NONE', #70, 0.09374999999999997224 ) ;
#42 = LENGTH_MEASURE_WITH_UNIT ( LENGTH_MEASURE( 0.02539999999999999897 ), #304 );
#43 = DIRECTION ( 'NONE',  ( 1.000000000000000000, 0.000000000000000000, -1.224646799147353207E-16 ) ) ;
#44 = DIRECTION ( 'NONE',  ( 1.000000000000000000, 0.000000000000000000, 0.000000000000000000 ) ) ;
#45 = ORIENTED_EDGE ( 'NONE', *, *, #341, .F. ) ;
#46 = SURFACE_SIDE_STYLE ('',( #368 ) ) ;
#47 = DIRECTION ( 'NONE',  ( 0.000000000000000000, 0.000000000000000000, -1.000000000000000000 ) ) ;
#48 = AXIS2_PLACEMENT_3D ( 'NONE', #272, #163, #15 ) ;
#49 = LENGTH_MEASURE_WITH_UNIT ( LENGTH_MEASURE( 0.02539999999999999897 ), #164 );
#50 = DIRECTION ( 'NONE',  ( -1.644635498670202292E-16, 1.000000000000000000, -0.000000000000000000 ) ) ;
#51 = DIRECTION ( 'NONE',  ( 0.000000000000000000, 0.000000000000000000, -1.000000000000000000 ) ) ;
#52 = MECHANICAL_DESIGN_GEOMETRIC_PRESENTATION_REPRESENTATION (  '', ( #230 ), #140 ) ;
#53 = ORIENTED_EDGE ( 'NONE', *, *, #114, .F. ) ;
#54 = EDGE_CURVE ( 'NONE', #246, #2, #101, .T. ) ;
#55 = SURFACE_STYLE_USAGE ( .BOTH. , #324 ) ;
#56 = FILL_AREA_STYLE_COLOUR ( '', #173 ) ;
#57 = CARTESIAN_POINT ( 'NONE',  ( 0.000000000000000000, 0.000000000000000000, 0.000000000000000000 ) ) ;
#58 = STYLED_ITEM ( 'NONE', ( #36 ), #22 ) ;
#59 =( NAMED_UNIT ( * ) PLANE_ANGLE_UNIT ( ) SI_UNIT ( $, .RADIAN. ) );
#60 = EDGE_CURVE ( 'NONE', #353, #159, #254, .T. ) ;
#61 = CARTESIAN_POINT ( 'NONE',  ( 0.000000000000000000, 1.000000000000000000, -0.09374999999999987510 ) ) ;
#62 = ADVANCED_FACE ( 'NONE', ( #171 ), #138, .F. ) ;
#63 = LENGTH_MEASURE_WITH_UNIT ( LENGTH_MEASURE( 0.02539999999999999897 ), #127 );
#64 = PLANE ( 'NONE',  #196 ) ;
#65 = FILL_AREA_STYLE ('',( #248 ) ) ;
#66 = APPLICATION_CONTEXT ( 'automotive_design' ) ;
#67 = SPHERICAL_SURFACE ( 'NONE', #31, 0.09374999999999998612 ) ;
#68 = DIRECTION ( 'NONE',  ( 1.000000000000000000, 0.000000000000000000, 0.000000000000000000 ) ) ;
#69 = VERTEX_POINT ( 'NONE', #194 ) ;
#70 = AXIS2_PLACEMENT_3D ( 'NONE', #345, #226, #47 ) ;
#71 = DIRECTION ( 'NONE',  ( -1.644635498670202292E-16, 1.000000000000000000, 0.000000000000000000 ) ) ;
#72 = SURFACE_STYLE_USAGE ( .BOTH. , #268 ) ;
#73 = EDGE_CURVE ( 'NONE', #353, #200, #41, .T. ) ;
#74 =( LENGTH_UNIT ( ) NAMED_UNIT ( * ) SI_UNIT ( $, .METRE. ) );
#75 = SURFACE_STYLE_FILL_AREA ( #343 ) ;
#76 =( NAMED_UNIT ( * ) SI_UNIT ( $, .STERADIAN. ) SOLID_ANGLE_UNIT ( ) );
#77 =( NAMED_UNIT ( * ) PLANE_ANGLE_UNIT ( ) SI_UNIT ( $, .RADIAN. ) );
#78 =( NAMED_UNIT ( * ) SI_UNIT ( $, .STERADIAN. ) SOLID_ANGLE_UNIT ( ) );
#79 = CIRCLE ( 'NONE', #224, 0.09374999999999997224 ) ;
#80 = CYLINDRICAL_SURFACE ( 'NONE', #342, 0.09374999999999981959 ) ;
#81 = CARTESIAN_POINT ( 'NONE',  ( -6.123233995736766036E-17, 2.500000000000000000, 0.000000000000000000 ) ) ;
#82 = DIRECTION ( 'NONE',  ( 0.000000000000000000, 0.000000000000000000, -1.000000000000000000 ) ) ;
#83 = ORIENTED_EDGE ( 'NONE', *, *, #150, .F. ) ;
#84 = CIRCLE ( 'NONE', #245, 0.09374999999999994449 ) ;
#85 = EDGE_CURVE ( 'NONE', #69, #165, #315, .T. ) ;
#86 = LENGTH_MEASURE_WITH_UNIT ( LENGTH_MEASURE( 0.02539999999999999897 ), #322 );
#87 = EDGE_LOOP ( 'NONE', ( #229, #354, #216, #351 ) ) ;
#88 = CARTESIAN_POINT ( 'NONE',  ( 0.000000000000000000, 0.09375000000000001388, 0.000000000000000000 ) ) ;
#89 = DIMENSIONAL_EXPONENTS ( 1.000000000000000000, 0.000000000000000000, 0.000000000000000000, 0.000000000000000000, 0.000000000000000000, 0.000000000000000000, 0.000000000000000000 ) ;
#90 = DIRECTION ( 'NONE',  ( -0.000000000000000000, -1.000000000000000000, -0.000000000000000000 ) ) ;
#91 = UNCERTAINTY_MEASURE_WITH_UNIT (LENGTH_MEASURE( 1.000000000000000082E-05 ), #142, 'distance_accuracy_value', 'NONE');
#92 = CARTESIAN_POINT ( 'NONE',  ( 0.09374999999999975020, 2.500000000000000000, 1.148106374200641398E-17 ) ) ;
#93 = CLOSED_SHELL ( 'NONE', ( #199, #62, #221, #158 ) ) ;
#94 = MECHANICAL_DESIGN_GEOMETRIC_PRESENTATION_REPRESENTATION (  '', ( #369 ), #217 ) ;
#95 =( GEOMETRIC_REPRESENTATION_CONTEXT ( 3 ) GLOBAL_UNCERTAINTY_ASSIGNED_CONTEXT ( ( #188 ) ) GLOBAL_UNIT_ASSIGNED_CONTEXT ( ( #180, #59, #11 ) ) REPRESENTATION_CONTEXT ( 'NONE', 'WORKASPACE' ) );
#96 = ORIENTED_EDGE ( 'NONE', *, *, #136, .F. ) ;
#97 = APPLICATION_PROTOCOL_DEFINITION ( 'draft international standard', 'automotive_design', 1998, #66 ) ;
#98 = ORIENTED_EDGE ( 'NONE', *, *, #371, .T. ) ;
#99 = DIRECTION ( 'NONE',  ( -1.644635498670202292E-16, 1.000000000000000000, -0.000000000000000000 ) ) ;
#100 =( CONVERSION_BASED_UNIT ( 'INCH', #42 ) LENGTH_UNIT ( ) NAMED_UNIT ( #89 ) );
#101 = CIRCLE ( 'NONE', #204, 0.09374999999999997224 ) ;
#102 = STYLED_ITEM ( 'NONE', ( #372 ), #39 ) ;
#103 = AXIS2_PLACEMENT_3D ( 'NONE', #358, #99, #302 ) ;
#104 = CARTESIAN_POINT ( 'NONE',  ( 0.000000000000000000, 0.09375000000000001388, 0.000000000000000000 ) ) ;
#105 = UNCERTAINTY_MEASURE_WITH_UNIT (LENGTH_MEASURE( 1.000000000000000082E-05 ), #330, 'distance_accuracy_value', 'NONE');
#106 = ORIENTED_EDGE ( 'NONE', *, *, #308, .F. ) ;
#107 = EDGE_LOOP ( 'NONE', ( #332, #240, #259, #326 ) ) ;
#108 = AXIS2_PLACEMENT_3D ( 'NONE', #282, #145, #275 ) ;
#109 = FILL_AREA_STYLE ('',( #362 ) ) ;
#110 = DIRECTION ( 'NONE',  ( -1.000000000000000000, 0.000000000000000000, 0.000000000000000000 ) ) ;
#111 =( NAMED_UNIT ( * ) PLANE_ANGLE_UNIT ( ) SI_UNIT ( $, .RADIAN. ) );
#112 =( CONVERSION_BASED_UNIT ( 'INCH', #365 ) LENGTH_UNIT ( ) NAMED_UNIT ( #232 ) );
#113 = PRESENTATION_STYLE_ASSIGNMENT (( #116 ) ) ;
#114 = EDGE_CURVE ( 'NONE', #361, #271, #329, .T. ) ;
#115 = PRESENTATION_LAYER_ASSIGNMENT (  '', '', ( #58 ) ) ;
#116 = SURFACE_STYLE_USAGE ( .BOTH. , #46 ) ;
#117 = CARTESIAN_POINT ( 'NONE',  ( -1.148106374200643401E-17, 0.09374999999999998612, 0.000000000000000000 ) ) ;
#118 = DIRECTION ( 'NONE',  ( 0.000000000000000000, 0.000000000000000000, 1.000000000000000000 ) ) ;
#119 = CARTESIAN_POINT ( 'NONE',  ( -0.09374999999999951428, 1.000000000000000000, 0.000000000000000000 ) ) ;
#120 = PRODUCT_DEFINITION_FORMATION_WITH_SPECIFIED_SOURCE ( 'ANY', '', #10, .NOT_KNOWN. ) ;
#121 = DIRECTION ( 'NONE',  ( 1.000000000000000000, 1.644635498670202292E-16, 0.000000000000000000 ) ) ;
#122 = EDGE_LOOP ( 'NONE', ( #98, #350, #181, #83 ) ) ;
#123 = FACE_OUTER_BOUND ( 'NONE', #306, .T. ) ;
#124 = DIMENSIONAL_EXPONENTS ( 1.000000000000000000, 0.000000000000000000, 0.000000000000000000, 0.000000000000000000, 0.000000000000000000, 0.000000000000000000, 0.000000000000000000 ) ;
#125 = PRODUCT_DEFINITION ( 'UNKNOWN', '', #120, #139 ) ;
#126 = ORIENTED_EDGE ( 'NONE', *, *, #85, .T. ) ;
#127 =( LENGTH_UNIT ( ) NAMED_UNIT ( * ) SI_UNIT ( $, .METRE. ) );
#128 =( NAMED_UNIT ( * ) SI_UNIT ( $, .STERADIAN. ) SOLID_ANGLE_UNIT ( ) );
#129 = ORIENTED_EDGE ( 'NONE', *, *, #276, .F. ) ;
#130 = PRESENTATION_LAYER_ASSIGNMENT (  '', '', ( #369 ) ) ;
#131 = AXIS2_PLACEMENT_3D ( 'NONE', #213, #293, #355 ) ;
#132 = CARTESIAN_POINT ( 'NONE',  ( 0.09374999999999997224, 0.09375000000000001388, 0.000000000000000000 ) ) ;
#133 = CARTESIAN_POINT ( 'NONE',  ( 1.148106374200642630E-17, 0.000000000000000000, 0.09374999999999991673 ) ) ;
#134 = DIRECTION ( 'NONE',  ( -1.000000000000000000, 0.000000000000000000, 0.000000000000000000 ) ) ;
#135 = CARTESIAN_POINT ( 'NONE',  ( 0.000000000000000000, 0.09375000000000001388, -0.09374999999999997224 ) ) ;
#136 = EDGE_CURVE ( 'NONE', #323, #337, #28, .T. ) ;
#137 =( NAMED_UNIT ( * ) SI_UNIT ( $, .STERADIAN. ) SOLID_ANGLE_UNIT ( ) );
#138 = PLANE ( 'NONE',  #6 ) ;
#139 = PRODUCT_DEFINITION_CONTEXT ( 'detailed design', #66, 'design' ) ;
#140 =( GEOMETRIC_REPRESENTATION_CONTEXT ( 3 ) GLOBAL_UNCERTAINTY_ASSIGNED_CONTEXT ( ( #220 ) ) GLOBAL_UNIT_ASSIGNED_CONTEXT ( ( #266, #273, #128 ) ) REPRESENTATION_CONTEXT ( 'NONE', 'WORKASPACE' ) );
#141 = CIRCLE ( 'NONE', #205, 0.09374999999999987510 ) ;
#142 =( CONVERSION_BASED_UNIT ( 'INCH', #311 ) LENGTH_UNIT ( ) NAMED_UNIT ( #21 ) );
#143 = CYLINDRICAL_SURFACE ( 'NONE', #32, 0.09374999999999991673 ) ;
#144 = DIRECTION ( 'NONE',  ( -0.000000000000000000, -1.000000000000000000, -0.000000000000000000 ) ) ;
#145 = DIRECTION ( 'NONE',  ( 0.000000000000000000, 0.000000000000000000, -1.000000000000000000 ) ) ;
#146 = DIMENSIONAL_EXPONENTS ( 1.000000000000000000, 0.000000000000000000, 0.000000000000000000, 0.000000000000000000, 0.000000000000000000, 0.000000000000000000, 0.000000000000000000 ) ;
#147 = STYLED_ITEM ( 'NONE', ( #113 ), #206 ) ;
#148 = ADVANCED_FACE ( 'NONE', ( #312 ), #309, .T. ) ;
#149 = DIRECTION ( 'NONE',  ( 0.000000000000000000, 0.000000000000000000, -1.000000000000000000 ) ) ;
#150 = EDGE_CURVE ( 'NONE', #271, #165, #153, .T. ) ;
#151 = EDGE_LOOP ( 'NONE', ( #14, #13, #37, #129, #45 ) ) ;
#152 = PRESENTATION_LAYER_ASSIGNMENT (  '', '', ( #102 ) ) ;
#153 = LINE ( 'NONE', #3, #290 ) ;
#154 = ORIENTED_EDGE ( 'NONE', *, *, #191, .T. ) ;
#155 = DIRECTION ( 'NONE',  ( 0.000000000000000000, -0.000000000000000000, 1.000000000000000000 ) ) ;
#156 = FACE_OUTER_BOUND ( 'NONE', #107, .T. ) ;
#157 = FACE_OUTER_BOUND ( 'NONE', #212, .T. ) ;
#158 = ADVANCED_FACE ( 'NONE', ( #123 ), #287, .F. ) ;
#159 = VERTEX_POINT ( 'NONE', #24 ) ;
#160 =( NAMED_UNIT ( * ) SI_UNIT ( $, .STERADIAN. ) SOLID_ANGLE_UNIT ( ) );
#161 = COLOUR_RGB ( '',1.000000000000000000, 0.000000000000000000, 0.000000000000000000 ) ;
#162 = LENGTH_MEASURE_WITH_UNIT ( LENGTH_MEASURE( 0.02539999999999999897 ), #190 );
#163 = DIRECTION ( 'NONE',  ( -1.644635498670202292E-16, 1.000000000000000000, -0.000000000000000000 ) ) ;
#164 =( LENGTH_UNIT ( ) NAMED_UNIT ( * ) SI_UNIT ( $, .METRE. ) );
#165 = VERTEX_POINT ( 'NONE', #263 ) ;
#166 = SURFACE_SIDE_STYLE ('',( #75 ) ) ;
#167 = MECHANICAL_DESIGN_GEOMETRIC_PRESENTATION_REPRESENTATION (  '', ( #250 ), #364 ) ;
#168 = PRESENTATION_LAYER_ASSIGNMENT (  '', '', ( #197 ) ) ;
#169 = DIRECTION ( 'NONE',  ( -1.644635498670202292E-16, 1.000000000000000000, -0.000000000000000000 ) ) ;
#170 = DIRECTION ( 'NONE',  ( 0.000000000000000000, 0.000000000000000000, -1.000000000000000000 ) ) ;
#171 = FACE_OUTER_BOUND ( 'NONE', #27, .T. ) ;
#172 = FILL_AREA_STYLE_COLOUR ( '', #243 ) ;
#173 = COLOUR_RGB ( '',0.7921568627450980005, 0.8196078431372548767, 0.9333333333333333481 ) ;
#174 = MANIFOLD_SOLID_BREP ( 'Revolve - Cutting Edge', #40 ) ;
#175 = ORIENTED_EDGE ( 'NONE', *, *, #9, .F. ) ;
#176 = DIMENSIONAL_EXPONENTS ( 1.000000000000000000, 0.000000000000000000, 0.000000000000000000, 0.000000000000000000, 0.000000000000000000, 0.000000000000000000, 0.000000000000000000 ) ;
#177 = DIRECTION ( 'NONE',  ( 1.644635498670202292E-16, -1.000000000000000000, 0.000000000000000000 ) ) ;
#178 = FILL_AREA_STYLE ('',( #56 ) ) ;
#179 = PRESENTATION_LAYER_ASSIGNMENT (  '', '', ( #230 ) ) ;
#180 =( CONVERSION_BASED_UNIT ( 'INCH', #63 ) LENGTH_UNIT ( ) NAMED_UNIT ( #176 ) );
#181 = ORIENTED_EDGE ( 'NONE', *, *, #274, .F. ) ;
#182 = EDGE_LOOP ( 'NONE', ( #175, #244, #187, #38, #106 ) ) ;
#183 = AXIS2_PLACEMENT_3D ( 'NONE', #117, #118, #44 ) ;
#184 = DIRECTION ( 'NONE',  ( 0.000000000000000000, 0.000000000000000000, -1.000000000000000000 ) ) ;
#185 = CARTESIAN_POINT ( 'NONE',  ( -1.148106374200643401E-17, 0.09374999999999998612, 0.000000000000000000 ) ) ;
#186 = DIRECTION ( 'NONE',  ( -0.000000000000000000, -1.000000000000000000, -0.000000000000000000 ) ) ;
#187 = ORIENTED_EDGE ( 'NONE', *, *, #341, .T. ) ;
#188 = UNCERTAINTY_MEASURE_WITH_UNIT (LENGTH_MEASURE( 1.000000000000000082E-05 ), #180, 'distance_accuracy_value', 'NONE');
#189 = SURFACE_SIDE_STYLE ('',( #331 ) ) ;
#190 =( LENGTH_UNIT ( ) NAMED_UNIT ( * ) SI_UNIT ( $, .METRE. ) );
#191 = EDGE_CURVE ( 'NONE', #246, #159, #285, .T. ) ;
#192 = AXIS2_PLACEMENT_3D ( 'NONE', #26, #177, #121 ) ;
#193 = DIRECTION ( 'NONE',  ( 0.000000000000000000, 0.000000000000000000, -1.000000000000000000 ) ) ;
#194 = CARTESIAN_POINT ( 'NONE',  ( 0.09374999999999984734, 2.500000000000000000, 1.148106374200641860E-17 ) ) ;
#195 = DIRECTION ( 'NONE',  ( -0.000000000000000000, -1.000000000000000000, -0.000000000000000000 ) ) ;
#196 = AXIS2_PLACEMENT_3D ( 'NONE', #300, #215, #155 ) ;
#197 = STYLED_ITEM ( 'NONE', ( #5 ), #296 ) ;
#198 = CARTESIAN_POINT ( 'NONE',  ( 1.854629848431626834E-16, 1.000000000000000000, 0.000000000000000000 ) ) ;
#199 = ADVANCED_FACE ( 'NONE', ( #366 ), #247, .T. ) ;
#200 = VERTEX_POINT ( 'NONE', #279 ) ;
#201 = DIRECTION ( 'NONE',  ( -0.000000000000000000, -1.000000000000000000, -0.000000000000000000 ) ) ;
#202 = UNCERTAINTY_MEASURE_WITH_UNIT (LENGTH_MEASURE( 1.000000000000000082E-05 ), #256, 'distance_accuracy_value', 'NONE');
#203 = FILL_AREA_STYLE_COLOUR ( '', #270 ) ;
#204 = AXIS2_PLACEMENT_3D ( 'NONE', #104, #195, #170 ) ;
#205 = AXIS2_PLACEMENT_3D ( 'NONE', #241, #186, #184 ) ;
#206 = ADVANCED_FACE ( 'NONE', ( #251 ), #143, .T. ) ;
#207 = SHAPE_DEFINITION_REPRESENTATION ( #257, #34 ) ;
#208 = SURFACE_STYLE_FILL_AREA ( #65 ) ;
#209 =( NAMED_UNIT ( * ) PLANE_ANGLE_UNIT ( ) SI_UNIT ( $, .RADIAN. ) );
#210 = COLOUR_RGB ( '',1.000000000000000000, 0.000000000000000000, 0.000000000000000000 ) ;
#211 = FILL_AREA_STYLE ('',( #338 ) ) ;
#212 = EDGE_LOOP ( 'NONE', ( #359, #154, #303, #349 ) ) ;
#213 = CARTESIAN_POINT ( 'NONE',  ( 0.000000000000000000, 0.000000000000000000, 0.000000000000000000 ) ) ;
#214 = ORIENTED_EDGE ( 'NONE', *, *, #274, .T. ) ;
#215 = DIRECTION ( 'NONE',  ( 0.000000000000000000, 1.000000000000000000, 0.000000000000000000 ) ) ;
#216 = ORIENTED_EDGE ( 'NONE', *, *, #150, .T. ) ;
#217 =( GEOMETRIC_REPRESENTATION_CONTEXT ( 3 ) GLOBAL_UNCERTAINTY_ASSIGNED_CONTEXT ( ( #288 ) ) GLOBAL_UNIT_ASSIGNED_CONTEXT ( ( #112, #77, #160 ) ) REPRESENTATION_CONTEXT ( 'NONE', 'WORKASPACE' ) );
#218 = AXIS2_PLACEMENT_3D ( 'NONE', #25, #201, #51 ) ;
#219 = FILL_AREA_STYLE_COLOUR ( '', #161 ) ;
#220 = UNCERTAINTY_MEASURE_WITH_UNIT (LENGTH_MEASURE( 1.000000000000000082E-05 ), #266, 'distance_accuracy_value', 'NONE');
#221 = ADVANCED_FACE ( 'NONE', ( #344 ), #80, .T. ) ;
#222 = SURFACE_STYLE_USAGE ( .BOTH. , #356 ) ;
#223 = AXIS2_PLACEMENT_3D ( 'NONE', #81, #249, #363 ) ;
#224 = AXIS2_PLACEMENT_3D ( 'NONE', #88, #291, #149 ) ;
#225 = DIRECTION ( 'NONE',  ( 0.000000000000000000, 0.000000000000000000, -1.000000000000000000 ) ) ;
#226 = DIRECTION ( 'NONE',  ( -0.000000000000000000, -1.000000000000000000, -0.000000000000000000 ) ) ;
#227 =( NAMED_UNIT ( * ) PLANE_ANGLE_UNIT ( ) SI_UNIT ( $, .RADIAN. ) );
#228 = DIRECTION ( 'NONE',  ( -1.000000000000000000, -1.644635498670202292E-16, 0.000000000000000000 ) ) ;
#229 = ORIENTED_EDGE ( 'NONE', *, *, #264, .F. ) ;
#230 = STYLED_ITEM ( 'NONE', ( #310 ), #17 ) ;
#231 = CARTESIAN_POINT ( 'NONE',  ( -6.123233995736766036E-17, 2.500000000000000000, 0.000000000000000000 ) ) ;
#232 = DIMENSIONAL_EXPONENTS ( 1.000000000000000000, 0.000000000000000000, 0.000000000000000000, 0.000000000000000000, 0.000000000000000000, 0.000000000000000000, 0.000000000000000000 ) ;
#233 = DIRECTION ( 'NONE',  ( -1.644635498670202292E-16, 1.000000000000000000, -0.000000000000000000 ) ) ;
#234 = DIRECTION ( 'NONE',  ( -1.000000000000000000, 0.000000000000000000, 0.000000000000000000 ) ) ;
#235 = CARTESIAN_POINT ( 'NONE',  ( 0.09374999999999988898, 1.000000000000000000, 1.148106374200642168E-17 ) ) ;
#236 = COLOUR_RGB ( '',1.000000000000000000, 0.000000000000000000, 0.000000000000000000 ) ;
#237 = PRESENTATION_LAYER_ASSIGNMENT (  '', '', ( #250 ) ) ;
#238 = PRODUCT_CONTEXT ( 'NONE', #242, 'mechanical' ) ;
#239 = FILL_AREA_STYLE ('',( #172 ) ) ;
#240 = ORIENTED_EDGE ( 'NONE', *, *, #54, .T. ) ;
#241 = CARTESIAN_POINT ( 'NONE',  ( 0.000000000000000000, 1.000000000000000000, 0.000000000000000000 ) ) ;
#242 = APPLICATION_CONTEXT ( 'automotive_design' ) ;
#243 = COLOUR_RGB ( '',1.000000000000000000, 0.000000000000000000, 0.000000000000000000 ) ;
#244 = ORIENTED_EDGE ( 'NONE', *, *, #136, .T. ) ;
#245 = AXIS2_PLACEMENT_3D ( 'NONE', #231, #23, #234 ) ;
#246 = VERTEX_POINT ( 'NONE', #286 ) ;
#247 = CYLINDRICAL_SURFACE ( 'NONE', #48, 0.09374999999999981959 ) ;
#248 = FILL_AREA_STYLE_COLOUR ( '', #236 ) ;
#249 = DIRECTION ( 'NONE',  ( -1.644635498670202292E-16, 1.000000000000000000, -0.000000000000000000 ) ) ;
#250 = STYLED_ITEM ( 'NONE', ( #289 ), #174 ) ;
#251 = FACE_OUTER_BOUND ( 'NONE', #151, .T. ) ;
#252 = UNCERTAINTY_MEASURE_WITH_UNIT (LENGTH_MEASURE( 1.000000000000000082E-05 ), #100, 'distance_accuracy_value', 'NONE');
#253 = DIRECTION ( 'NONE',  ( -0.000000000000000000, -1.000000000000000000, -0.000000000000000000 ) ) ;
#254 = CIRCLE ( 'NONE', #108, 0.09374999999999998612 ) ;
#255 = CIRCLE ( 'NONE', #103, 0.09374999999999969469 ) ;
#256 =( CONVERSION_BASED_UNIT ( 'INCH', #49 ) LENGTH_UNIT ( ) NAMED_UNIT ( #267 ) );
#257 = PRODUCT_DEFINITION_SHAPE ( 'NONE', 'NONE',  #125 ) ;
#258 = FILL_AREA_STYLE ('',( #203 ) ) ;
#259 = ORIENTED_EDGE ( 'NONE', *, *, #276, .T. ) ;
#260 = MECHANICAL_DESIGN_GEOMETRIC_PRESENTATION_REPRESENTATION (  '', ( #102 ), #261 ) ;
#261 =( GEOMETRIC_REPRESENTATION_CONTEXT ( 3 ) GLOBAL_UNCERTAINTY_ASSIGNED_CONTEXT ( ( #202 ) ) GLOBAL_UNIT_ASSIGNED_CONTEXT ( ( #256, #19, #78 ) ) REPRESENTATION_CONTEXT ( 'NONE', 'WORKASPACE' ) );
#262 = VECTOR ( 'NONE', #336, 39.37007874015748143 ) ;
#263 = CARTESIAN_POINT ( 'NONE',  ( -0.09375000000000001388, 2.500000000000000000, 0.000000000000000000 ) ) ;
#264 = EDGE_CURVE ( 'NONE', #361, #69, #321, .T. ) ;
#265 = COLOUR_RGB ( '',1.000000000000000000, 0.000000000000000000, 0.000000000000000000 ) ;
#266 =( CONVERSION_BASED_UNIT ( 'INCH', #162 ) LENGTH_UNIT ( ) NAMED_UNIT ( #124 ) );
#267 = DIMENSIONAL_EXPONENTS ( 1.000000000000000000, 0.000000000000000000, 0.000000000000000000, 0.000000000000000000, 0.000000000000000000, 0.000000000000000000, 0.000000000000000000 ) ;
#268 = SURFACE_SIDE_STYLE ('',( #208 ) ) ;
#269 = LINE ( 'NONE', #29, #262 ) ;
#270 = COLOUR_RGB ( '',0.7921568627450980005, 0.8196078431372548767, 0.9333333333333333481 ) ;
#271 = VERTEX_POINT ( 'NONE', #119 ) ;
#272 = CARTESIAN_POINT ( 'NONE',  ( -6.123233995736766036E-17, 2.500000000000000000, 0.000000000000000000 ) ) ;
#273 =( NAMED_UNIT ( * ) PLANE_ANGLE_UNIT ( ) SI_UNIT ( $, .RADIAN. ) );
#274 = EDGE_CURVE ( 'NONE', #165, #69, #84, .T. ) ;
#275 = DIRECTION ( 'NONE',  ( -1.000000000000000000, 0.000000000000000000, 0.000000000000000000 ) ) ;
#276 = EDGE_CURVE ( 'NONE', #2, #353, #79, .T. ) ;
#277 = PRESENTATION_STYLE_ASSIGNMENT (( #280 ) ) ;
#278 = AXIS2_PLACEMENT_3D ( 'NONE', #198, #169, #110 ) ;
#279 = CARTESIAN_POINT ( 'NONE',  ( 1.148106374200643247E-17, 0.09375000000000001388, 0.09374999999999995837 ) ) ;
#280 = SURFACE_STYLE_USAGE ( .BOTH. , #166 ) ;
#281 = CARTESIAN_POINT ( 'NONE',  ( 0.000000000000000000, 0.000000000000000000, 0.000000000000000000 ) ) ;
#282 = CARTESIAN_POINT ( 'NONE',  ( -1.148106374200643401E-17, 0.09374999999999998612, 0.000000000000000000 ) ) ;
#283 =( NAMED_UNIT ( * ) SI_UNIT ( $, .STERADIAN. ) SOLID_ANGLE_UNIT ( ) );
#284 = CARTESIAN_POINT ( 'NONE',  ( 0.000000000000000000, 1.000000000000000000, 0.000000000000000000 ) ) ;
#285 = CIRCLE ( 'NONE', #320, 0.09374999999999998612 ) ;
#286 = CARTESIAN_POINT ( 'NONE',  ( -0.09374999999999998612, 0.09375000000000001388, 1.148106374200643247E-17 ) ) ;
#287 = PLANE ( 'NONE',  #192 ) ;
#288 = UNCERTAINTY_MEASURE_WITH_UNIT (LENGTH_MEASURE( 1.000000000000000082E-05 ), #112, 'distance_accuracy_value', 'NONE');
#289 = PRESENTATION_STYLE_ASSIGNMENT (( #292 ) ) ;
#290 = VECTOR ( 'NONE', #319, 39.37007874015748143 ) ;
#291 = DIRECTION ( 'NONE',  ( -0.000000000000000000, -1.000000000000000000, -0.000000000000000000 ) ) ;
#292 = SURFACE_STYLE_USAGE ( .BOTH. , #328 ) ;
#293 = DIRECTION ( 'NONE',  ( 0.000000000000000000, 0.000000000000000000, 1.000000000000000000 ) ) ;
#294 = SURFACE_STYLE_FILL_AREA ( #211 ) ;
#295 = ORIENTED_EDGE ( 'NONE', *, *, #371, .F. ) ;
#296 = MANIFOLD_SOLID_BREP ( 'Revolve - Tool Body (Straight Shanked)', #93 ) ;
#297 = SURFACE_STYLE_USAGE ( .BOTH. , #189 ) ;
#298 = MECHANICAL_DESIGN_GEOMETRIC_PRESENTATION_REPRESENTATION (  '', ( #147 ), #316 ) ;
#299 = ORIENTED_EDGE ( 'NONE', *, *, #335, .F. ) ;
#300 = CARTESIAN_POINT ( 'NONE',  ( 0.000000000000000000, 1.000000000000000000, 0.000000000000000000 ) ) ;
#301 = DIRECTION ( 'NONE',  ( 0.000000000000000000, 0.000000000000000000, 1.000000000000000000 ) ) ;
#302 = DIRECTION ( 'NONE',  ( -1.000000000000000000, 0.000000000000000000, 0.000000000000000000 ) ) ;
#303 = ORIENTED_EDGE ( 'NONE', *, *, #60, .F. ) ;
#304 =( LENGTH_UNIT ( ) NAMED_UNIT ( * ) SI_UNIT ( $, .METRE. ) );
#305 = MECHANICAL_DESIGN_GEOMETRIC_PRESENTATION_REPRESENTATION (  '', ( #58 ), #357 ) ;
#306 = EDGE_LOOP ( 'NONE', ( #214, #126 ) ) ;
#307 = PRESENTATION_LAYER_ASSIGNMENT (  '', '', ( #147 ) ) ;
#308 = EDGE_CURVE ( 'NONE', #200, #246, #334, .T. ) ;
#309 = CYLINDRICAL_SURFACE ( 'NONE', #333, 0.09374999999999991673 ) ;
#310 = PRESENTATION_STYLE_ASSIGNMENT (( #72 ) ) ;
#311 = LENGTH_MEASURE_WITH_UNIT ( LENGTH_MEASURE( 0.02539999999999999897 ), #74 );
#312 = FACE_OUTER_BOUND ( 'NONE', #182, .T. ) ;
#313 =( NAMED_UNIT ( * ) PLANE_ANGLE_UNIT ( ) SI_UNIT ( $, .RADIAN. ) );
#314 = SPHERICAL_SURFACE ( 'NONE', #183, 0.09374999999999998612 ) ;
#315 = CIRCLE ( 'NONE', #223, 0.09374999999999994449 ) ;
#316 =( GEOMETRIC_REPRESENTATION_CONTEXT ( 3 ) GLOBAL_UNCERTAINTY_ASSIGNED_CONTEXT ( ( #91 ) ) GLOBAL_UNIT_ASSIGNED_CONTEXT ( ( #142, #111, #76 ) ) REPRESENTATION_CONTEXT ( 'NONE', 'WORKASPACE' ) );
#317 =( LENGTH_UNIT ( ) NAMED_UNIT ( * ) SI_UNIT ( $, .METRE. ) );
#318 = CARTESIAN_POINT ( 'NONE',  ( -6.123233995736766036E-17, 2.500000000000000000, 0.000000000000000000 ) ) ;
#319 = DIRECTION ( 'NONE',  ( -1.644635498670202292E-16, 1.000000000000000000, -0.000000000000000000 ) ) ;
#320 = AXIS2_PLACEMENT_3D ( 'NONE', #348, #16, #43 ) ;
#321 = LINE ( 'NONE', #92, #7 ) ;
#322 =( LENGTH_UNIT ( ) NAMED_UNIT ( * ) SI_UNIT ( $, .METRE. ) );
#323 = VERTEX_POINT ( 'NONE', #35 ) ;
#324 = SURFACE_SIDE_STYLE ('',( #327 ) ) ;
#325 =( CONVERSION_BASED_UNIT ( 'INCH', #86 ) LENGTH_UNIT ( ) NAMED_UNIT ( #146 ) );
#326 = ORIENTED_EDGE ( 'NONE', *, *, #60, .T. ) ;
#327 = SURFACE_STYLE_FILL_AREA ( #178 ) ;
#328 = SURFACE_SIDE_STYLE ('',( #1 ) ) ;
#329 = CIRCLE ( 'NONE', #278, 0.09374999999999969469 ) ;
#330 =( CONVERSION_BASED_UNIT ( 'INCH', #347 ) LENGTH_UNIT ( ) NAMED_UNIT ( #346 ) );
#331 = SURFACE_STYLE_FILL_AREA ( #239 ) ;
#332 = ORIENTED_EDGE ( 'NONE', *, *, #191, .F. ) ;
#333 = AXIS2_PLACEMENT_3D ( 'NONE', #57, #90, #82 ) ;
#334 = CIRCLE ( 'NONE', #218, 0.09374999999999997224 ) ;
#335 = EDGE_CURVE ( 'NONE', #337, #323, #141, .T. ) ;
#336 = DIRECTION ( 'NONE',  ( -0.000000000000000000, -1.000000000000000000, -0.000000000000000000 ) ) ;
#337 = VERTEX_POINT ( 'NONE', #61 ) ;
#338 = FILL_AREA_STYLE_COLOUR ( '', #265 ) ;
#339 = AXIS2_PLACEMENT_3D ( 'NONE', #284, #253, #193 ) ;
#340 = DIRECTION ( 'NONE',  ( -0.000000000000000000, -1.000000000000000000, -0.000000000000000000 ) ) ;
#341 = EDGE_CURVE ( 'NONE', #337, #2, #269, .T. ) ;
#342 = AXIS2_PLACEMENT_3D ( 'NONE', #318, #50, #134 ) ;
#343 = FILL_AREA_STYLE ('',( #219 ) ) ;
#344 = FACE_OUTER_BOUND ( 'NONE', #87, .T. ) ;
#345 = CARTESIAN_POINT ( 'NONE',  ( 0.000000000000000000, 0.09375000000000001388, 0.000000000000000000 ) ) ;
#346 = DIMENSIONAL_EXPONENTS ( 1.000000000000000000, 0.000000000000000000, 0.000000000000000000, 0.000000000000000000, 0.000000000000000000, 0.000000000000000000, 0.000000000000000000 ) ;
#347 = LENGTH_MEASURE_WITH_UNIT ( LENGTH_MEASURE( 0.02539999999999999897 ), #352 );
#348 = CARTESIAN_POINT ( 'NONE',  ( -1.148106374200643401E-17, 0.09374999999999998612, 0.000000000000000000 ) ) ;
#349 = ORIENTED_EDGE ( 'NONE', *, *, #73, .T. ) ;
#350 = ORIENTED_EDGE ( 'NONE', *, *, #264, .T. ) ;
#351 = ORIENTED_EDGE ( 'NONE', *, *, #85, .F. ) ;
#352 =( LENGTH_UNIT ( ) NAMED_UNIT ( * ) SI_UNIT ( $, .METRE. ) );
#353 = VERTEX_POINT ( 'NONE', #132 ) ;
#354 = ORIENTED_EDGE ( 'NONE', *, *, #114, .T. ) ;
#355 = DIRECTION ( 'NONE',  ( 1.000000000000000000, 0.000000000000000000, 0.000000000000000000 ) ) ;
#356 = SURFACE_SIDE_STYLE ('',( #294 ) ) ;
#357 =( GEOMETRIC_REPRESENTATION_CONTEXT ( 3 ) GLOBAL_UNCERTAINTY_ASSIGNED_CONTEXT ( ( #252 ) ) GLOBAL_UNIT_ASSIGNED_CONTEXT ( ( #100, #209, #360 ) ) REPRESENTATION_CONTEXT ( 'NONE', 'WORKASPACE' ) );
#358 = CARTESIAN_POINT ( 'NONE',  ( 1.854629848431626834E-16, 1.000000000000000000, 0.000000000000000000 ) ) ;
#359 = ORIENTED_EDGE ( 'NONE', *, *, #308, .T. ) ;
#360 =( NAMED_UNIT ( * ) SI_UNIT ( $, .STERADIAN. ) SOLID_ANGLE_UNIT ( ) );
#361 = VERTEX_POINT ( 'NONE', #235 ) ;
#362 = FILL_AREA_STYLE_COLOUR ( '', #210 ) ;
#363 = DIRECTION ( 'NONE',  ( -1.000000000000000000, 0.000000000000000000, 0.000000000000000000 ) ) ;
#364 =( GEOMETRIC_REPRESENTATION_CONTEXT ( 3 ) GLOBAL_UNCERTAINTY_ASSIGNED_CONTEXT ( ( #4 ) ) GLOBAL_UNIT_ASSIGNED_CONTEXT ( ( #325, #313, #137 ) ) REPRESENTATION_CONTEXT ( 'NONE', 'WORKASPACE' ) );
#365 = LENGTH_MEASURE_WITH_UNIT ( LENGTH_MEASURE( 0.02539999999999999897 ), #317 );
#366 = FACE_OUTER_BOUND ( 'NONE', #122, .T. ) ;
#367 = CARTESIAN_POINT ( 'NONE',  ( 1.854629848431626834E-16, 1.000000000000000000, 0.000000000000000000 ) ) ;
#368 = SURFACE_STYLE_FILL_AREA ( #109 ) ;
#369 = STYLED_ITEM ( 'NONE', ( #277 ), #148 ) ;
#370 =( GEOMETRIC_REPRESENTATION_CONTEXT ( 3 ) GLOBAL_UNCERTAINTY_ASSIGNED_CONTEXT ( ( #105 ) ) GLOBAL_UNIT_ASSIGNED_CONTEXT ( ( #330, #227, #283 ) ) REPRESENTATION_CONTEXT ( 'NONE', 'WORKASPACE' ) );
#371 = EDGE_CURVE ( 'NONE', #271, #361, #255, .T. ) ;
#372 = PRESENTATION_STYLE_ASSIGNMENT (( #222 ) ) ;
#373 = PRODUCT_RELATED_PRODUCT_CATEGORY ( 'part', '', ( #10 ) ) ;
ENDSEC;
END-ISO-10303-21;
