ISO-10303-21;
HEADER;
FILE_DESCRIPTION (( 'STEP AP214' ),
    '1' );
FILE_NAME ('84591.STEP',
    '2023-07-12T13:09:13',
    ( '' ),
    ( '' ),
    'SwSTEP 2.0',
    'SolidWorks 2023',
    '' );
FILE_SCHEMA (( 'AUTOMOTIVE_DESIGN' ));
ENDSEC;

DATA;
#1 = VECTOR ( 'NONE', #289, 39.37007874015748143 ) ;
#2 = DIMENSIONAL_EXPONENTS ( 1.000000000000000000, 0.000000000000000000, 0.000000000000000000, 0.000000000000000000, 0.000000000000000000, 0.000000000000000000, 0.000000000000000000 ) ;
#3 = CONICAL_SURFACE ( 'NONE', #185, 0.02000000000000000042, 1.047197551196600074 ) ;
#4 = LINE ( 'NONE', #30, #99 ) ;
#5 =( GEOMETRIC_REPRESENTATION_CONTEXT ( 3 ) GLOBAL_UNCERTAINTY_ASSIGNED_CONTEXT ( ( #36 ) ) GLOBAL_UNIT_ASSIGNED_CONTEXT ( ( #39, #188, #60 ) ) REPRESENTATION_CONTEXT ( 'NONE', 'WORKASPACE' ) );
#6 = SURFACE_STYLE_USAGE ( .BOTH. , #301 ) ;
#7 = CARTESIAN_POINT ( 'NONE',  ( 0.06250000000000001388, 0.02453738644055896562, 7.654042494670959086E-18 ) ) ;
#8 = EDGE_CURVE ( 'NONE', #297, #164, #261, .T. ) ;
#9 = LENGTH_MEASURE_WITH_UNIT ( LENGTH_MEASURE( 0.02539999999999999897 ), #181 );
#10 = VERTEX_POINT ( 'NONE', #7 ) ;
#11 = DIRECTION ( 'NONE',  ( -1.000000000000000000, 0.000000000000000000, 0.000000000000000000 ) ) ;
#12 =( CONVERSION_BASED_UNIT ( 'INCH', #133 ) LENGTH_UNIT ( ) NAMED_UNIT ( #47 ) );
#13 = CIRCLE ( 'NONE', #34, 0.06249999999999992367 ) ;
#14 = CARTESIAN_POINT ( 'NONE',  ( -2.369500423704768587E-34, 0.02453738644055896562, 0.000000000000000000 ) ) ;
#15 = ADVANCED_FACE ( 'NONE', ( #257 ), #159, .T. ) ;
#16 = EDGE_LOOP ( 'NONE', ( #305, #129, #101, #37 ) ) ;
#17 = STYLED_ITEM ( 'NONE', ( #172 ), #24 ) ;
#18 = LENGTH_MEASURE_WITH_UNIT ( LENGTH_MEASURE( 0.02539999999999999897 ), #214 );
#19 = SURFACE_SIDE_STYLE ('',( #218 ) ) ;
#20 = CARTESIAN_POINT ( 'NONE',  ( -0.06249999999999951428, 0.02453738644055889623, 0.000000000000000000 ) ) ;
#21 = VECTOR ( 'NONE', #132, 39.37007874015748854 ) ;
#22 = SURFACE_SIDE_STYLE ('',( #216 ) ) ;
#23 = DIRECTION ( 'NONE',  ( -1.223378938303813434E-16, 1.000000000000000000, -0.000000000000000000 ) ) ;
#24 = MANIFOLD_SOLID_BREP ( 'Revolve - Tool Body (Tipped Off)', #235 ) ;
#25 = AXIS2_PLACEMENT_3D ( 'NONE', #196, #122, #54 ) ;
#26 = CARTESIAN_POINT ( 'NONE',  ( -0.06249999999999986122, 1.500000000000000222, 0.000000000000000000 ) ) ;
#27 = ADVANCED_FACE ( 'NONE', ( #85 ), #119, .T. ) ;
#28 = CARTESIAN_POINT ( 'NONE',  ( -0.06250000000000001388, 0.02453738644055896562, 0.000000000000000000 ) ) ;
#29 = DIRECTION ( 'NONE',  ( -1.223378938303813434E-16, 1.000000000000000000, -0.000000000000000000 ) ) ;
#30 = CARTESIAN_POINT ( 'NONE',  ( -0.02000000000000000042, -3.862677762270741067E-34, 0.000000000000000000 ) ) ;
#31 = VECTOR ( 'NONE', #29, 39.37007874015748143 ) ;
#32 = LENGTH_MEASURE_WITH_UNIT ( LENGTH_MEASURE( 0.02539999999999999897 ), #56 );
#33 = DIRECTION ( 'NONE',  ( -1.223378938303813434E-16, 1.000000000000000000, -0.000000000000000000 ) ) ;
#34 = AXIS2_PLACEMENT_3D ( 'NONE', #285, #262, #75 ) ;
#35 = ORIENTED_EDGE ( 'NONE', *, *, #245, .T. ) ;
#36 = UNCERTAINTY_MEASURE_WITH_UNIT (LENGTH_MEASURE( 1.000000000000000082E-05 ), #39, 'distance_accuracy_value', 'NONE');
#37 = ORIENTED_EDGE ( 'NONE', *, *, #256, .T. ) ;
#38 = AXIS2_PLACEMENT_3D ( 'NONE', #14, #236, #184 ) ;
#39 =( CONVERSION_BASED_UNIT ( 'INCH', #180 ) LENGTH_UNIT ( ) NAMED_UNIT ( #142 ) );
#40 = MECHANICAL_DESIGN_GEOMETRIC_PRESENTATION_REPRESENTATION (  '', ( #207 ), #96 ) ;
#41 = DIRECTION ( 'NONE',  ( -1.000000000000000000, -1.365923996832137033E-16, 0.000000000000000000 ) ) ;
#42 = PRESENTATION_LAYER_ASSIGNMENT (  '', '', ( #17 ) ) ;
#43 = AXIS2_PLACEMENT_3D ( 'NONE', #115, #239, #237 ) ;
#44 = DIRECTION ( 'NONE',  ( -1.000000000000000000, -9.656694405676852239E-33, 0.000000000000000000 ) ) ;
#45 = CYLINDRICAL_SURFACE ( 'NONE', #130, 0.06249999999999984041 ) ;
#46 = ADVANCED_FACE ( 'NONE', ( #104 ), #3, .T. ) ;
#47 = DIMENSIONAL_EXPONENTS ( 1.000000000000000000, 0.000000000000000000, 0.000000000000000000, 0.000000000000000000, 0.000000000000000000, 0.000000000000000000, 0.000000000000000000 ) ;
#48 = PLANE ( 'NONE',  #246 ) ;
#49 = AXIS2_PLACEMENT_3D ( 'NONE', #163, #33, #41 ) ;
#50 = UNCERTAINTY_MEASURE_WITH_UNIT (LENGTH_MEASURE( 1.000000000000000082E-05 ), #296, 'distance_accuracy_value', 'NONE');
#51 = CARTESIAN_POINT ( 'NONE',  ( 0.06249999999999997918, 1.500000000000000222, 7.654042494670942137E-18 ) ) ;
#52 = PRODUCT_DEFINITION ( 'UNKNOWN', '', #168, #200 ) ;
#53 = DIMENSIONAL_EXPONENTS ( 1.000000000000000000, 0.000000000000000000, 0.000000000000000000, 0.000000000000000000, 0.000000000000000000, 0.000000000000000000, 0.000000000000000000 ) ;
#54 = DIRECTION ( 'NONE',  ( 1.000000000000000000, 9.656694405676852239E-33, 0.000000000000000000 ) ) ;
#55 = EDGE_CURVE ( 'NONE', #164, #10, #86, .T. ) ;
#56 =( LENGTH_UNIT ( ) NAMED_UNIT ( * ) SI_UNIT ( $, .METRE. ) );
#57 = LENGTH_MEASURE_WITH_UNIT ( LENGTH_MEASURE( 0.02539999999999999897 ), #148 );
#58 = MECHANICAL_DESIGN_GEOMETRIC_PRESENTATION_REPRESENTATION (  '', ( #249 ), #137 ) ;
#59 = CIRCLE ( 'NONE', #38, 0.06250000000000000000 ) ;
#60 =( NAMED_UNIT ( * ) SI_UNIT ( $, .STERADIAN. ) SOLID_ANGLE_UNIT ( ) );
#61 =( LENGTH_UNIT ( ) NAMED_UNIT ( * ) SI_UNIT ( $, .METRE. ) );
#62 = EDGE_LOOP ( 'NONE', ( #109, #269, #186, #271 ) ) ;
#63 = SURFACE_STYLE_FILL_AREA ( #155 ) ;
#64 = ORIENTED_EDGE ( 'NONE', *, *, #123, .T. ) ;
#65 = ORIENTED_EDGE ( 'NONE', *, *, #245, .F. ) ;
#66 = COLOUR_RGB ( '',1.000000000000000000, 0.000000000000000000, 0.000000000000000000 ) ;
#67 = VERTEX_POINT ( 'NONE', #258 ) ;
#68 = CARTESIAN_POINT ( 'NONE',  ( 1.865034936892612844E-66, -1.931338881135370533E-34, 0.000000000000000000 ) ) ;
#69 = ORIENTED_EDGE ( 'NONE', *, *, #8, .T. ) ;
#70 = PRESENTATION_LAYER_ASSIGNMENT (  '', '', ( #295 ) ) ;
#71 = DIRECTION ( 'NONE',  ( -1.223378938303813434E-16, 1.000000000000000000, -0.000000000000000000 ) ) ;
#72 = CLOSED_SHELL ( 'NONE', ( #94, #147, #46, #15 ) ) ;
#73 = EDGE_CURVE ( 'NONE', #113, #67, #220, .T. ) ;
#74 = STYLED_ITEM ( 'NONE', ( #160 ), #46 ) ;
#75 = DIRECTION ( 'NONE',  ( -1.000000000000000000, 0.000000000000000000, 0.000000000000000000 ) ) ;
#76 = DIMENSIONAL_EXPONENTS ( 1.000000000000000000, 0.000000000000000000, 0.000000000000000000, 0.000000000000000000, 0.000000000000000000, 0.000000000000000000, 0.000000000000000000 ) ;
#77 =( LENGTH_UNIT ( ) NAMED_UNIT ( * ) SI_UNIT ( $, .METRE. ) );
#78 = UNCERTAINTY_MEASURE_WITH_UNIT (LENGTH_MEASURE( 1.000000000000000082E-05 ), #12, 'distance_accuracy_value', 'NONE');
#79 = CARTESIAN_POINT ( 'NONE',  ( -0.02000000000000000042, -3.862677762270741067E-34, 0.000000000000000000 ) ) ;
#80 = AXIS2_PLACEMENT_3D ( 'NONE', #103, #279, #44 ) ;
#81 = EDGE_CURVE ( 'NONE', #10, #231, #59, .T. ) ;
#82 = SURFACE_SIDE_STYLE ('',( #243 ) ) ;
#83 = UNCERTAINTY_MEASURE_WITH_UNIT (LENGTH_MEASURE( 1.000000000000000082E-05 ), #151, 'distance_accuracy_value', 'NONE');
#84 = DIRECTION ( 'NONE',  ( -1.223378938303813434E-16, 1.000000000000000000, -0.000000000000000000 ) ) ;
#85 = FACE_OUTER_BOUND ( 'NONE', #62, .T. ) ;
#86 = LINE ( 'NONE', #299, #21 ) ;
#87 = ORIENTED_EDGE ( 'NONE', *, *, #81, .F. ) ;
#88 = DIRECTION ( 'NONE',  ( -9.656694405676853608E-33, 1.000000000000000000, 0.000000000000000000 ) ) ;
#89 =( GEOMETRIC_REPRESENTATION_CONTEXT ( 3 ) GLOBAL_UNCERTAINTY_ASSIGNED_CONTEXT ( ( #83 ) ) GLOBAL_UNIT_ASSIGNED_CONTEXT ( ( #151, #226, #223 ) ) REPRESENTATION_CONTEXT ( 'NONE', 'WORKASPACE' ) );
#90 = ORIENTED_EDGE ( 'NONE', *, *, #227, .F. ) ;
#91 = STYLED_ITEM ( 'NONE', ( #307 ), #147 ) ;
#92 = DIRECTION ( 'NONE',  ( 1.000000000000000000, 9.656694405676852239E-33, 0.000000000000000000 ) ) ;
#93 = DIRECTION ( 'NONE',  ( 1.000000000000000000, 0.000000000000000000, 0.000000000000000000 ) ) ;
#94 = ADVANCED_FACE ( 'NONE', ( #252 ), #225, .T. ) ;
#95 = SURFACE_STYLE_USAGE ( .BOTH. , #22 ) ;
#96 =( GEOMETRIC_REPRESENTATION_CONTEXT ( 3 ) GLOBAL_UNCERTAINTY_ASSIGNED_CONTEXT ( ( #230 ) ) GLOBAL_UNIT_ASSIGNED_CONTEXT ( ( #178, #201, #263 ) ) REPRESENTATION_CONTEXT ( 'NONE', 'WORKASPACE' ) );
#97 = COLOUR_RGB ( '',1.000000000000000000, 0.000000000000000000, 0.000000000000000000 ) ;
#98 = CARTESIAN_POINT ( 'NONE',  ( -0.06249999999999977796, 1.500000000000000222, 0.000000000000000000 ) ) ;
#99 = VECTOR ( 'NONE', #248, 39.37007874015748854 ) ;
#100 = DIRECTION ( 'NONE',  ( 1.000000000000000000, 1.223378938303813434E-16, 0.000000000000000000 ) ) ;
#101 = ORIENTED_EDGE ( 'NONE', *, *, #309, .T. ) ;
#102 = ADVANCED_FACE ( 'NONE', ( #140 ), #260, .F. ) ;
#103 = CARTESIAN_POINT ( 'NONE',  ( 1.865034936892612844E-66, -1.931338881135370533E-34, 0.000000000000000000 ) ) ;
#104 = FACE_OUTER_BOUND ( 'NONE', #16, .T. ) ;
#105 = EDGE_LOOP ( 'NONE', ( #65, #253, #234, #157 ) ) ;
#106 = FILL_AREA_STYLE ('',( #190 ) ) ;
#107 = SURFACE_STYLE_USAGE ( .BOTH. , #228 ) ;
#108 = COLOUR_RGB ( '',0.7921568627450980005, 0.8196078431372548767, 0.9333333333333333481 ) ;
#109 = ORIENTED_EDGE ( 'NONE', *, *, #73, .T. ) ;
#110 = FACE_OUTER_BOUND ( 'NONE', #177, .T. ) ;
#111 = CARTESIAN_POINT ( 'NONE',  ( 9.325174684463064220E-67, -9.656694405676852667E-35, 0.000000000000000000 ) ) ;
#112 = SURFACE_STYLE_USAGE ( .BOTH. , #19 ) ;
#113 = VERTEX_POINT ( 'NONE', #20 ) ;
#114 = COLOUR_RGB ( '',1.000000000000000000, 0.000000000000000000, 0.000000000000000000 ) ;
#115 = CARTESIAN_POINT ( 'NONE',  ( 2.417373285256995277E-16, 0.02453738644055896215, 0.000000000000000000 ) ) ;
#116 = DIRECTION ( 'NONE',  ( 1.000000000000000000, 9.656694405676853608E-33, 0.000000000000000000 ) ) ;
#117 = FILL_AREA_STYLE ('',( #215 ) ) ;
#118 = CARTESIAN_POINT ( 'NONE',  ( 0.06249999999999989592, 1.500000000000000222, 7.654042494670937515E-18 ) ) ;
#119 = CYLINDRICAL_SURFACE ( 'NONE', #121, 0.06249999999999984041 ) ;
#120 = DIMENSIONAL_EXPONENTS ( 1.000000000000000000, 0.000000000000000000, 0.000000000000000000, 0.000000000000000000, 0.000000000000000000, 0.000000000000000000, 0.000000000000000000 ) ;
#121 = AXIS2_PLACEMENT_3D ( 'NONE', #274, #294, #11 ) ;
#122 = DIRECTION ( 'NONE',  ( 9.656694405676853608E-33, -1.000000000000000000, -0.000000000000000000 ) ) ;
#123 = EDGE_CURVE ( 'NONE', #250, #182, #187, .T. ) ;
#124 = FILL_AREA_STYLE ('',( #291 ) ) ;
#125 = PRODUCT_DEFINITION_SHAPE ( 'NONE', 'NONE',  #52 ) ;
#126 = CIRCLE ( 'NONE', #25, 0.02000000000000000042 ) ;
#127 = CARTESIAN_POINT ( 'NONE',  ( -2.369500423704768587E-34, 0.02453738644055896562, 0.000000000000000000 ) ) ;
#128 = ADVANCED_FACE ( 'NONE', ( #110 ), #45, .T. ) ;
#129 = ORIENTED_EDGE ( 'NONE', *, *, #8, .F. ) ;
#130 = AXIS2_PLACEMENT_3D ( 'NONE', #166, #23, #280 ) ;
#131 = SURFACE_STYLE_FILL_AREA ( #106 ) ;
#132 = DIRECTION ( 'NONE',  ( 0.8660254037844397068, 0.4999999999999979461, 1.060575238724908024E-16 ) ) ;
#133 = LENGTH_MEASURE_WITH_UNIT ( LENGTH_MEASURE( 0.02539999999999999897 ), #61 );
#134 =( NAMED_UNIT ( * ) PLANE_ANGLE_UNIT ( ) SI_UNIT ( $, .RADIAN. ) );
#135 = ORIENTED_EDGE ( 'NONE', *, *, #272, .F. ) ;
#136 =( LENGTH_UNIT ( ) NAMED_UNIT ( * ) SI_UNIT ( $, .METRE. ) );
#137 =( GEOMETRIC_REPRESENTATION_CONTEXT ( 3 ) GLOBAL_UNCERTAINTY_ASSIGNED_CONTEXT ( ( #78 ) ) GLOBAL_UNIT_ASSIGNED_CONTEXT ( ( #12, #304, #189 ) ) REPRESENTATION_CONTEXT ( 'NONE', 'WORKASPACE' ) );
#138 = CARTESIAN_POINT ( 'NONE',  ( 1.865034936892612844E-66, -1.931338881135370533E-34, 0.000000000000000000 ) ) ;
#139 = APPLICATION_PROTOCOL_DEFINITION ( 'draft international standard', 'automotive_design', 1998, #287 ) ;
#140 = FACE_OUTER_BOUND ( 'NONE', #255, .T. ) ;
#141 = DIRECTION ( 'NONE',  ( -1.000000000000000000, -9.656694405676853608E-33, 0.000000000000000000 ) ) ;
#142 = DIMENSIONAL_EXPONENTS ( 1.000000000000000000, 0.000000000000000000, 0.000000000000000000, 0.000000000000000000, 0.000000000000000000, 0.000000000000000000, 0.000000000000000000 ) ;
#143 = DIRECTION ( 'NONE',  ( -1.000000000000000000, 0.000000000000000000, 0.000000000000000000 ) ) ;
#144 = PRODUCT ( '84591', '84591', '', ( #165 ) ) ;
#145 = LINE ( 'NONE', #98, #1 ) ;
#146 =( CONVERSION_BASED_UNIT ( 'INCH', #57 ) LENGTH_UNIT ( ) NAMED_UNIT ( #120 ) );
#147 = ADVANCED_FACE ( 'NONE', ( #283 ), #48, .T. ) ;
#148 =( LENGTH_UNIT ( ) NAMED_UNIT ( * ) SI_UNIT ( $, .METRE. ) );
#149 = UNCERTAINTY_MEASURE_WITH_UNIT (LENGTH_MEASURE( 1.000000000000000082E-05 ), #167, 'distance_accuracy_value', 'NONE');
#150 =( NAMED_UNIT ( * ) SI_UNIT ( $, .STERADIAN. ) SOLID_ANGLE_UNIT ( ) );
#151 =( CONVERSION_BASED_UNIT ( 'INCH', #32 ) LENGTH_UNIT ( ) NAMED_UNIT ( #241 ) );
#152 = COLOUR_RGB ( '',0.7921568627450980005, 0.8196078431372548767, 0.9333333333333333481 ) ;
#153 = COLOUR_RGB ( '',1.000000000000000000, 0.000000000000000000, 0.000000000000000000 ) ;
#154 = MECHANICAL_DESIGN_GEOMETRIC_PRESENTATION_REPRESENTATION (  '', ( #74 ), #5 ) ;
#155 = FILL_AREA_STYLE ('',( #208 ) ) ;
#156 = ORIENTED_EDGE ( 'NONE', *, *, #175, .F. ) ;
#157 = ORIENTED_EDGE ( 'NONE', *, *, #309, .F. ) ;
#158 = SURFACE_STYLE_FILL_AREA ( #273 ) ;
#159 = PLANE ( 'NONE',  #179 ) ;
#160 = PRESENTATION_STYLE_ASSIGNMENT (( #6 ) ) ;
#161 = DIRECTION ( 'NONE',  ( 9.656694405676853608E-33, -1.000000000000000000, -0.000000000000000000 ) ) ;
#162 = AXIS2_PLACEMENT_3D ( 'NONE', #176, #84, #265 ) ;
#163 = CARTESIAN_POINT ( 'NONE',  ( 2.417373285256995277E-16, 0.02453738644055890664, 0.000000000000000000 ) ) ;
#164 = VERTEX_POINT ( 'NONE', #193 ) ;
#165 = PRODUCT_CONTEXT ( 'NONE', #298, 'mechanical' ) ;
#166 = CARTESIAN_POINT ( 'NONE',  ( 6.123233995736763571E-17, 1.500000000000000222, 0.000000000000000000 ) ) ;
#167 =( CONVERSION_BASED_UNIT ( 'INCH', #18 ) LENGTH_UNIT ( ) NAMED_UNIT ( #53 ) );
#168 = PRODUCT_DEFINITION_FORMATION_WITH_SPECIFIED_SOURCE ( 'ANY', '', #144, .NOT_KNOWN. ) ;
#169 = CARTESIAN_POINT ( 'NONE',  ( -2.369500423704768587E-34, 0.02453738644055896562, 0.000000000000000000 ) ) ;
#170 = ADVANCED_BREP_SHAPE_REPRESENTATION ( '84591', ( #229, #24, #251 ), #202 ) ;
#171 = DIRECTION ( 'NONE',  ( 1.000000000000000000, 0.000000000000000000, 0.000000000000000000 ) ) ;
#172 = PRESENTATION_STYLE_ASSIGNMENT (( #95 ) ) ;
#173 = AXIS2_PLACEMENT_3D ( 'NONE', #127, #292, #171 ) ;
#174 = FACE_OUTER_BOUND ( 'NONE', #212, .T. ) ;
#175 = EDGE_CURVE ( 'NONE', #182, #250, #13, .T. ) ;
#176 = CARTESIAN_POINT ( 'NONE',  ( 2.417373285256995277E-16, 0.02453738644055890664, 0.000000000000000000 ) ) ;
#177 = EDGE_LOOP ( 'NONE', ( #90, #302, #183, #156 ) ) ;
#178 =( CONVERSION_BASED_UNIT ( 'INCH', #222 ) LENGTH_UNIT ( ) NAMED_UNIT ( #76 ) );
#179 = AXIS2_PLACEMENT_3D ( 'NONE', #111, #281, #116 ) ;
#180 = LENGTH_MEASURE_WITH_UNIT ( LENGTH_MEASURE( 0.02539999999999999897 ), #136 );
#181 =( LENGTH_UNIT ( ) NAMED_UNIT ( * ) SI_UNIT ( $, .METRE. ) );
#182 = VERTEX_POINT ( 'NONE', #51 ) ;
#183 = ORIENTED_EDGE ( 'NONE', *, *, #209, .T. ) ;
#184 = DIRECTION ( 'NONE',  ( 1.000000000000000000, 0.000000000000000000, 0.000000000000000000 ) ) ;
#185 = AXIS2_PLACEMENT_3D ( 'NONE', #68, #88, #268 ) ;
#186 = ORIENTED_EDGE ( 'NONE', *, *, #123, .F. ) ;
#187 = CIRCLE ( 'NONE', #217, 0.06249999999999992367 ) ;
#188 =( NAMED_UNIT ( * ) PLANE_ANGLE_UNIT ( ) SI_UNIT ( $, .RADIAN. ) );
#189 =( NAMED_UNIT ( * ) SI_UNIT ( $, .STERADIAN. ) SOLID_ANGLE_UNIT ( ) );
#190 = FILL_AREA_STYLE_COLOUR ( '', #153 ) ;
#191 = DIRECTION ( 'NONE',  ( -9.656694405676853608E-33, 1.000000000000000000, 0.000000000000000000 ) ) ;
#192 =( NAMED_UNIT ( * ) SI_UNIT ( $, .STERADIAN. ) SOLID_ANGLE_UNIT ( ) );
#193 = CARTESIAN_POINT ( 'NONE',  ( 0.02000000000000000042, 0.000000000000000000, 5.051668046482832349E-18 ) ) ;
#194 = PLANE ( 'NONE',  #293 ) ;
#195 = MECHANICAL_DESIGN_GEOMETRIC_PRESENTATION_REPRESENTATION (  '', ( #91 ), #282 ) ;
#196 = CARTESIAN_POINT ( 'NONE',  ( 1.865034936892612844E-66, -1.931338881135370533E-34, 0.000000000000000000 ) ) ;
#197 = PRESENTATION_LAYER_ASSIGNMENT (  '', '', ( #91 ) ) ;
#198 = PRODUCT_RELATED_PRODUCT_CATEGORY ( 'part', '', ( #144 ) ) ;
#199 = ORIENTED_EDGE ( 'NONE', *, *, #175, .T. ) ;
#200 = PRODUCT_DEFINITION_CONTEXT ( 'detailed design', #287, 'design' ) ;
#201 =( NAMED_UNIT ( * ) PLANE_ANGLE_UNIT ( ) SI_UNIT ( $, .RADIAN. ) );
#202 =( GEOMETRIC_REPRESENTATION_CONTEXT ( 3 ) GLOBAL_UNCERTAINTY_ASSIGNED_CONTEXT ( ( #247 ) ) GLOBAL_UNIT_ASSIGNED_CONTEXT ( ( #146, #244, #150 ) ) REPRESENTATION_CONTEXT ( 'NONE', 'WORKASPACE' ) );
#203 = CARTESIAN_POINT ( 'NONE',  ( 0.000000000000000000, 0.000000000000000000, 0.000000000000000000 ) ) ;
#204 = SURFACE_STYLE_USAGE ( .BOTH. , #211 ) ;
#205 = ORIENTED_EDGE ( 'NONE', *, *, #256, .F. ) ;
#206 = PRESENTATION_STYLE_ASSIGNMENT (( #107 ) ) ;
#207 = STYLED_ITEM ( 'NONE', ( #242 ), #229 ) ;
#208 = FILL_AREA_STYLE_COLOUR ( '', #97 ) ;
#209 = EDGE_CURVE ( 'NONE', #113, #250, #145, .T. ) ;
#210 = ORIENTED_EDGE ( 'NONE', *, *, #73, .F. ) ;
#211 = SURFACE_SIDE_STYLE ('',( #63 ) ) ;
#212 = EDGE_LOOP ( 'NONE', ( #64, #199 ) ) ;
#213 = SHAPE_DEFINITION_REPRESENTATION ( #125, #170 ) ;
#214 =( LENGTH_UNIT ( ) NAMED_UNIT ( * ) SI_UNIT ( $, .METRE. ) );
#215 = FILL_AREA_STYLE_COLOUR ( '', #114 ) ;
#216 = SURFACE_STYLE_FILL_AREA ( #259 ) ;
#217 = AXIS2_PLACEMENT_3D ( 'NONE', #240, #71, #143 ) ;
#218 = SURFACE_STYLE_FILL_AREA ( #117 ) ;
#219 = LINE ( 'NONE', #118, #31 ) ;
#220 = CIRCLE ( 'NONE', #49, 0.06249999999999975020 ) ;
#221 = CARTESIAN_POINT ( 'NONE',  ( 0.06249999999999997918, 1.500000000000000222, 0.000000000000000000 ) ) ;
#222 = LENGTH_MEASURE_WITH_UNIT ( LENGTH_MEASURE( 0.02539999999999999897 ), #77 );
#223 =( NAMED_UNIT ( * ) SI_UNIT ( $, .STERADIAN. ) SOLID_ANGLE_UNIT ( ) );
#224 = DIRECTION ( 'NONE',  ( 1.223378938303813434E-16, -1.000000000000000000, 0.000000000000000000 ) ) ;
#225 = CONICAL_SURFACE ( 'NONE', #80, 0.02000000000000000042, 1.047197551196600074 ) ;
#226 =( NAMED_UNIT ( * ) PLANE_ANGLE_UNIT ( ) SI_UNIT ( $, .RADIAN. ) );
#227 = EDGE_CURVE ( 'NONE', #67, #182, #219, .T. ) ;
#228 = SURFACE_SIDE_STYLE ('',( #131 ) ) ;
#229 = MANIFOLD_SOLID_BREP ( 'Revolve - Cutting Edge', #72 ) ;
#230 = UNCERTAINTY_MEASURE_WITH_UNIT (LENGTH_MEASURE( 1.000000000000000082E-05 ), #178, 'distance_accuracy_value', 'NONE');
#231 = VERTEX_POINT ( 'NONE', #28 ) ;
#232 =( NAMED_UNIT ( * ) SI_UNIT ( $, .STERADIAN. ) SOLID_ANGLE_UNIT ( ) );
#233 = EDGE_LOOP ( 'NONE', ( #69, #35 ) ) ;
#234 = ORIENTED_EDGE ( 'NONE', *, *, #81, .T. ) ;
#235 = CLOSED_SHELL ( 'NONE', ( #27, #102, #128, #264 ) ) ;
#236 = DIRECTION ( 'NONE',  ( 9.656694405676853608E-33, -1.000000000000000000, -0.000000000000000000 ) ) ;
#237 = DIRECTION ( 'NONE',  ( -1.000000000000000000, -1.223378938303813434E-16, 0.000000000000000000 ) ) ;
#238 = CIRCLE ( 'NONE', #173, 0.06250000000000000000 ) ;
#239 = DIRECTION ( 'NONE',  ( -1.223378938303813434E-16, 1.000000000000000000, 0.000000000000000000 ) ) ;
#240 = CARTESIAN_POINT ( 'NONE',  ( 6.123233995736763571E-17, 1.500000000000000222, 0.000000000000000000 ) ) ;
#241 = DIMENSIONAL_EXPONENTS ( 1.000000000000000000, 0.000000000000000000, 0.000000000000000000, 0.000000000000000000, 0.000000000000000000, 0.000000000000000000, 0.000000000000000000 ) ;
#242 = PRESENTATION_STYLE_ASSIGNMENT (( #288 ) ) ;
#243 = SURFACE_STYLE_FILL_AREA ( #124 ) ;
#244 =( NAMED_UNIT ( * ) PLANE_ANGLE_UNIT ( ) SI_UNIT ( $, .RADIAN. ) );
#245 = EDGE_CURVE ( 'NONE', #164, #297, #126, .T. ) ;
#246 = AXIS2_PLACEMENT_3D ( 'NONE', #169, #191, #141 ) ;
#247 = UNCERTAINTY_MEASURE_WITH_UNIT (LENGTH_MEASURE( 1.000000000000000082E-05 ), #146, 'distance_accuracy_value', 'NONE');
#248 = DIRECTION ( 'NONE',  ( -0.8660254037844397068, 0.4999999999999979461, 0.000000000000000000 ) ) ;
#249 = STYLED_ITEM ( 'NONE', ( #206 ), #15 ) ;
#250 = VERTEX_POINT ( 'NONE', #26 ) ;
#251 = AXIS2_PLACEMENT_3D ( 'NONE', #203, #277, #93 ) ;
#252 = FACE_OUTER_BOUND ( 'NONE', #105, .T. ) ;
#253 = ORIENTED_EDGE ( 'NONE', *, *, #55, .T. ) ;
#254 = FILL_AREA_STYLE_COLOUR ( '', #66 ) ;
#255 = EDGE_LOOP ( 'NONE', ( #210, #135 ) ) ;
#256 = EDGE_CURVE ( 'NONE', #231, #10, #238, .T. ) ;
#257 = FACE_OUTER_BOUND ( 'NONE', #233, .T. ) ;
#258 = CARTESIAN_POINT ( 'NONE',  ( 0.06249999999999999306, 0.02453738644055891358, 7.654042494670942137E-18 ) ) ;
#259 = FILL_AREA_STYLE ('',( #278 ) ) ;
#260 = PLANE ( 'NONE',  #43 ) ;
#261 = CIRCLE ( 'NONE', #303, 0.02000000000000000042 ) ;
#262 = DIRECTION ( 'NONE',  ( -1.223378938303813434E-16, 1.000000000000000000, -0.000000000000000000 ) ) ;
#263 =( NAMED_UNIT ( * ) SI_UNIT ( $, .STERADIAN. ) SOLID_ANGLE_UNIT ( ) );
#264 = ADVANCED_FACE ( 'NONE', ( #174 ), #194, .F. ) ;
#265 = DIRECTION ( 'NONE',  ( -1.000000000000000000, -1.365923996832137033E-16, 0.000000000000000000 ) ) ;
#266 = PRESENTATION_LAYER_ASSIGNMENT (  '', '', ( #249 ) ) ;
#267 = MECHANICAL_DESIGN_GEOMETRIC_PRESENTATION_REPRESENTATION (  '', ( #295 ), #290 ) ;
#268 = DIRECTION ( 'NONE',  ( -1.000000000000000000, -9.656694405676852239E-33, 0.000000000000000000 ) ) ;
#269 = ORIENTED_EDGE ( 'NONE', *, *, #227, .T. ) ;
#270 = PRESENTATION_STYLE_ASSIGNMENT (( #204 ) ) ;
#271 = ORIENTED_EDGE ( 'NONE', *, *, #209, .F. ) ;
#272 = EDGE_CURVE ( 'NONE', #67, #113, #300, .T. ) ;
#273 = FILL_AREA_STYLE ('',( #254 ) ) ;
#274 = CARTESIAN_POINT ( 'NONE',  ( 6.123233995736763571E-17, 1.500000000000000222, 0.000000000000000000 ) ) ;
#275 = EDGE_LOOP ( 'NONE', ( #205, #87 ) ) ;
#276 = PRESENTATION_LAYER_ASSIGNMENT (  '', '', ( #207 ) ) ;
#277 = DIRECTION ( 'NONE',  ( 0.000000000000000000, 0.000000000000000000, 1.000000000000000000 ) ) ;
#278 = FILL_AREA_STYLE_COLOUR ( '', #108 ) ;
#279 = DIRECTION ( 'NONE',  ( -9.656694405676853608E-33, 1.000000000000000000, 0.000000000000000000 ) ) ;
#280 = DIRECTION ( 'NONE',  ( -1.000000000000000000, 0.000000000000000000, 0.000000000000000000 ) ) ;
#281 = DIRECTION ( 'NONE',  ( 9.656694405676853608E-33, -1.000000000000000000, -0.000000000000000000 ) ) ;
#282 =( GEOMETRIC_REPRESENTATION_CONTEXT ( 3 ) GLOBAL_UNCERTAINTY_ASSIGNED_CONTEXT ( ( #149 ) ) GLOBAL_UNIT_ASSIGNED_CONTEXT ( ( #167, #306, #192 ) ) REPRESENTATION_CONTEXT ( 'NONE', 'WORKASPACE' ) );
#283 = FACE_OUTER_BOUND ( 'NONE', #275, .T. ) ;
#284 = MECHANICAL_DESIGN_GEOMETRIC_PRESENTATION_REPRESENTATION (  '', ( #17 ), #89 ) ;
#285 = CARTESIAN_POINT ( 'NONE',  ( 6.123233995736763571E-17, 1.500000000000000222, 0.000000000000000000 ) ) ;
#286 = PRESENTATION_LAYER_ASSIGNMENT (  '', '', ( #74 ) ) ;
#287 = APPLICATION_CONTEXT ( 'automotive_design' ) ;
#288 = SURFACE_STYLE_USAGE ( .BOTH. , #82 ) ;
#289 = DIRECTION ( 'NONE',  ( -1.223378938303813434E-16, 1.000000000000000000, -0.000000000000000000 ) ) ;
#290 =( GEOMETRIC_REPRESENTATION_CONTEXT ( 3 ) GLOBAL_UNCERTAINTY_ASSIGNED_CONTEXT ( ( #50 ) ) GLOBAL_UNIT_ASSIGNED_CONTEXT ( ( #296, #134, #232 ) ) REPRESENTATION_CONTEXT ( 'NONE', 'WORKASPACE' ) );
#291 = FILL_AREA_STYLE_COLOUR ( '', #152 ) ;
#292 = DIRECTION ( 'NONE',  ( 9.656694405676853608E-33, -1.000000000000000000, -0.000000000000000000 ) ) ;
#293 = AXIS2_PLACEMENT_3D ( 'NONE', #221, #224, #100 ) ;
#294 = DIRECTION ( 'NONE',  ( -1.223378938303813434E-16, 1.000000000000000000, -0.000000000000000000 ) ) ;
#295 = STYLED_ITEM ( 'NONE', ( #270 ), #94 ) ;
#296 =( CONVERSION_BASED_UNIT ( 'INCH', #9 ) LENGTH_UNIT ( ) NAMED_UNIT ( #2 ) );
#297 = VERTEX_POINT ( 'NONE', #79 ) ;
#298 = APPLICATION_CONTEXT ( 'automotive_design' ) ;
#299 = CARTESIAN_POINT ( 'NONE',  ( 0.02000000000000000042, 0.000000000000000000, 2.449293598294706769E-18 ) ) ;
#300 = CIRCLE ( 'NONE', #162, 0.06249999999999975020 ) ;
#301 = SURFACE_SIDE_STYLE ('',( #158 ) ) ;
#302 = ORIENTED_EDGE ( 'NONE', *, *, #272, .T. ) ;
#303 = AXIS2_PLACEMENT_3D ( 'NONE', #138, #161, #92 ) ;
#304 =( NAMED_UNIT ( * ) PLANE_ANGLE_UNIT ( ) SI_UNIT ( $, .RADIAN. ) );
#305 = ORIENTED_EDGE ( 'NONE', *, *, #55, .F. ) ;
#306 =( NAMED_UNIT ( * ) PLANE_ANGLE_UNIT ( ) SI_UNIT ( $, .RADIAN. ) );
#307 = PRESENTATION_STYLE_ASSIGNMENT (( #112 ) ) ;
#308 = APPLICATION_PROTOCOL_DEFINITION ( 'draft international standard', 'automotive_design', 1998, #298 ) ;
#309 = EDGE_CURVE ( 'NONE', #297, #231, #4, .T. ) ;
ENDSEC;
END-ISO-10303-21;
