ISO-10303-21;
HEADER;
FILE_DESCRIPTION (( 'STEP AP214' ),
    '1' );
FILE_NAME ('Micro_BEM-281-04X.STEP',
    '2021-09-03T13:10:28',
    ( '' ),
    ( '' ),
    'SwSTEP 2.0',
    'SolidWorks 2020',
    '' );
FILE_SCHEMA (( 'AUTOMOTIVE_DESIGN' ));
ENDSEC;

DATA;
#1 = DIRECTION ( 'NONE',  ( -0.0000000000000000000, -0.0000000000000000000, -1.000000000000000000 ) ) ;
#2 = AXIS2_PLACEMENT_3D ( 'NONE', #85, #185, #210 ) ;
#3 = FILL_AREA_STYLE ('',( #151 ) ) ;
#4 = ORIENTED_EDGE ( 'NONE', *, *, #141, .T. ) ;
#5 = ADVANCED_FACE ( 'NONE', ( #161 ), #87, .T. ) ;
#6 = ORIENTED_EDGE ( 'NONE', *, *, #95, .F. ) ;
#7 = DIRECTION ( 'NONE',  ( -1.000000000000000000, 0.0000000000000000000, 0.0000000000000000000 ) ) ;
#8 = ORIENTED_EDGE ( 'NONE', *, *, #159, .F. ) ;
#9 = ORIENTED_EDGE ( 'NONE', *, *, #247, .T. ) ;
#10 = APPLICATION_CONTEXT ( 'automotive_design' ) ;
#11 = EDGE_LOOP ( 'NONE', ( #224, #202 ) ) ;
#12 = PRODUCT ( 'Micro_BEM-281-04X', 'Micro_BEM-281-04X', '', ( #61 ) ) ;
#13 = FACE_OUTER_BOUND ( 'NONE', #170, .T. ) ;
#14 = APPLICATION_PROTOCOL_DEFINITION ( 'draft international standard', 'automotive_design', 1998, #10 ) ;
#15 = CARTESIAN_POINT ( 'NONE',  ( 0.0000000000000000000, 0.0000000000000000000, 2.484999999999999432 ) ) ;
#16 = SHAPE_DEFINITION_REPRESENTATION ( #54, #268 ) ;
#17 = DIRECTION ( 'NONE',  ( 0.0000000000000000000, 0.0000000000000000000, 1.000000000000000000 ) ) ;
#18 = VECTOR ( 'NONE', #101, 39.37007874015748854 ) ;
#19 = DIRECTION ( 'NONE',  ( 0.0000000000000000000, 1.000000000000000000, 0.0000000000000000000 ) ) ;
#20 = CARTESIAN_POINT ( 'NONE',  ( -0.1562499999999999167, 0.0000000000000000000, 0.8395529427008548984 ) ) ;
#21 = CLOSED_SHELL ( 'NONE', ( #45, #316, #219, #309, #254, #264, #91, #5, #199, #22, #255 ) ) ;
#22 = ADVANCED_FACE ( 'NONE', ( #308 ), #313, .T. ) ;
#23 = CARTESIAN_POINT ( 'NONE',  ( 1.028155823993343290E-16, 0.0000000000000000000, 0.8395529427008548984 ) ) ;
#24 = LINE ( 'NONE', #215, #43 ) ;
#25 = DIRECTION ( 'NONE',  ( 0.7071067811865410224, 8.659560562354852739E-17, -0.7071067811865539010 ) ) ;
#26 = EDGE_CURVE ( 'NONE', #78, #281, #172, .T. ) ;
#27 = VERTEX_POINT ( 'NONE', #288 ) ;
#28 = DIRECTION ( 'NONE',  ( -1.224646799147353207E-16, -0.0000000000000000000, -1.000000000000000000 ) ) ;
#29 = ORIENTED_EDGE ( 'NONE', *, *, #104, .T. ) ;
#30 = ORIENTED_EDGE ( 'NONE', *, *, #284, .F. ) ;
#31 = EDGE_LOOP ( 'NONE', ( #195, #245, #280, #33 ) ) ;
#32 = CARTESIAN_POINT ( 'NONE',  ( 0.1404594000000000120, 1.720131546201577623E-17, -1.720131546201577623E-17 ) ) ;
#33 = ORIENTED_EDGE ( 'NONE', *, *, #154, .F. ) ;
#34 = PLANE ( 'NONE',  #223 ) ;
#35 = LINE ( 'NONE', #133, #227 ) ;
#36 = AXIS2_PLACEMENT_3D ( 'NONE', #119, #191, #265 ) ;
#37 = AXIS2_PLACEMENT_3D ( 'NONE', #60, #256, #136 ) ;
#38 = STYLED_ITEM ( 'NONE', ( #55 ), #268 ) ;
#39 = DIRECTION ( 'NONE',  ( -1.224646799147353207E-16, -0.0000000000000000000, -1.000000000000000000 ) ) ;
#40 = APPLICATION_PROTOCOL_DEFINITION ( 'draft international standard', 'automotive_design', 1998, #221 ) ;
#41 = DIRECTION ( 'NONE',  ( 1.000000000000000000, 0.0000000000000000000, 0.0000000000000000000 ) ) ;
#42 = DIRECTION ( 'NONE',  ( 0.1736481776669313026, 0.0000000000000000000, 0.9848077530122077983 ) ) ;
#43 = VECTOR ( 'NONE', #25, 39.37007874015748854 ) ;
#44 = FACE_OUTER_BOUND ( 'NONE', #102, .T. ) ;
#45 = ADVANCED_FACE ( 'NONE', ( #13 ), #262, .T. ) ;
#46 =( NAMED_UNIT ( * ) PLANE_ANGLE_UNIT ( ) SI_UNIT ( $, .RADIAN. ) );
#47 = DIRECTION ( 'NONE',  ( -1.224646799147353207E-16, -0.0000000000000000000, -1.000000000000000000 ) ) ;
#48 =( GEOMETRIC_REPRESENTATION_CONTEXT ( 3 ) GLOBAL_UNCERTAINTY_ASSIGNED_CONTEXT ( ( #114 ) ) GLOBAL_UNIT_ASSIGNED_CONTEXT ( ( #167, #46, #211 ) ) REPRESENTATION_CONTEXT ( 'NONE', 'WORKASPACE' ) );
#49 = ORIENTED_EDGE ( 'NONE', *, *, #153, .T. ) ;
#50 = CIRCLE ( 'NONE', #299, 0.1404594000000000120 ) ;
#51 = SURFACE_STYLE_FILL_AREA ( #3 ) ;
#52 = EDGE_LOOP ( 'NONE', ( #58, #246, #4, #9 ) ) ;
#53 = VERTEX_POINT ( 'NONE', #226 ) ;
#54 = PRODUCT_DEFINITION_SHAPE ( 'NONE', 'NONE',  #323 ) ;
#55 = PRESENTATION_STYLE_ASSIGNMENT (( #169 ) ) ;
#56 = VERTEX_POINT ( 'NONE', #65 ) ;
#57 = AXIS2_PLACEMENT_3D ( 'NONE', #90, #239, #240 ) ;
#58 = ORIENTED_EDGE ( 'NONE', *, *, #104, .F. ) ;
#59 = CARTESIAN_POINT ( 'NONE',  ( 0.0000000000000000000, 0.0000000000000000000, 2.500000000000000000 ) ) ;
#60 = CARTESIAN_POINT ( 'NONE',  ( 0.0000000000000000000, 0.0000000000000000000, 2.484999999999999432 ) ) ;
#61 = PRODUCT_CONTEXT ( 'NONE', #10, 'mechanical' ) ;
#62 = AXIS2_PLACEMENT_3D ( 'NONE', #15, #108, #83 ) ;
#63 = LINE ( 'NONE', #182, #292 ) ;
#64 = EDGE_CURVE ( 'NONE', #78, #252, #233, .T. ) ;
#65 = CARTESIAN_POINT ( 'NONE',  ( 0.1412499999999994871, 1.821662113731684786E-17, 2.500000000000000000 ) ) ;
#66 = FACE_OUTER_BOUND ( 'NONE', #11, .T. ) ;
#67 = COLOUR_RGB ( '',0.7921568627450980005, 0.8196078431372548767, 0.9333333333333333481 ) ;
#68 = CYLINDRICAL_SURFACE ( 'NONE', #36, 0.1562500000000000000 ) ;
#69 = DIRECTION ( 'NONE',  ( 1.000000000000000000, 0.0000000000000000000, 0.0000000000000000000 ) ) ;
#70 = CIRCLE ( 'NONE', #88, 0.1412499999999994871 ) ;
#71 =( LENGTH_UNIT ( ) NAMED_UNIT ( * ) SI_UNIT ( $, .METRE. ) );
#72 =( NAMED_UNIT ( * ) PLANE_ANGLE_UNIT ( ) SI_UNIT ( $, .RADIAN. ) );
#73 = ORIENTED_EDGE ( 'NONE', *, *, #26, .F. ) ;
#74 = EDGE_CURVE ( 'NONE', #306, #103, #298, .T. ) ;
#75 = PRESENTATION_LAYER_ASSIGNMENT (  '', '', ( #38 ) ) ;
#76 = ORIENTED_EDGE ( 'NONE', *, *, #272, .F. ) ;
#77 = DIRECTION ( 'NONE',  ( -1.224646799147353207E-16, -0.0000000000000000000, -1.000000000000000000 ) ) ;
#78 = VERTEX_POINT ( 'NONE', #232 ) ;
#79 = ORIENTED_EDGE ( 'NONE', *, *, #64, .F. ) ;
#80 = AXIS2_PLACEMENT_3D ( 'NONE', #183, #111, #209 ) ;
#81 = CARTESIAN_POINT ( 'NONE',  ( 0.0000000000000000000, 0.0000000000000000000, 0.0000000000000000000 ) ) ;
#82 = DIRECTION ( 'NONE',  ( -1.000000000000000000, 0.0000000000000000000, 1.215586138086994854E-16 ) ) ;
#83 = DIRECTION ( 'NONE',  ( 1.000000000000000000, 0.0000000000000000000, 0.0000000000000000000 ) ) ;
#84 = DIRECTION ( 'NONE',  ( 1.000000000000000000, 0.0000000000000000000, 0.0000000000000000000 ) ) ;
#85 = CARTESIAN_POINT ( 'NONE',  ( 9.184850993605150903E-17, 0.0000000000000000000, 0.7500000000000001110 ) ) ;
#86 = CARTESIAN_POINT ( 'NONE',  ( 1.720131546201577623E-17, 0.0000000000000000000, 0.1404594000000000120 ) ) ;
#87 = CONICAL_SURFACE ( 'NONE', #319, 0.1412499999999994871, 0.7853981633974391752 ) ;
#88 = AXIS2_PLACEMENT_3D ( 'NONE', #59, #184, #257 ) ;
#89 = CARTESIAN_POINT ( 'NONE',  ( 0.1562500000000000000, 1.913510623667739463E-17, 2.500000000000000000 ) ) ;
#90 = CARTESIAN_POINT ( 'NONE',  ( 1.720131546201577623E-17, 0.0000000000000000000, 0.1404594000000000120 ) ) ;
#91 = ADVANCED_FACE ( 'NONE', ( #66 ), #34, .T. ) ;
#92 = AXIS2_PLACEMENT_3D ( 'NONE', #194, #77, #251 ) ;
#93 = SURFACE_SIDE_STYLE ('',( #267 ) ) ;
#94 = ORIENTED_EDGE ( 'NONE', *, *, #141, .F. ) ;
#95 = EDGE_CURVE ( 'NONE', #53, #225, #237, .T. ) ;
#96 =( LENGTH_UNIT ( ) NAMED_UNIT ( * ) SI_UNIT ( $, .METRE. ) );
#97 = EDGE_LOOP ( 'NONE', ( #216, #197, #177, #79 ) ) ;
#98 = LINE ( 'NONE', #32, #318 ) ;
#99 = ORIENTED_EDGE ( 'NONE', *, *, #64, .T. ) ;
#100 = CIRCLE ( 'NONE', #80, 0.1404594000000000120 ) ;
#101 = DIRECTION ( 'NONE',  ( -0.7071067811865410224, 0.0000000000000000000, -0.7071067811865539010 ) ) ;
#102 = EDGE_LOOP ( 'NONE', ( #6, #29, #149, #94 ) ) ;
#103 = VERTEX_POINT ( 'NONE', #263 ) ;
#104 = EDGE_CURVE ( 'NONE', #53, #252, #282, .T. ) ;
#105 = DIRECTION ( 'NONE',  ( 1.224646799147353207E-16, 0.0000000000000000000, 1.000000000000000000 ) ) ;
#106 = CIRCLE ( 'NONE', #162, 0.1562500000000000000 ) ;
#107 = DIRECTION ( 'NONE',  ( -1.224646799147353207E-16, -0.0000000000000000000, -1.000000000000000000 ) ) ;
#108 = DIRECTION ( 'NONE',  ( 0.0000000000000000000, 0.0000000000000000000, -1.000000000000000000 ) ) ;
#109 = DIRECTION ( 'NONE',  ( -1.000000000000000000, 0.0000000000000000000, 1.224646799147353207E-16 ) ) ;
#110 = AXIS2_PLACEMENT_3D ( 'NONE', #214, #317, #69 ) ;
#111 = DIRECTION ( 'NONE',  ( 0.0000000000000000000, -1.000000000000000000, 0.0000000000000000000 ) ) ;
#112 = DIMENSIONAL_EXPONENTS ( 1.000000000000000000, 0.0000000000000000000, 0.0000000000000000000, 0.0000000000000000000, 0.0000000000000000000, 0.0000000000000000000, 0.0000000000000000000 ) ;
#113 = LINE ( 'NONE', #89, #179 ) ;
#114 = UNCERTAINTY_MEASURE_WITH_UNIT (LENGTH_MEASURE( 1.000000000000000082E-05 ), #167, 'distance_accuracy_value', 'NONE');
#115 = CARTESIAN_POINT ( 'NONE',  ( 0.1562500000000001110, 1.913510623667740388E-17, 0.8395529427008548984 ) ) ;
#116 = DIRECTION ( 'NONE',  ( 0.0000000000000000000, 1.000000000000000000, 0.0000000000000000000 ) ) ;
#117 = PRODUCT_DEFINITION_CONTEXT ( 'detailed design', #221, 'design' ) ;
#118 = PRODUCT_RELATED_PRODUCT_CATEGORY ( 'part', '', ( #12 ) ) ;
#119 = CARTESIAN_POINT ( 'NONE',  ( 0.0000000000000000000, 0.0000000000000000000, 2.500000000000000000 ) ) ;
#120 = CARTESIAN_POINT ( 'NONE',  ( 0.1562500000000000000, 1.913510623667739463E-17, 2.484999999999999432 ) ) ;
#121 = UNCERTAINTY_MEASURE_WITH_UNIT (LENGTH_MEASURE( 1.000000000000000082E-05 ), #229, 'distance_accuracy_value', 'NONE');
#122 = STYLED_ITEM ( 'NONE', ( #294 ), #277 ) ;
#123 = LENGTH_MEASURE_WITH_UNIT ( LENGTH_MEASURE( 0.02539999999999999897 ), #96 );
#124 = ORIENTED_EDGE ( 'NONE', *, *, #295, .T. ) ;
#125 = FACE_OUTER_BOUND ( 'NONE', #180, .T. ) ;
#126 = ORIENTED_EDGE ( 'NONE', *, *, #284, .T. ) ;
#127 = CARTESIAN_POINT ( 'NONE',  ( 0.0000000000000000000, 0.0000000000000000000, 0.0000000000000000000 ) ) ;
#128 = ORIENTED_EDGE ( 'NONE', *, *, #270, .F. ) ;
#129 =( NAMED_UNIT ( * ) PLANE_ANGLE_UNIT ( ) SI_UNIT ( $, .RADIAN. ) );
#130 = ORIENTED_EDGE ( 'NONE', *, *, #153, .F. ) ;
#131 = ORIENTED_EDGE ( 'NONE', *, *, #296, .F. ) ;
#132 = DIRECTION ( 'NONE',  ( -1.000000000000000000, 0.0000000000000000000, 1.215586138086994854E-16 ) ) ;
#133 = CARTESIAN_POINT ( 'NONE',  ( 0.1404594000000000953, 0.0000000000000000000, 0.7500000000000001110 ) ) ;
#134 = CONICAL_SURFACE ( 'NONE', #2, 0.1404594000000000120, 0.1745329251994338082 ) ;
#135 = EDGE_CURVE ( 'NONE', #56, #27, #70, .T. ) ;
#136 = DIRECTION ( 'NONE',  ( 1.000000000000000000, 0.0000000000000000000, 0.0000000000000000000 ) ) ;
#137 = DIRECTION ( 'NONE',  ( 0.0000000000000000000, 0.0000000000000000000, 1.000000000000000000 ) ) ;
#138 = CARTESIAN_POINT ( 'NONE',  ( 1.720131546201577623E-17, 0.0000000000000000000, 0.1404594000000000120 ) ) ;
#139 = AXIS2_PLACEMENT_3D ( 'NONE', #86, #116, #320 ) ;
#140 = CARTESIAN_POINT ( 'NONE',  ( 9.184850993605150903E-17, 0.0000000000000000000, 0.7500000000000001110 ) ) ;
#141 = EDGE_CURVE ( 'NONE', #225, #249, #35, .T. ) ;
#142 = DIRECTION ( 'NONE',  ( -1.224646799147353207E-16, -0.0000000000000000000, -1.000000000000000000 ) ) ;
#143 = AXIS2_PLACEMENT_3D ( 'NONE', #163, #19, #41 ) ;
#144 = VECTOR ( 'NONE', #230, 39.37007874015747433 ) ;
#145 = CARTESIAN_POINT ( 'NONE',  ( 2.580197319302366126E-17, 0.0000000000000000000, 0.0000000000000000000 ) ) ;
#146 = DIRECTION ( 'NONE',  ( -1.000000000000000000, 0.0000000000000000000, 0.0000000000000000000 ) ) ;
#147 = CARTESIAN_POINT ( 'NONE',  ( 0.0000000000000000000, 0.0000000000000000000, 2.500000000000000000 ) ) ;
#148 = LINE ( 'NONE', #155, #18 ) ;
#149 = ORIENTED_EDGE ( 'NONE', *, *, #231, .T. ) ;
#150 = ORIENTED_EDGE ( 'NONE', *, *, #176, .F. ) ;
#151 = FILL_AREA_STYLE_COLOUR ( '', #67 ) ;
#152 = ORIENTED_EDGE ( 'NONE', *, *, #159, .T. ) ;
#153 = EDGE_CURVE ( 'NONE', #103, #306, #213, .T. ) ;
#154 = EDGE_CURVE ( 'NONE', #53, #103, #63, .T. ) ;
#155 = CARTESIAN_POINT ( 'NONE',  ( -0.1412499999999994871, 0.0000000000000000000, 2.500000000000000000 ) ) ;
#156 = MECHANICAL_DESIGN_GEOMETRIC_PRESENTATION_REPRESENTATION (  '', ( #122 ), #48 ) ;
#157 = ORIENTED_EDGE ( 'NONE', *, *, #290, .T. ) ;
#158 = EDGE_LOOP ( 'NONE', ( #128, #152, #99, #175 ) ) ;
#159 = EDGE_CURVE ( 'NONE', #281, #78, #198, .T. ) ;
#160 = DIRECTION ( 'NONE',  ( -1.000000000000000000, 0.0000000000000000000, 0.0000000000000000000 ) ) ;
#161 = FACE_OUTER_BOUND ( 'NONE', #275, .T. ) ;
#162 = AXIS2_PLACEMENT_3D ( 'NONE', #23, #142, #325 ) ;
#163 = CARTESIAN_POINT ( 'NONE',  ( 1.720131546201577623E-17, 0.0000000000000000000, 0.1404594000000000120 ) ) ;
#164 = CARTESIAN_POINT ( 'NONE',  ( -0.1562500000000000000, 0.0000000000000000000, 2.500000000000000000 ) ) ;
#165 = DIRECTION ( 'NONE',  ( -0.0000000000000000000, -0.0000000000000000000, -1.000000000000000000 ) ) ;
#166 = FILL_AREA_STYLE ('',( #187 ) ) ;
#167 =( CONVERSION_BASED_UNIT ( 'INCH', #168 ) LENGTH_UNIT ( ) NAMED_UNIT ( #258 ) );
#168 = LENGTH_MEASURE_WITH_UNIT ( LENGTH_MEASURE( 0.02539999999999999897 ), #71 );
#169 = SURFACE_STYLE_USAGE ( .BOTH. , #248 ) ;
#170 = EDGE_LOOP ( 'NONE', ( #150, #302, #218 ) ) ;
#171 = AXIS2_PLACEMENT_3D ( 'NONE', #138, #228, #82 ) ;
#172 = CIRCLE ( 'NONE', #37, 0.1562500000000000000 ) ;
#173 = CARTESIAN_POINT ( 'NONE',  ( 0.1404594000000000120, 1.720131546201577623E-17, 0.1404594000000000120 ) ) ;
#174 = ORIENTED_EDGE ( 'NONE', *, *, #295, .F. ) ;
#175 = ORIENTED_EDGE ( 'NONE', *, *, #247, .F. ) ;
#176 = EDGE_CURVE ( 'NONE', #279, #306, #100, .T. ) ;
#177 = ORIENTED_EDGE ( 'NONE', *, *, #231, .F. ) ;
#178 = AXIS2_PLACEMENT_3D ( 'NONE', #289, #105, #132 ) ;
#179 = VECTOR ( 'NONE', #165, 39.37007874015748143 ) ;
#180 = EDGE_LOOP ( 'NONE', ( #305, #126, #73, #174 ) ) ;
#181 = DIRECTION ( 'NONE',  ( -0.0000000000000000000, -0.0000000000000000000, -1.000000000000000000 ) ) ;
#182 = CARTESIAN_POINT ( 'NONE',  ( -0.1404594000000000120, 0.0000000000000000000, 1.720131546201577623E-17 ) ) ;
#183 = CARTESIAN_POINT ( 'NONE',  ( 1.720131546201577623E-17, 0.0000000000000000000, 0.1404594000000000120 ) ) ;
#184 = DIRECTION ( 'NONE',  ( 0.0000000000000000000, 0.0000000000000000000, 1.000000000000000000 ) ) ;
#185 = DIRECTION ( 'NONE',  ( 1.224646799147353207E-16, 0.0000000000000000000, 1.000000000000000000 ) ) ;
#186 = CONICAL_SURFACE ( 'NONE', #321, 0.1404594000000000120, 0.1745329251994338082 ) ;
#187 = FILL_AREA_STYLE_COLOUR ( '', #250 ) ;
#188 = CIRCLE ( 'NONE', #57, 0.1404594000000000120 ) ;
#189 = EDGE_CURVE ( 'NONE', #27, #56, #276, .T. ) ;
#190 = SURFACE_STYLE_USAGE ( .BOTH. , #93 ) ;
#191 = DIRECTION ( 'NONE',  ( -0.0000000000000000000, -0.0000000000000000000, -1.000000000000000000 ) ) ;
#192 = CIRCLE ( 'NONE', #110, 0.1562500000000000000 ) ;
#193 = CARTESIAN_POINT ( 'NONE',  ( 0.1404594000000000953, 0.0000000000000000000, 0.7500000000000001110 ) ) ;
#194 = CARTESIAN_POINT ( 'NONE',  ( 0.0000000000000000000, 0.0000000000000000000, 0.0000000000000000000 ) ) ;
#195 = ORIENTED_EDGE ( 'NONE', *, *, #95, .T. ) ;
#196 =( NAMED_UNIT ( * ) SI_UNIT ( $, .STERADIAN. ) SOLID_ANGLE_UNIT ( ) );
#197 = ORIENTED_EDGE ( 'NONE', *, *, #270, .T. ) ;
#198 = CIRCLE ( 'NONE', #62, 0.1562500000000000000 ) ;
#199 = ADVANCED_FACE ( 'NONE', ( #315 ), #134, .T. ) ;
#200 = EDGE_LOOP ( 'NONE', ( #76, #303, #130 ) ) ;
#201 = EDGE_LOOP ( 'NONE', ( #131, #157, #301, #49 ) ) ;
#202 = ORIENTED_EDGE ( 'NONE', *, *, #135, .T. ) ;
#203 = AXIS2_PLACEMENT_3D ( 'NONE', #81, #39, #109 ) ;
#204 = CARTESIAN_POINT ( 'NONE',  ( 9.184850993605150903E-17, 0.0000000000000000000, 0.7500000000000001110 ) ) ;
#205 = CARTESIAN_POINT ( 'NONE',  ( 0.0000000000000000000, 0.0000000000000000000, 2.500000000000000000 ) ) ;
#206 =( CONVERSION_BASED_UNIT ( 'INCH', #123 ) LENGTH_UNIT ( ) NAMED_UNIT ( #112 ) );
#207 = CARTESIAN_POINT ( 'NONE',  ( 0.0000000000000000000, 0.0000000000000000000, 2.500000000000000000 ) ) ;
#208 = DIRECTION ( 'NONE',  ( 0.0000000000000000000, 0.0000000000000000000, -1.000000000000000000 ) ) ;
#209 = DIRECTION ( 'NONE',  ( 0.0000000000000000000, 0.0000000000000000000, -1.000000000000000000 ) ) ;
#210 = DIRECTION ( 'NONE',  ( 1.000000000000000000, 0.0000000000000000000, 0.0000000000000000000 ) ) ;
#211 =( NAMED_UNIT ( * ) SI_UNIT ( $, .STERADIAN. ) SOLID_ANGLE_UNIT ( ) );
#212 = VECTOR ( 'NONE', #181, 39.37007874015748143 ) ;
#213 = CIRCLE ( 'NONE', #171, 0.1404594000000000120 ) ;
#214 = CARTESIAN_POINT ( 'NONE',  ( 1.028155823993343290E-16, 0.0000000000000000000, 0.8395529427008548984 ) ) ;
#215 = CARTESIAN_POINT ( 'NONE',  ( 0.1412499999999994871, 1.729813603795630110E-17, 2.500000000000000000 ) ) ;
#216 = ORIENTED_EDGE ( 'NONE', *, *, #26, .T. ) ;
#217 = DIRECTION ( 'NONE',  ( 0.0000000000000000000, 0.0000000000000000000, -1.000000000000000000 ) ) ;
#218 = ORIENTED_EDGE ( 'NONE', *, *, #74, .F. ) ;
#219 = ADVANCED_FACE ( 'NONE', ( #44 ), #186, .T. ) ;
#220 = FACE_OUTER_BOUND ( 'NONE', #31, .T. ) ;
#221 = APPLICATION_CONTEXT ( 'automotive_design' ) ;
#222 = ORIENTED_EDGE ( 'NONE', *, *, #189, .F. ) ;
#223 = AXIS2_PLACEMENT_3D ( 'NONE', #205, #137, #314 ) ;
#224 = ORIENTED_EDGE ( 'NONE', *, *, #189, .T. ) ;
#225 = VERTEX_POINT ( 'NONE', #193 ) ;
#226 = CARTESIAN_POINT ( 'NONE',  ( -0.1404593999999999288, 1.816821084934658389E-17, 0.7500000000000001110 ) ) ;
#227 = VECTOR ( 'NONE', #42, 39.37007874015748143 ) ;
#228 = DIRECTION ( 'NONE',  ( 1.224646799147353207E-16, 0.0000000000000000000, 1.000000000000000000 ) ) ;
#229 =( CONVERSION_BASED_UNIT ( 'INCH', #241 ) LENGTH_UNIT ( ) NAMED_UNIT ( #283 ) );
#230 = DIRECTION ( 'NONE',  ( -0.1736481776669311083, 2.126576849575782084E-17, 0.9848077530122080203 ) ) ;
#231 = EDGE_CURVE ( 'NONE', #252, #249, #106, .T. ) ;
#232 = CARTESIAN_POINT ( 'NONE',  ( -0.1562500000000000000, 0.0000000000000000000, 2.484999999999999432 ) ) ;
#233 = LINE ( 'NONE', #164, #212 ) ;
#234 = CONICAL_SURFACE ( 'NONE', #274, 0.1412499999999994871, 0.7853981633974391752 ) ;
#235 = DIRECTION ( 'NONE',  ( 1.224646799147353207E-16, 0.0000000000000000000, 1.000000000000000000 ) ) ;
#236 = CARTESIAN_POINT ( 'NONE',  ( 0.0000000000000000000, 0.0000000000000000000, 2.500000000000000000 ) ) ;
#237 = CIRCLE ( 'NONE', #307, 0.1404594000000000120 ) ;
#238 = AXIS2_PLACEMENT_3D ( 'NONE', #236, #1, #146 ) ;
#239 = DIRECTION ( 'NONE',  ( 1.224646799147353207E-16, 1.000000000000000000, -0.0000000000000000000 ) ) ;
#240 = DIRECTION ( 'NONE',  ( -1.000000000000000000, 1.224646799147353207E-16, 0.0000000000000000000 ) ) ;
#241 = LENGTH_MEASURE_WITH_UNIT ( LENGTH_MEASURE( 0.02539999999999999897 ), #243 );
#242 = AXIS2_PLACEMENT_3D ( 'NONE', #287, #17, #84 ) ;
#243 =( LENGTH_UNIT ( ) NAMED_UNIT ( * ) SI_UNIT ( $, .METRE. ) );
#244 = PRODUCT_DEFINITION_FORMATION_WITH_SPECIFIED_SOURCE ( 'ANY', '', #12, .NOT_KNOWN. ) ;
#245 = ORIENTED_EDGE ( 'NONE', *, *, #296, .T. ) ;
#246 = ORIENTED_EDGE ( 'NONE', *, *, #290, .F. ) ;
#247 = EDGE_CURVE ( 'NONE', #249, #252, #192, .T. ) ;
#248 = SURFACE_SIDE_STYLE ('',( #51 ) ) ;
#249 = VERTEX_POINT ( 'NONE', #115 ) ;
#250 = COLOUR_RGB ( '',0.7921568627450980005, 0.8196078431372548767, 0.9333333333333333481 ) ;
#251 = DIRECTION ( 'NONE',  ( -1.000000000000000000, 0.0000000000000000000, 1.224646799147353207E-16 ) ) ;
#252 = VERTEX_POINT ( 'NONE', #20 ) ;
#253 =( GEOMETRIC_REPRESENTATION_CONTEXT ( 3 ) GLOBAL_UNCERTAINTY_ASSIGNED_CONTEXT ( ( #311 ) ) GLOBAL_UNIT_ASSIGNED_CONTEXT ( ( #206, #72, #273 ) ) REPRESENTATION_CONTEXT ( 'NONE', 'WORKASPACE' ) );
#254 = ADVANCED_FACE ( 'NONE', ( #324 ), #68, .T. ) ;
#255 = ADVANCED_FACE ( 'NONE', ( #271 ), #269, .T. ) ;
#256 = DIRECTION ( 'NONE',  ( 0.0000000000000000000, 0.0000000000000000000, -1.000000000000000000 ) ) ;
#257 = DIRECTION ( 'NONE',  ( 1.000000000000000000, 0.0000000000000000000, 0.0000000000000000000 ) ) ;
#258 = DIMENSIONAL_EXPONENTS ( 1.000000000000000000, 0.0000000000000000000, 0.0000000000000000000, 0.0000000000000000000, 0.0000000000000000000, 0.0000000000000000000, 0.0000000000000000000 ) ;
#259 = MECHANICAL_DESIGN_GEOMETRIC_PRESENTATION_REPRESENTATION (  '', ( #38 ), #253 ) ;
#260 = DIRECTION ( 'NONE',  ( -1.000000000000000000, 0.0000000000000000000, 0.0000000000000000000 ) ) ;
#261 = DIRECTION ( 'NONE',  ( 0.0000000000000000000, 0.0000000000000000000, 1.000000000000000000 ) ) ;
#262 = SPHERICAL_SURFACE ( 'NONE', #143, 0.1404594000000000120 ) ;
#263 = CARTESIAN_POINT ( 'NONE',  ( -0.1404593999999999843, 0.0000000000000000000, 0.1404594000000000398 ) ) ;
#264 = ADVANCED_FACE ( 'NONE', ( #291 ), #297, .T. ) ;
#265 = DIRECTION ( 'NONE',  ( -1.000000000000000000, 0.0000000000000000000, 0.0000000000000000000 ) ) ;
#266 = PRESENTATION_LAYER_ASSIGNMENT (  '', '', ( #122 ) ) ;
#267 = SURFACE_STYLE_FILL_AREA ( #166 ) ;
#268 = ADVANCED_BREP_SHAPE_REPRESENTATION ( 'Micro_BEM-281-04X', ( #277, #322 ), #286 ) ;
#269 = SPHERICAL_SURFACE ( 'NONE', #139, 0.1404594000000000120 ) ;
#270 = EDGE_CURVE ( 'NONE', #281, #249, #113, .T. ) ;
#271 = FACE_OUTER_BOUND ( 'NONE', #200, .T. ) ;
#272 = EDGE_CURVE ( 'NONE', #279, #103, #188, .T. ) ;
#273 =( NAMED_UNIT ( * ) SI_UNIT ( $, .STERADIAN. ) SOLID_ANGLE_UNIT ( ) );
#274 = AXIS2_PLACEMENT_3D ( 'NONE', #147, #217, #304 ) ;
#275 = EDGE_LOOP ( 'NONE', ( #30, #222, #124, #8 ) ) ;
#276 = CIRCLE ( 'NONE', #242, 0.1412499999999994871 ) ;
#277 = MANIFOLD_SOLID_BREP ( 'Fillet1', #21 ) ;
#278 = CYLINDRICAL_SURFACE ( 'NONE', #92, 0.1404594000000000120 ) ;
#279 = VERTEX_POINT ( 'NONE', #145 ) ;
#280 = ORIENTED_EDGE ( 'NONE', *, *, #74, .T. ) ;
#281 = VERTEX_POINT ( 'NONE', #120 ) ;
#282 = LINE ( 'NONE', #310, #144 ) ;
#283 = DIMENSIONAL_EXPONENTS ( 1.000000000000000000, 0.0000000000000000000, 0.0000000000000000000, 0.0000000000000000000, 0.0000000000000000000, 0.0000000000000000000, 0.0000000000000000000 ) ;
#284 = EDGE_CURVE ( 'NONE', #56, #281, #24, .T. ) ;
#285 = DIRECTION ( 'NONE',  ( -1.224646799147353207E-16, -0.0000000000000000000, -1.000000000000000000 ) ) ;
#286 =( GEOMETRIC_REPRESENTATION_CONTEXT ( 3 ) GLOBAL_UNCERTAINTY_ASSIGNED_CONTEXT ( ( #121 ) ) GLOBAL_UNIT_ASSIGNED_CONTEXT ( ( #229, #129, #196 ) ) REPRESENTATION_CONTEXT ( 'NONE', 'WORKASPACE' ) );
#287 = CARTESIAN_POINT ( 'NONE',  ( 0.0000000000000000000, 0.0000000000000000000, 2.500000000000000000 ) ) ;
#288 = CARTESIAN_POINT ( 'NONE',  ( -0.1412499999999994871, 0.0000000000000000000, 2.500000000000000000 ) ) ;
#289 = CARTESIAN_POINT ( 'NONE',  ( 1.720131546201577623E-17, 0.0000000000000000000, 0.1404594000000000120 ) ) ;
#290 = EDGE_CURVE ( 'NONE', #225, #53, #50, .T. ) ;
#291 = FACE_OUTER_BOUND ( 'NONE', #158, .T. ) ;
#292 = VECTOR ( 'NONE', #285, 39.37007874015748143 ) ;
#293 = DIRECTION ( 'NONE',  ( 1.000000000000000000, 0.0000000000000000000, 0.0000000000000000000 ) ) ;
#294 = PRESENTATION_STYLE_ASSIGNMENT (( #190 ) ) ;
#295 = EDGE_CURVE ( 'NONE', #27, #78, #148, .T. ) ;
#296 = EDGE_CURVE ( 'NONE', #225, #306, #98, .T. ) ;
#297 = CYLINDRICAL_SURFACE ( 'NONE', #238, 0.1562500000000000000 ) ;
#298 = CIRCLE ( 'NONE', #178, 0.1404594000000000120 ) ;
#299 = AXIS2_PLACEMENT_3D ( 'NONE', #300, #47, #7 ) ;
#300 = CARTESIAN_POINT ( 'NONE',  ( 9.184850993605150903E-17, 0.0000000000000000000, 0.7500000000000001110 ) ) ;
#301 = ORIENTED_EDGE ( 'NONE', *, *, #154, .T. ) ;
#302 = ORIENTED_EDGE ( 'NONE', *, *, #272, .T. ) ;
#303 = ORIENTED_EDGE ( 'NONE', *, *, #176, .T. ) ;
#304 = DIRECTION ( 'NONE',  ( -1.000000000000000000, 0.0000000000000000000, 0.0000000000000000000 ) ) ;
#305 = ORIENTED_EDGE ( 'NONE', *, *, #135, .F. ) ;
#306 = VERTEX_POINT ( 'NONE', #173 ) ;
#307 = AXIS2_PLACEMENT_3D ( 'NONE', #204, #107, #160 ) ;
#308 = FACE_OUTER_BOUND ( 'NONE', #201, .T. ) ;
#309 = ADVANCED_FACE ( 'NONE', ( #125 ), #234, .T. ) ;
#310 = CARTESIAN_POINT ( 'NONE',  ( -0.1404593999999999288, 1.720131546201577623E-17, 0.7500000000000001110 ) ) ;
#311 = UNCERTAINTY_MEASURE_WITH_UNIT (LENGTH_MEASURE( 1.000000000000000082E-05 ), #206, 'distance_accuracy_value', 'NONE');
#312 = DIRECTION ( 'NONE',  ( 1.000000000000000000, 0.0000000000000000000, 0.0000000000000000000 ) ) ;
#313 = CYLINDRICAL_SURFACE ( 'NONE', #203, 0.1404594000000000120 ) ;
#314 = DIRECTION ( 'NONE',  ( 1.000000000000000000, 0.0000000000000000000, -0.0000000000000000000 ) ) ;
#315 = FACE_OUTER_BOUND ( 'NONE', #52, .T. ) ;
#316 = ADVANCED_FACE ( 'NONE', ( #220 ), #278, .T. ) ;
#317 = DIRECTION ( 'NONE',  ( -1.224646799147353207E-16, -0.0000000000000000000, -1.000000000000000000 ) ) ;
#318 = VECTOR ( 'NONE', #28, 39.37007874015748143 ) ;
#319 = AXIS2_PLACEMENT_3D ( 'NONE', #207, #208, #260 ) ;
#320 = DIRECTION ( 'NONE',  ( 1.000000000000000000, 0.0000000000000000000, 0.0000000000000000000 ) ) ;
#321 = AXIS2_PLACEMENT_3D ( 'NONE', #140, #235, #293 ) ;
#322 = AXIS2_PLACEMENT_3D ( 'NONE', #127, #261, #312 ) ;
#323 = PRODUCT_DEFINITION ( 'UNKNOWN', '', #244, #117 ) ;
#324 = FACE_OUTER_BOUND ( 'NONE', #97, .T. ) ;
#325 = DIRECTION ( 'NONE',  ( 1.000000000000000000, 0.0000000000000000000, 0.0000000000000000000 ) ) ;
ENDSEC;
END-ISO-10303-21;
