ISO-10303-21;
HEADER;
FILE_DESCRIPTION (( 'STEP AP214' ),
    '1' );
FILE_NAME ('30077.STEP',
    '2023-06-22T17:54:05',
    ( '' ),
    ( '' ),
    'SwSTEP 2.0',
    'SolidWorks 2023',
    '' );
FILE_SCHEMA (( 'AUTOMOTIVE_DESIGN' ));
ENDSEC;

DATA;
#1 = PRODUCT_DEFINITION_CONTEXT ( 'detailed design', #46, 'design' ) ;
#2 = AXIS2_PLACEMENT_3D ( 'NONE', #132, #228, #235 ) ;
#3 = CARTESIAN_POINT ( 'NONE',  ( 6.123233995736766036E-17, 2.000000000000000000, 0.000000000000000000 ) ) ;
#4 = ORIENTED_EDGE ( 'NONE', *, *, #64, .F. ) ;
#5 = CARTESIAN_POINT ( 'NONE',  ( 0.000000000000000000, 0.000000000000000000, -0.09374999999999998612 ) ) ;
#6 = PRESENTATION_STYLE_ASSIGNMENT (( #79 ) ) ;
#7 = CLOSED_SHELL ( 'NONE', ( #124, #169, #221, #120 ) ) ;
#8 = VECTOR ( 'NONE', #118, 39.37007874015748143 ) ;
#9 =( NAMED_UNIT ( * ) PLANE_ANGLE_UNIT ( ) SI_UNIT ( $, .RADIAN. ) );
#10 = PRODUCT_RELATED_PRODUCT_CATEGORY ( 'part', '', ( #304 ) ) ;
#11 = LINE ( 'NONE', #253, #195 ) ;
#12 = FACE_OUTER_BOUND ( 'NONE', #71, .T. ) ;
#13 =( NAMED_UNIT ( * ) PLANE_ANGLE_UNIT ( ) SI_UNIT ( $, .RADIAN. ) );
#14 = CARTESIAN_POINT ( 'NONE',  ( 0.000000000000000000, 0.3125000000000000000, 0.000000000000000000 ) ) ;
#15 = ADVANCED_FACE ( 'NONE', ( #211 ), #102, .T. ) ;
#16 = EDGE_LOOP ( 'NONE', ( #279, #25, #95, #203 ) ) ;
#17 = DIRECTION ( 'NONE',  ( -1.000000000000000000, 3.628583108584750472E-17, 0.000000000000000000 ) ) ;
#18 = DIMENSIONAL_EXPONENTS ( 1.000000000000000000, 0.000000000000000000, 0.000000000000000000, 0.000000000000000000, 0.000000000000000000, 0.000000000000000000, 0.000000000000000000 ) ;
#19 = DIRECTION ( 'NONE',  ( 3.628583108584750472E-17, 1.000000000000000000, -0.000000000000000000 ) ) ;
#20 = CIRCLE ( 'NONE', #272, 0.09374999999999991673 ) ;
#21 =( LENGTH_UNIT ( ) NAMED_UNIT ( * ) SI_UNIT ( $, .METRE. ) );
#22 = DIMENSIONAL_EXPONENTS ( 1.000000000000000000, 0.000000000000000000, 0.000000000000000000, 0.000000000000000000, 0.000000000000000000, 0.000000000000000000, 0.000000000000000000 ) ;
#23 = PRODUCT_CONTEXT ( 'NONE', #63, 'mechanical' ) ;
#24 = LINE ( 'NONE', #180, #8 ) ;
#25 = ORIENTED_EDGE ( 'NONE', *, *, #40, .T. ) ;
#26 = PRODUCT_DEFINITION_SHAPE ( 'NONE', 'NONE',  #241 ) ;
#27 = PRESENTATION_STYLE_ASSIGNMENT (( #155 ) ) ;
#28 = AXIS2_PLACEMENT_3D ( 'NONE', #291, #219, #177 ) ;
#29 = AXIS2_PLACEMENT_3D ( 'NONE', #270, #125, #42 ) ;
#30 = SURFACE_STYLE_FILL_AREA ( #238 ) ;
#31 = ADVANCED_FACE ( 'NONE', ( #236 ), #286, .T. ) ;
#32 = EDGE_LOOP ( 'NONE', ( #212, #277, #208, #99 ) ) ;
#33 =( NAMED_UNIT ( * ) PLANE_ANGLE_UNIT ( ) SI_UNIT ( $, .RADIAN. ) );
#34 = SURFACE_STYLE_USAGE ( .BOTH. , #145 ) ;
#35 =( GEOMETRIC_REPRESENTATION_CONTEXT ( 3 ) GLOBAL_UNCERTAINTY_ASSIGNED_CONTEXT ( ( #289 ) ) GLOBAL_UNIT_ASSIGNED_CONTEXT ( ( #113, #283, #163 ) ) REPRESENTATION_CONTEXT ( 'NONE', 'WORKASPACE' ) );
#36 = PRESENTATION_LAYER_ASSIGNMENT (  '', '', ( #191 ) ) ;
#37 = DIRECTION ( 'NONE',  ( 0.000000000000000000, 0.000000000000000000, -1.000000000000000000 ) ) ;
#38 = CYLINDRICAL_SURFACE ( 'NONE', #29, 0.09374999999999998612 ) ;
#39 = LENGTH_MEASURE_WITH_UNIT ( LENGTH_MEASURE( 0.02539999999999999897 ), #174 );
#40 = EDGE_CURVE ( 'NONE', #52, #266, #165, .T. ) ;
#41 = DIRECTION ( 'NONE',  ( 0.000000000000000000, 0.000000000000000000, -1.000000000000000000 ) ) ;
#42 = DIRECTION ( 'NONE',  ( 0.000000000000000000, 0.000000000000000000, -1.000000000000000000 ) ) ;
#43 = DIRECTION ( 'NONE',  ( -1.000000000000000000, 0.000000000000000000, 0.000000000000000000 ) ) ;
#44 = PRESENTATION_LAYER_ASSIGNMENT (  '', '', ( #264 ) ) ;
#45 = AXIS2_PLACEMENT_3D ( 'NONE', #3, #183, #206 ) ;
#46 = APPLICATION_CONTEXT ( 'automotive_design' ) ;
#47 =( NAMED_UNIT ( * ) SI_UNIT ( $, .STERADIAN. ) SOLID_ANGLE_UNIT ( ) );
#48 = PLANE ( 'NONE',  #153 ) ;
#49 = STYLED_ITEM ( 'NONE', ( #158 ), #247 ) ;
#50 = EDGE_CURVE ( 'NONE', #308, #91, #230, .T. ) ;
#51 = LENGTH_MEASURE_WITH_UNIT ( LENGTH_MEASURE( 0.02539999999999999897 ), #187 );
#52 = VERTEX_POINT ( 'NONE', #175 ) ;
#53 = CARTESIAN_POINT ( 'NONE',  ( 0.000000000000000000, 0.3125000000000000000, 0.000000000000000000 ) ) ;
#54 = MANIFOLD_SOLID_BREP ( 'Revolve - Cutting Edge', #220 ) ;
#55 = FILL_AREA_STYLE_COLOUR ( '', #254 ) ;
#56 = AXIS2_PLACEMENT_3D ( 'NONE', #285, #263, #121 ) ;
#57 = FILL_AREA_STYLE ('',( #185 ) ) ;
#58 = DIRECTION ( 'NONE',  ( -1.000000000000000000, 0.000000000000000000, 0.000000000000000000 ) ) ;
#59 = DIRECTION ( 'NONE',  ( 3.628583108584750472E-17, 1.000000000000000000, -0.000000000000000000 ) ) ;
#60 = AXIS2_PLACEMENT_3D ( 'NONE', #105, #199, #89 ) ;
#61 = UNCERTAINTY_MEASURE_WITH_UNIT (LENGTH_MEASURE( 1.000000000000000082E-05 ), #128, 'distance_accuracy_value', 'NONE');
#62 = DIRECTION ( 'NONE',  ( 3.628583108584750472E-17, 1.000000000000000000, -0.000000000000000000 ) ) ;
#63 = APPLICATION_CONTEXT ( 'automotive_design' ) ;
#64 = EDGE_CURVE ( 'NONE', #184, #91, #84, .T. ) ;
#65 = AXIS2_PLACEMENT_3D ( 'NONE', #14, #67, #131 ) ;
#66 =( GEOMETRIC_REPRESENTATION_CONTEXT ( 3 ) GLOBAL_UNCERTAINTY_ASSIGNED_CONTEXT ( ( #262 ) ) GLOBAL_UNIT_ASSIGNED_CONTEXT ( ( #248, #201, #159 ) ) REPRESENTATION_CONTEXT ( 'NONE', 'WORKASPACE' ) );
#67 = DIRECTION ( 'NONE',  ( -0.000000000000000000, -1.000000000000000000, -0.000000000000000000 ) ) ;
#68 = DIRECTION ( 'NONE',  ( -0.000000000000000000, -1.000000000000000000, -0.000000000000000000 ) ) ;
#69 = ORIENTED_EDGE ( 'NONE', *, *, #50, .F. ) ;
#70 = DIRECTION ( 'NONE',  ( 3.628583108584750472E-17, 1.000000000000000000, -0.000000000000000000 ) ) ;
#71 = EDGE_LOOP ( 'NONE', ( #167, #178 ) ) ;
#72 = SURFACE_STYLE_USAGE ( .BOTH. , #281 ) ;
#73 = EDGE_CURVE ( 'NONE', #184, #122, #200, .T. ) ;
#74 = ORIENTED_EDGE ( 'NONE', *, *, #73, .T. ) ;
#75 = SURFACE_SIDE_STYLE ('',( #112 ) ) ;
#76 = DIMENSIONAL_EXPONENTS ( 1.000000000000000000, 0.000000000000000000, 0.000000000000000000, 0.000000000000000000, 0.000000000000000000, 0.000000000000000000, 0.000000000000000000 ) ;
#77 = EDGE_LOOP ( 'NONE', ( #258, #261 ) ) ;
#78 = CARTESIAN_POINT ( 'NONE',  ( 6.123233995736766036E-17, 2.000000000000000000, 0.000000000000000000 ) ) ;
#79 = SURFACE_STYLE_USAGE ( .BOTH. , #214 ) ;
#80 = EDGE_CURVE ( 'NONE', #91, #308, #20, .T. ) ;
#81 = PRESENTATION_STYLE_ASSIGNMENT (( #234 ) ) ;
#82 =( GEOMETRIC_REPRESENTATION_CONTEXT ( 3 ) GLOBAL_UNCERTAINTY_ASSIGNED_CONTEXT ( ( #85 ) ) GLOBAL_UNIT_ASSIGNED_CONTEXT ( ( #97, #207, #47 ) ) REPRESENTATION_CONTEXT ( 'NONE', 'WORKASPACE' ) );
#83 =( CONVERSION_BASED_UNIT ( 'INCH', #190 ) LENGTH_UNIT ( ) NAMED_UNIT ( #157 ) );
#84 = LINE ( 'NONE', #268, #255 ) ;
#85 = UNCERTAINTY_MEASURE_WITH_UNIT (LENGTH_MEASURE( 1.000000000000000082E-05 ), #97, 'distance_accuracy_value', 'NONE');
#86 = EDGE_CURVE ( 'NONE', #232, #303, #103, .T. ) ;
#87 = CARTESIAN_POINT ( 'NONE',  ( 6.123233995736766036E-17, 2.000000000000000000, 0.000000000000000000 ) ) ;
#88 = STYLED_ITEM ( 'NONE', ( #274 ), #54 ) ;
#89 = DIRECTION ( 'NONE',  ( 1.000000000000000000, -3.628583108584750472E-17, 0.000000000000000000 ) ) ;
#90 = CARTESIAN_POINT ( 'NONE',  ( 6.123233995736766036E-17, 2.000000000000000000, 0.000000000000000000 ) ) ;
#91 = VERTEX_POINT ( 'NONE', #150 ) ;
#92 = AXIS2_PLACEMENT_3D ( 'NONE', #53, #68, #229 ) ;
#93 = CARTESIAN_POINT ( 'NONE',  ( 6.171850957456204517E-35, 0.3125000000000000000, 0.000000000000000000 ) ) ;
#94 = FILL_AREA_STYLE ('',( #306 ) ) ;
#95 = ORIENTED_EDGE ( 'NONE', *, *, #257, .T. ) ;
#96 = COLOUR_RGB ( '',1.000000000000000000, 0.000000000000000000, 0.000000000000000000 ) ;
#97 =( CONVERSION_BASED_UNIT ( 'INCH', #51 ) LENGTH_UNIT ( ) NAMED_UNIT ( #301 ) );
#98 = AXIS2_PLACEMENT_3D ( 'NONE', #226, #108, #43 ) ;
#99 = ORIENTED_EDGE ( 'NONE', *, *, #257, .F. ) ;
#100 = LINE ( 'NONE', #5, #292 ) ;
#101 = SURFACE_SIDE_STYLE ('',( #30 ) ) ;
#102 = PLANE ( 'NONE',  #56 ) ;
#103 = CIRCLE ( 'NONE', #166, 0.09375000000000001388 ) ;
#104 = FILL_AREA_STYLE_COLOUR ( '', #110 ) ;
#105 = CARTESIAN_POINT ( 'NONE',  ( 0.09374999999999998612, 2.000000000000000000, 0.000000000000000000 ) ) ;
#106 = PRESENTATION_LAYER_ASSIGNMENT (  '', '', ( #88 ) ) ;
#107 =( LENGTH_UNIT ( ) NAMED_UNIT ( * ) SI_UNIT ( $, .METRE. ) );
#108 = DIRECTION ( 'NONE',  ( 3.628583108584750472E-17, 1.000000000000000000, -0.000000000000000000 ) ) ;
#109 = EDGE_CURVE ( 'NONE', #303, #232, #246, .T. ) ;
#110 = COLOUR_RGB ( '',1.000000000000000000, 0.000000000000000000, 0.000000000000000000 ) ;
#111 = CARTESIAN_POINT ( 'NONE',  ( 1.148106374200643555E-17, 0.000000000000000000, 0.09375000000000001388 ) ) ;
#112 = SURFACE_STYLE_FILL_AREA ( #134 ) ;
#113 =( CONVERSION_BASED_UNIT ( 'INCH', #138 ) LENGTH_UNIT ( ) NAMED_UNIT ( #18 ) );
#114 = CARTESIAN_POINT ( 'NONE',  ( 0.000000000000000000, 0.000000000000000000, 0.000000000000000000 ) ) ;
#115 = DIRECTION ( 'NONE',  ( -1.000000000000000000, 0.000000000000000000, 0.000000000000000000 ) ) ;
#116 = UNCERTAINTY_MEASURE_WITH_UNIT (LENGTH_MEASURE( 1.000000000000000082E-05 ), #83, 'distance_accuracy_value', 'NONE');
#117 =( LENGTH_UNIT ( ) NAMED_UNIT ( * ) SI_UNIT ( $, .METRE. ) );
#118 = DIRECTION ( 'NONE',  ( -0.000000000000000000, -1.000000000000000000, -0.000000000000000000 ) ) ;
#119 = STYLED_ITEM ( 'NONE', ( #27 ), #197 ) ;
#120 = ADVANCED_FACE ( 'NONE', ( #12 ), #300, .F. ) ;
#121 = DIRECTION ( 'NONE',  ( 0.000000000000000000, -0.000000000000000000, 1.000000000000000000 ) ) ;
#122 = VERTEX_POINT ( 'NONE', #173 ) ;
#123 = PRESENTATION_LAYER_ASSIGNMENT (  '', '', ( #141 ) ) ;
#124 = ADVANCED_FACE ( 'NONE', ( #260 ), #276, .T. ) ;
#125 = DIRECTION ( 'NONE',  ( -0.000000000000000000, -1.000000000000000000, -0.000000000000000000 ) ) ;
#126 =( GEOMETRIC_REPRESENTATION_CONTEXT ( 3 ) GLOBAL_UNCERTAINTY_ASSIGNED_CONTEXT ( ( #116 ) ) GLOBAL_UNIT_ASSIGNED_CONTEXT ( ( #83, #130, #295 ) ) REPRESENTATION_CONTEXT ( 'NONE', 'WORKASPACE' ) );
#127 = COLOUR_RGB ( '',1.000000000000000000, 0.000000000000000000, 0.000000000000000000 ) ;
#128 =( CONVERSION_BASED_UNIT ( 'INCH', #217 ) LENGTH_UNIT ( ) NAMED_UNIT ( #22 ) );
#129 = SURFACE_STYLE_FILL_AREA ( #196 ) ;
#130 =( NAMED_UNIT ( * ) PLANE_ANGLE_UNIT ( ) SI_UNIT ( $, .RADIAN. ) );
#131 = DIRECTION ( 'NONE',  ( 0.000000000000000000, 0.000000000000000000, -1.000000000000000000 ) ) ;
#132 = CARTESIAN_POINT ( 'NONE',  ( 0.000000000000000000, 0.000000000000000000, 0.000000000000000000 ) ) ;
#133 = ORIENTED_EDGE ( 'NONE', *, *, #231, .F. ) ;
#134 = FILL_AREA_STYLE ('',( #137 ) ) ;
#135 = EDGE_LOOP ( 'NONE', ( #74, #204, #239, #4 ) ) ;
#136 = PRESENTATION_LAYER_ASSIGNMENT (  '', '', ( #119 ) ) ;
#137 = FILL_AREA_STYLE_COLOUR ( '', #127 ) ;
#138 = LENGTH_MEASURE_WITH_UNIT ( LENGTH_MEASURE( 0.02539999999999999897 ), #117 );
#139 = ORIENTED_EDGE ( 'NONE', *, *, #64, .T. ) ;
#140 = PLANE ( 'NONE',  #2 ) ;
#141 = STYLED_ITEM ( 'NONE', ( #6 ), #15 ) ;
#142 =( CONVERSION_BASED_UNIT ( 'INCH', #213 ) LENGTH_UNIT ( ) NAMED_UNIT ( #76 ) );
#143 = PRODUCT_DEFINITION_FORMATION_WITH_SPECIFIED_SOURCE ( 'ANY', '', #304, .NOT_KNOWN. ) ;
#144 = EDGE_CURVE ( 'NONE', #52, #232, #24, .T. ) ;
#145 = SURFACE_SIDE_STYLE ('',( #252 ) ) ;
#146 =( NAMED_UNIT ( * ) SI_UNIT ( $, .STERADIAN. ) SOLID_ANGLE_UNIT ( ) );
#147 = CARTESIAN_POINT ( 'NONE',  ( 0.09374999999999998612, 2.000000000000000000, 1.148106374200643247E-17 ) ) ;
#148 = AXIS2_PLACEMENT_3D ( 'NONE', #202, #249, #41 ) ;
#149 = LENGTH_MEASURE_WITH_UNIT ( LENGTH_MEASURE( 0.02539999999999999897 ), #294 );
#150 = CARTESIAN_POINT ( 'NONE',  ( -0.09374999999999984734, 2.000000000000000000, 0.000000000000000000 ) ) ;
#151 =( CONVERSION_BASED_UNIT ( 'INCH', #39 ) LENGTH_UNIT ( ) NAMED_UNIT ( #181 ) );
#152 = FILL_AREA_STYLE ('',( #298 ) ) ;
#153 = AXIS2_PLACEMENT_3D ( 'NONE', #93, #19, #17 ) ;
#154 = SHAPE_DEFINITION_REPRESENTATION ( #26, #284 ) ;
#155 = SURFACE_STYLE_USAGE ( .BOTH. , #75 ) ;
#156 = DIRECTION ( 'NONE',  ( 3.628583108584750472E-17, 1.000000000000000000, -0.000000000000000000 ) ) ;
#157 = DIMENSIONAL_EXPONENTS ( 1.000000000000000000, 0.000000000000000000, 0.000000000000000000, 0.000000000000000000, 0.000000000000000000, 0.000000000000000000, 0.000000000000000000 ) ;
#158 = PRESENTATION_STYLE_ASSIGNMENT (( #72 ) ) ;
#159 =( NAMED_UNIT ( * ) SI_UNIT ( $, .STERADIAN. ) SOLID_ANGLE_UNIT ( ) );
#160 =( GEOMETRIC_REPRESENTATION_CONTEXT ( 3 ) GLOBAL_UNCERTAINTY_ASSIGNED_CONTEXT ( ( #245 ) ) GLOBAL_UNIT_ASSIGNED_CONTEXT ( ( #142, #33, #146 ) ) REPRESENTATION_CONTEXT ( 'NONE', 'WORKASPACE' ) );
#161 = EDGE_CURVE ( 'NONE', #266, #52, #233, .T. ) ;
#162 = CARTESIAN_POINT ( 'NONE',  ( -0.09374999999999998612, 0.3125000000000000000, 0.000000000000000000 ) ) ;
#163 =( NAMED_UNIT ( * ) SI_UNIT ( $, .STERADIAN. ) SOLID_ANGLE_UNIT ( ) );
#164 =( LENGTH_UNIT ( ) NAMED_UNIT ( * ) SI_UNIT ( $, .METRE. ) );
#165 = CIRCLE ( 'NONE', #65, 0.09374999999999998612 ) ;
#166 = AXIS2_PLACEMENT_3D ( 'NONE', #273, #271, #37 ) ;
#167 = ORIENTED_EDGE ( 'NONE', *, *, #80, .T. ) ;
#168 = SURFACE_STYLE_USAGE ( .BOTH. , #293 ) ;
#169 = ADVANCED_FACE ( 'NONE', ( #307 ), #48, .F. ) ;
#170 = DIRECTION ( 'NONE',  ( 3.628583108584750472E-17, 1.000000000000000000, -0.000000000000000000 ) ) ;
#171 = MECHANICAL_DESIGN_GEOMETRIC_PRESENTATION_REPRESENTATION (  '', ( #141 ), #35 ) ;
#172 = CIRCLE ( 'NONE', #225, 0.09374999999999998612 ) ;
#173 = CARTESIAN_POINT ( 'NONE',  ( 0.09374999999999998612, 0.3125000000000000000, 1.148106374200643247E-17 ) ) ;
#174 =( LENGTH_UNIT ( ) NAMED_UNIT ( * ) SI_UNIT ( $, .METRE. ) );
#175 = CARTESIAN_POINT ( 'NONE',  ( 1.148106374200643401E-17, 0.3125000000000000000, 0.09374999999999998612 ) ) ;
#176 = DIRECTION ( 'NONE',  ( 1.000000000000000000, 0.000000000000000000, 0.000000000000000000 ) ) ;
#177 = DIRECTION ( 'NONE',  ( 0.000000000000000000, 0.000000000000000000, -1.000000000000000000 ) ) ;
#178 = ORIENTED_EDGE ( 'NONE', *, *, #50, .T. ) ;
#179 = PRESENTATION_LAYER_ASSIGNMENT (  '', '', ( #49 ) ) ;
#180 = CARTESIAN_POINT ( 'NONE',  ( 1.148106374200643401E-17, 0.000000000000000000, 0.09374999999999998612 ) ) ;
#181 = DIMENSIONAL_EXPONENTS ( 1.000000000000000000, 0.000000000000000000, 0.000000000000000000, 0.000000000000000000, 0.000000000000000000, 0.000000000000000000, 0.000000000000000000 ) ;
#182 = ORIENTED_EDGE ( 'NONE', *, *, #297, .F. ) ;
#183 = DIRECTION ( 'NONE',  ( 3.628583108584750472E-17, 1.000000000000000000, -0.000000000000000000 ) ) ;
#184 = VERTEX_POINT ( 'NONE', #162 ) ;
#185 = FILL_AREA_STYLE_COLOUR ( '', #96 ) ;
#186 =( GEOMETRIC_REPRESENTATION_CONTEXT ( 3 ) GLOBAL_UNCERTAINTY_ASSIGNED_CONTEXT ( ( #61 ) ) GLOBAL_UNIT_ASSIGNED_CONTEXT ( ( #128, #9, #193 ) ) REPRESENTATION_CONTEXT ( 'NONE', 'WORKASPACE' ) );
#187 =( LENGTH_UNIT ( ) NAMED_UNIT ( * ) SI_UNIT ( $, .METRE. ) );
#188 = EDGE_LOOP ( 'NONE', ( #290, #133 ) ) ;
#189 = EDGE_LOOP ( 'NONE', ( #182, #240, #139, #69 ) ) ;
#190 = LENGTH_MEASURE_WITH_UNIT ( LENGTH_MEASURE( 0.02539999999999999897 ), #164 );
#191 = STYLED_ITEM ( 'NONE', ( #198 ), #288 ) ;
#192 = EDGE_LOOP ( 'NONE', ( #256, #267 ) ) ;
#193 =( NAMED_UNIT ( * ) SI_UNIT ( $, .STERADIAN. ) SOLID_ANGLE_UNIT ( ) );
#194 = CARTESIAN_POINT ( 'NONE',  ( 0.000000000000000000, 0.3125000000000000000, -0.09374999999999998612 ) ) ;
#195 = VECTOR ( 'NONE', #62, 39.37007874015748143 ) ;
#196 = FILL_AREA_STYLE ('',( #104 ) ) ;
#197 = ADVANCED_FACE ( 'NONE', ( #309 ), #140, .T. ) ;
#198 = PRESENTATION_STYLE_ASSIGNMENT (( #168 ) ) ;
#199 = DIRECTION ( 'NONE',  ( -3.628583108584750472E-17, -1.000000000000000000, 0.000000000000000000 ) ) ;
#200 = CIRCLE ( 'NONE', #98, 0.09374999999999998612 ) ;
#201 =( NAMED_UNIT ( * ) PLANE_ANGLE_UNIT ( ) SI_UNIT ( $, .RADIAN. ) );
#202 = CARTESIAN_POINT ( 'NONE',  ( 0.000000000000000000, 0.000000000000000000, 0.000000000000000000 ) ) ;
#203 = ORIENTED_EDGE ( 'NONE', *, *, #86, .F. ) ;
#204 = ORIENTED_EDGE ( 'NONE', *, *, #297, .T. ) ;
#205 = AXIS2_PLACEMENT_3D ( 'NONE', #114, #275, #176 ) ;
#206 = DIRECTION ( 'NONE',  ( -1.000000000000000000, 0.000000000000000000, 0.000000000000000000 ) ) ;
#207 =( NAMED_UNIT ( * ) PLANE_ANGLE_UNIT ( ) SI_UNIT ( $, .RADIAN. ) );
#208 = ORIENTED_EDGE ( 'NONE', *, *, #109, .F. ) ;
#209 = MECHANICAL_DESIGN_GEOMETRIC_PRESENTATION_REPRESENTATION (  '', ( #191 ), #243 ) ;
#210 = CYLINDRICAL_SURFACE ( 'NONE', #45, 0.09374999999999995837 ) ;
#211 = FACE_OUTER_BOUND ( 'NONE', #192, .T. ) ;
#212 = ORIENTED_EDGE ( 'NONE', *, *, #161, .T. ) ;
#213 = LENGTH_MEASURE_WITH_UNIT ( LENGTH_MEASURE( 0.02539999999999999897 ), #21 );
#214 = SURFACE_SIDE_STYLE ('',( #287 ) ) ;
#215 = COLOUR_RGB ( '',0.7921568627450980005, 0.8196078431372548767, 0.9333333333333333481 ) ;
#216 = MECHANICAL_DESIGN_GEOMETRIC_PRESENTATION_REPRESENTATION (  '', ( #49 ), #160 ) ;
#217 = LENGTH_MEASURE_WITH_UNIT ( LENGTH_MEASURE( 0.02539999999999999897 ), #107 );
#218 = DIRECTION ( 'NONE',  ( -0.000000000000000000, -1.000000000000000000, -0.000000000000000000 ) ) ;
#219 = DIRECTION ( 'NONE',  ( -0.000000000000000000, -1.000000000000000000, -0.000000000000000000 ) ) ;
#220 = CLOSED_SHELL ( 'NONE', ( #31, #15, #288, #197 ) ) ;
#221 = ADVANCED_FACE ( 'NONE', ( #237 ), #210, .T. ) ;
#222 = CARTESIAN_POINT ( 'NONE',  ( 0.000000000000000000, 0.000000000000000000, -0.09375000000000001388 ) ) ;
#223 = DIRECTION ( 'NONE',  ( -1.000000000000000000, 0.000000000000000000, 0.000000000000000000 ) ) ;
#224 = AXIS2_PLACEMENT_3D ( 'NONE', #78, #70, #259 ) ;
#225 = AXIS2_PLACEMENT_3D ( 'NONE', #305, #156, #115 ) ;
#226 = CARTESIAN_POINT ( 'NONE',  ( 0.000000000000000000, 0.3125000000000000000, 0.000000000000000000 ) ) ;
#227 = APPLICATION_PROTOCOL_DEFINITION ( 'draft international standard', 'automotive_design', 1998, #63 ) ;
#228 = DIRECTION ( 'NONE',  ( 0.000000000000000000, -1.000000000000000000, -0.000000000000000000 ) ) ;
#229 = DIRECTION ( 'NONE',  ( 0.000000000000000000, 0.000000000000000000, -1.000000000000000000 ) ) ;
#230 = CIRCLE ( 'NONE', #242, 0.09374999999999991673 ) ;
#231 = EDGE_CURVE ( 'NONE', #122, #184, #172, .T. ) ;
#232 = VERTEX_POINT ( 'NONE', #111 ) ;
#233 = CIRCLE ( 'NONE', #92, 0.09374999999999998612 ) ;
#234 = SURFACE_STYLE_USAGE ( .BOTH. , #101 ) ;
#235 = DIRECTION ( 'NONE',  ( 0.000000000000000000, 0.000000000000000000, -1.000000000000000000 ) ) ;
#236 = FACE_OUTER_BOUND ( 'NONE', #32, .T. ) ;
#237 = FACE_OUTER_BOUND ( 'NONE', #189, .T. ) ;
#238 = FILL_AREA_STYLE ('',( #55 ) ) ;
#239 = ORIENTED_EDGE ( 'NONE', *, *, #80, .F. ) ;
#240 = ORIENTED_EDGE ( 'NONE', *, *, #231, .T. ) ;
#241 = PRODUCT_DEFINITION ( 'UNKNOWN', '', #143, #1 ) ;
#242 = AXIS2_PLACEMENT_3D ( 'NONE', #87, #302, #223 ) ;
#243 =( GEOMETRIC_REPRESENTATION_CONTEXT ( 3 ) GLOBAL_UNCERTAINTY_ASSIGNED_CONTEXT ( ( #265 ) ) GLOBAL_UNIT_ASSIGNED_CONTEXT ( ( #151, #13, #251 ) ) REPRESENTATION_CONTEXT ( 'NONE', 'WORKASPACE' ) );
#244 = FACE_OUTER_BOUND ( 'NONE', #16, .T. ) ;
#245 = UNCERTAINTY_MEASURE_WITH_UNIT (LENGTH_MEASURE( 1.000000000000000082E-05 ), #142, 'distance_accuracy_value', 'NONE');
#246 = CIRCLE ( 'NONE', #148, 0.09375000000000001388 ) ;
#247 = MANIFOLD_SOLID_BREP ( 'Revolve - Tool Body (Straight Shanked)', #7 ) ;
#248 =( CONVERSION_BASED_UNIT ( 'INCH', #149 ) LENGTH_UNIT ( ) NAMED_UNIT ( #250 ) );
#249 = DIRECTION ( 'NONE',  ( -0.000000000000000000, -1.000000000000000000, -0.000000000000000000 ) ) ;
#250 = DIMENSIONAL_EXPONENTS ( 1.000000000000000000, 0.000000000000000000, 0.000000000000000000, 0.000000000000000000, 0.000000000000000000, 0.000000000000000000, 0.000000000000000000 ) ;
#251 =( NAMED_UNIT ( * ) SI_UNIT ( $, .STERADIAN. ) SOLID_ANGLE_UNIT ( ) );
#252 = SURFACE_STYLE_FILL_AREA ( #152 ) ;
#253 = CARTESIAN_POINT ( 'NONE',  ( 0.09375000000000002776, 2.000000000000000000, 1.148106374200643092E-17 ) ) ;
#254 = COLOUR_RGB ( '',1.000000000000000000, 0.000000000000000000, 0.000000000000000000 ) ;
#255 = VECTOR ( 'NONE', #170, 39.37007874015748143 ) ;
#256 = ORIENTED_EDGE ( 'NONE', *, *, #161, .F. ) ;
#257 = EDGE_CURVE ( 'NONE', #266, #303, #100, .T. ) ;
#258 = ORIENTED_EDGE ( 'NONE', *, *, #109, .T. ) ;
#259 = DIRECTION ( 'NONE',  ( -1.000000000000000000, 0.000000000000000000, 0.000000000000000000 ) ) ;
#260 = FACE_OUTER_BOUND ( 'NONE', #135, .T. ) ;
#261 = ORIENTED_EDGE ( 'NONE', *, *, #86, .T. ) ;
#262 = UNCERTAINTY_MEASURE_WITH_UNIT (LENGTH_MEASURE( 1.000000000000000082E-05 ), #248, 'distance_accuracy_value', 'NONE');
#263 = DIRECTION ( 'NONE',  ( 0.000000000000000000, 1.000000000000000000, 0.000000000000000000 ) ) ;
#264 = STYLED_ITEM ( 'NONE', ( #81 ), #31 ) ;
#265 = UNCERTAINTY_MEASURE_WITH_UNIT (LENGTH_MEASURE( 1.000000000000000082E-05 ), #151, 'distance_accuracy_value', 'NONE');
#266 = VERTEX_POINT ( 'NONE', #194 ) ;
#267 = ORIENTED_EDGE ( 'NONE', *, *, #40, .F. ) ;
#268 = CARTESIAN_POINT ( 'NONE',  ( -0.09374999999999988898, 2.000000000000000000, 0.000000000000000000 ) ) ;
#269 = MECHANICAL_DESIGN_GEOMETRIC_PRESENTATION_REPRESENTATION (  '', ( #119 ), #82 ) ;
#270 = CARTESIAN_POINT ( 'NONE',  ( 0.000000000000000000, 0.000000000000000000, 0.000000000000000000 ) ) ;
#271 = DIRECTION ( 'NONE',  ( -0.000000000000000000, -1.000000000000000000, -0.000000000000000000 ) ) ;
#272 = AXIS2_PLACEMENT_3D ( 'NONE', #90, #59, #58 ) ;
#273 = CARTESIAN_POINT ( 'NONE',  ( 0.000000000000000000, 0.000000000000000000, 0.000000000000000000 ) ) ;
#274 = PRESENTATION_STYLE_ASSIGNMENT (( #34 ) ) ;
#275 = DIRECTION ( 'NONE',  ( 0.000000000000000000, 0.000000000000000000, 1.000000000000000000 ) ) ;
#276 = CYLINDRICAL_SURFACE ( 'NONE', #224, 0.09374999999999995837 ) ;
#277 = ORIENTED_EDGE ( 'NONE', *, *, #144, .T. ) ;
#278 = SURFACE_STYLE_FILL_AREA ( #94 ) ;
#279 = ORIENTED_EDGE ( 'NONE', *, *, #144, .F. ) ;
#280 = APPLICATION_PROTOCOL_DEFINITION ( 'draft international standard', 'automotive_design', 1998, #46 ) ;
#281 = SURFACE_SIDE_STYLE ('',( #278 ) ) ;
#282 = MECHANICAL_DESIGN_GEOMETRIC_PRESENTATION_REPRESENTATION (  '', ( #88 ), #186 ) ;
#283 =( NAMED_UNIT ( * ) PLANE_ANGLE_UNIT ( ) SI_UNIT ( $, .RADIAN. ) );
#284 = ADVANCED_BREP_SHAPE_REPRESENTATION ( '30077', ( #54, #247, #205 ), #66 ) ;
#285 = CARTESIAN_POINT ( 'NONE',  ( 0.000000000000000000, 0.3125000000000000000, 0.000000000000000000 ) ) ;
#286 = CYLINDRICAL_SURFACE ( 'NONE', #28, 0.09374999999999998612 ) ;
#287 = SURFACE_STYLE_FILL_AREA ( #57 ) ;
#288 = ADVANCED_FACE ( 'NONE', ( #244 ), #38, .T. ) ;
#289 = UNCERTAINTY_MEASURE_WITH_UNIT (LENGTH_MEASURE( 1.000000000000000082E-05 ), #113, 'distance_accuracy_value', 'NONE');
#290 = ORIENTED_EDGE ( 'NONE', *, *, #73, .F. ) ;
#291 = CARTESIAN_POINT ( 'NONE',  ( 0.000000000000000000, 0.000000000000000000, 0.000000000000000000 ) ) ;
#292 = VECTOR ( 'NONE', #218, 39.37007874015748143 ) ;
#293 = SURFACE_SIDE_STYLE ('',( #129 ) ) ;
#294 =( LENGTH_UNIT ( ) NAMED_UNIT ( * ) SI_UNIT ( $, .METRE. ) );
#295 =( NAMED_UNIT ( * ) SI_UNIT ( $, .STERADIAN. ) SOLID_ANGLE_UNIT ( ) );
#296 = MECHANICAL_DESIGN_GEOMETRIC_PRESENTATION_REPRESENTATION (  '', ( #264 ), #126 ) ;
#297 = EDGE_CURVE ( 'NONE', #122, #308, #11, .T. ) ;
#298 = FILL_AREA_STYLE_COLOUR ( '', #215 ) ;
#299 = COLOUR_RGB ( '',0.7921568627450980005, 0.8196078431372548767, 0.9333333333333333481 ) ;
#300 = PLANE ( 'NONE',  #60 ) ;
#301 = DIMENSIONAL_EXPONENTS ( 1.000000000000000000, 0.000000000000000000, 0.000000000000000000, 0.000000000000000000, 0.000000000000000000, 0.000000000000000000, 0.000000000000000000 ) ;
#302 = DIRECTION ( 'NONE',  ( 3.628583108584750472E-17, 1.000000000000000000, -0.000000000000000000 ) ) ;
#303 = VERTEX_POINT ( 'NONE', #222 ) ;
#304 = PRODUCT ( '30077', '30077', '', ( #23 ) ) ;
#305 = CARTESIAN_POINT ( 'NONE',  ( 0.000000000000000000, 0.3125000000000000000, 0.000000000000000000 ) ) ;
#306 = FILL_AREA_STYLE_COLOUR ( '', #299 ) ;
#307 = FACE_OUTER_BOUND ( 'NONE', #188, .T. ) ;
#308 = VERTEX_POINT ( 'NONE', #147 ) ;
#309 = FACE_OUTER_BOUND ( 'NONE', #77, .T. ) ;
ENDSEC;
END-ISO-10303-21;
