ISO-10303-21;
HEADER;
FILE_DESCRIPTION (( 'STEP AP214' ),
    '1' );
FILE_NAME ('Micro_AEMM-060-3.STEP',
    '2022-03-15T14:27:38',
    ( '' ),
    ( '' ),
    'SwSTEP 2.0',
    'SolidWorks 2022',
    '' );
FILE_SCHEMA (( 'AUTOMOTIVE_DESIGN' ));
ENDSEC;

DATA;
#1 = FILL_AREA_STYLE ('',( #72 ) ) ;
#2 = DIRECTION ( 'NONE',  ( 0.000000000000000000, 0.000000000000000000, 1.000000000000000000 ) ) ;
#3 = COLOUR_RGB ( '',0.7921568627450980005, 0.8196078431372548767, 0.9333333333333333481 ) ;
#4 = LINE ( 'NONE', #188, #163 ) ;
#5 = ORIENTED_EDGE ( 'NONE', *, *, #244, .F. ) ;
#6 = DIRECTION ( 'NONE',  ( 0.000000000000000000, 0.000000000000000000, 1.000000000000000000 ) ) ;
#7 = DIRECTION ( 'NONE',  ( -1.000000000000000000, 0.000000000000000000, 1.224646799147353454E-16 ) ) ;
#8 = MECHANICAL_DESIGN_GEOMETRIC_PRESENTATION_REPRESENTATION (  '', ( #93 ), #218 ) ;
#9 = AXIS2_PLACEMENT_3D ( 'NONE', #222, #219, #159 ) ;
#10 = ADVANCED_FACE ( 'NONE', ( #109 ), #119, .T. ) ;
#11 = DIRECTION ( 'NONE',  ( -0.000000000000000000, -0.000000000000000000, -1.000000000000000000 ) ) ;
#12 = ORIENTED_EDGE ( 'NONE', *, *, #221, .T. ) ;
#13 = EDGE_LOOP ( 'NONE', ( #36, #215, #284, #16 ) ) ;
#14 = EDGE_CURVE ( 'NONE', #198, #141, #178, .T. ) ;
#15 = VECTOR ( 'NONE', #133, 39.37007874015748143 ) ;
#16 = ORIENTED_EDGE ( 'NONE', *, *, #102, .F. ) ;
#17 = VERTEX_POINT ( 'NONE', #177 ) ;
#18 = DIRECTION ( 'NONE',  ( -1.000000000000000000, 0.000000000000000000, 1.224646799147353454E-16 ) ) ;
#19 = DIRECTION ( 'NONE',  ( -1.000000000000000000, 0.000000000000000000, 1.224646799147353454E-16 ) ) ;
#20 = CIRCLE ( 'NONE', #111, 0.1179918899999999882 ) ;
#21 = CARTESIAN_POINT ( 'NONE',  ( 0.000000000000000000, 0.000000000000000000, 2.229093999999999465 ) ) ;
#22 = DIRECTION ( 'NONE',  ( 1.000000000000000000, 0.000000000000000000, 0.000000000000000000 ) ) ;
#23 = DIMENSIONAL_EXPONENTS ( 1.000000000000000000, 0.000000000000000000, 0.000000000000000000, 0.000000000000000000, 0.000000000000000000, 0.000000000000000000, 0.000000000000000000 ) ;
#24 = PRODUCT ( 'Micro_AEMM-060-3', 'Micro_AEMM-060-3', '', ( #168 ) ) ;
#25 = DIRECTION ( 'NONE',  ( -0.000000000000000000, -0.000000000000000000, -1.000000000000000000 ) ) ;
#26 = ADVANCED_FACE ( 'NONE', ( #128 ), #266, .T. ) ;
#27 = DIRECTION ( 'NONE',  ( 1.000000000000000000, 0.000000000000000000, 0.000000000000000000 ) ) ;
#28 = DIRECTION ( 'NONE',  ( 1.000000000000000000, 0.000000000000000000, 0.000000000000000000 ) ) ;
#29 = APPLICATION_PROTOCOL_DEFINITION ( 'draft international standard', 'automotive_design', 1998, #187 ) ;
#30 = DIRECTION ( 'NONE',  ( -1.000000000000000000, 0.000000000000000000, 0.000000000000000000 ) ) ;
#31 =( LENGTH_UNIT ( ) NAMED_UNIT ( * ) SI_UNIT ( $, .METRE. ) );
#32 = EDGE_CURVE ( 'NONE', #150, #123, #201, .T. ) ;
#33 = LENGTH_MEASURE_WITH_UNIT ( LENGTH_MEASURE( 0.02539999999999999897 ), #205 );
#34 = SURFACE_STYLE_FILL_AREA ( #1 ) ;
#35 = DIRECTION ( 'NONE',  ( 0.000000000000000000, 0.000000000000000000, -1.000000000000000000 ) ) ;
#36 = ORIENTED_EDGE ( 'NONE', *, *, #225, .T. ) ;
#37 = ORIENTED_EDGE ( 'NONE', *, *, #32, .T. ) ;
#38 = VERTEX_POINT ( 'NONE', #270 ) ;
#39 = ORIENTED_EDGE ( 'NONE', *, *, #116, .F. ) ;
#40 = CIRCLE ( 'NONE', #267, 0.1181100000000000066 ) ;
#41 = ORIENTED_EDGE ( 'NONE', *, *, #62, .F. ) ;
#42 = LINE ( 'NONE', #130, #15 ) ;
#43 = DIRECTION ( 'NONE',  ( 1.000000000000000000, 0.000000000000000000, 0.000000000000000000 ) ) ;
#44 = DIRECTION ( 'NONE',  ( -1.224646799147353207E-16, -0.000000000000000000, -1.000000000000000000 ) ) ;
#45 = EDGE_CURVE ( 'NONE', #38, #141, #42, .T. ) ;
#46 = CARTESIAN_POINT ( 'NONE',  ( -0.1179918899999999049, 1.445707119305702357E-17, 0.6299209999999999532 ) ) ;
#47 = DIRECTION ( 'NONE',  ( -1.224646799147353207E-16, -0.000000000000000000, -1.000000000000000000 ) ) ;
#48 = CIRCLE ( 'NONE', #70, 0.1179918899999999882 ) ;
#49 = UNCERTAINTY_MEASURE_WITH_UNIT (LENGTH_MEASURE( 1.000000000000000082E-05 ), #171, 'distance_accuracy_value', 'NONE');
#50 = PRODUCT_DEFINITION ( 'UNKNOWN', '', #248, #176 ) ;
#51 = SURFACE_STYLE_USAGE ( .BOTH. , #138 ) ;
#52 = DIRECTION ( 'NONE',  ( -0.7071067811865358044, 0.000000000000000000, -0.7071067811865590080 ) ) ;
#53 = CIRCLE ( 'NONE', #256, 0.1181100000000000066 ) ;
#54 = AXIS2_PLACEMENT_3D ( 'NONE', #118, #68, #28 ) ;
#55 =( LENGTH_UNIT ( ) NAMED_UNIT ( * ) SI_UNIT ( $, .METRE. ) );
#56 = ORIENTED_EDGE ( 'NONE', *, *, #254, .F. ) ;
#57 = STYLED_ITEM ( 'NONE', ( #142 ), #263 ) ;
#58 = ORIENTED_EDGE ( 'NONE', *, *, #244, .T. ) ;
#59 = ORIENTED_EDGE ( 'NONE', *, *, #254, .T. ) ;
#60 = DIRECTION ( 'NONE',  ( 1.224646799147353207E-16, 0.000000000000000000, 1.000000000000000000 ) ) ;
#61 = DIRECTION ( 'NONE',  ( 0.000000000000000000, 0.000000000000000000, -1.000000000000000000 ) ) ;
#62 = EDGE_CURVE ( 'NONE', #38, #95, #115, .T. ) ;
#63 = DIRECTION ( 'NONE',  ( 1.000000000000000000, 0.000000000000000000, 0.000000000000000000 ) ) ;
#64 = DIRECTION ( 'NONE',  ( -1.224646799147353207E-16, -0.000000000000000000, -1.000000000000000000 ) ) ;
#65 = DIRECTION ( 'NONE',  ( -1.000000000000000000, 0.000000000000000000, 0.000000000000000000 ) ) ;
#66 = CARTESIAN_POINT ( 'NONE',  ( 1.769594913022618037E-33, 0.000000000000000000, 1.444983904138465938E-17 ) ) ;
#67 = CARTESIAN_POINT ( 'NONE',  ( 0.000000000000000000, 0.000000000000000000, 2.244094000000000033 ) ) ;
#68 = DIRECTION ( 'NONE',  ( -1.224646799147353207E-16, -0.000000000000000000, -1.000000000000000000 ) ) ;
#69 =( NAMED_UNIT ( * ) SI_UNIT ( $, .STERADIAN. ) SOLID_ANGLE_UNIT ( ) );
#70 = AXIS2_PLACEMENT_3D ( 'NONE', #275, #231, #257 ) ;
#71 = DIRECTION ( 'NONE',  ( 1.000000000000000000, 0.000000000000000000, -0.000000000000000000 ) ) ;
#72 = FILL_AREA_STYLE_COLOUR ( '', #3 ) ;
#73 = DIRECTION ( 'NONE',  ( 1.000000000000000000, 0.000000000000000000, 0.000000000000000000 ) ) ;
#74 = CIRCLE ( 'NONE', #223, 0.1031100000000002570 ) ;
#75 = EDGE_LOOP ( 'NONE', ( #237, #175, #173, #58 ) ) ;
#76 = DIRECTION ( 'NONE',  ( 1.000000000000000000, 0.000000000000000000, 0.000000000000000000 ) ) ;
#77 = CIRCLE ( 'NONE', #192, 0.1179918899999999882 ) ;
#78 = ORIENTED_EDGE ( 'NONE', *, *, #126, .F. ) ;
#79 = EDGE_LOOP ( 'NONE', ( #41, #12, #195, #39 ) ) ;
#80 = ORIENTED_EDGE ( 'NONE', *, *, #14, .F. ) ;
#81 = CARTESIAN_POINT ( 'NONE',  ( 0.000000000000000000, 0.000000000000000000, 2.244094000000000033 ) ) ;
#82 = DIRECTION ( 'NONE',  ( -1.224646799147353207E-16, -0.000000000000000000, -1.000000000000000000 ) ) ;
#83 = DIRECTION ( 'NONE',  ( 0.000000000000000000, 0.000000000000000000, -1.000000000000000000 ) ) ;
#84 = CYLINDRICAL_SURFACE ( 'NONE', #137, 0.1179918899999999882 ) ;
#85 = DIRECTION ( 'NONE',  ( 1.000000000000000000, 0.000000000000000000, 0.000000000000000000 ) ) ;
#86 = CARTESIAN_POINT ( 'NONE',  ( -0.1179918899999999882, 0.000000000000000000, 2.889967808276931875E-17 ) ) ;
#87 =( NAMED_UNIT ( * ) PLANE_ANGLE_UNIT ( ) SI_UNIT ( $, .RADIAN. ) );
#88 = EDGE_CURVE ( 'NONE', #259, #198, #53, .T. ) ;
#89 = CARTESIAN_POINT ( 'NONE',  ( -0.1181100000000000066, 0.000000000000000000, 2.229093999999999465 ) ) ;
#90 = CLOSED_SHELL ( 'NONE', ( #92, #288, #208, #149, #96, #26, #122, #10, #207, #249 ) ) ;
#91 =( GEOMETRIC_REPRESENTATION_CONTEXT ( 3 ) GLOBAL_UNCERTAINTY_ASSIGNED_CONTEXT ( ( #105 ) ) GLOBAL_UNIT_ASSIGNED_CONTEXT ( ( #120, #87, #255 ) ) REPRESENTATION_CONTEXT ( 'NONE', 'WORKASPACE' ) );
#92 = ADVANCED_FACE ( 'NONE', ( #294 ), #185, .T. ) ;
#93 = STYLED_ITEM ( 'NONE', ( #258 ), #97 ) ;
#94 = CARTESIAN_POINT ( 'NONE',  ( 7.714307363656999460E-17, 0.000000000000000000, 0.6299209999999999532 ) ) ;
#95 = VERTEX_POINT ( 'NONE', #155 ) ;
#96 = ADVANCED_FACE ( 'NONE', ( #239 ), #110, .T. ) ;
#97 = ADVANCED_BREP_SHAPE_REPRESENTATION ( 'Micro_AEMM-060-3', ( #263, #260 ), #293 ) ;
#98 =( NAMED_UNIT ( * ) PLANE_ANGLE_UNIT ( ) SI_UNIT ( $, .RADIAN. ) );
#99 = PRESENTATION_LAYER_ASSIGNMENT (  '', '', ( #57 ) ) ;
#100 = DIRECTION ( 'NONE',  ( 0.000000000000000000, 0.000000000000000000, 1.000000000000000000 ) ) ;
#101 = ORIENTED_EDGE ( 'NONE', *, *, #225, .F. ) ;
#102 = EDGE_CURVE ( 'NONE', #150, #291, #295, .T. ) ;
#103 = ORIENTED_EDGE ( 'NONE', *, *, #88, .F. ) ;
#104 = AXIS2_PLACEMENT_3D ( 'NONE', #148, #100, #113 ) ;
#105 = UNCERTAINTY_MEASURE_WITH_UNIT (LENGTH_MEASURE( 1.000000000000000082E-05 ), #120, 'distance_accuracy_value', 'NONE');
#106 = AXIS2_PLACEMENT_3D ( 'NONE', #67, #35, #30 ) ;
#107 = CARTESIAN_POINT ( 'NONE',  ( 0.1031100000000002570, 1.354581824536888722E-17, 2.244094000000000033 ) ) ;
#108 = EDGE_LOOP ( 'NONE', ( #145, #59, #103, #212 ) ) ;
#109 = FACE_OUTER_BOUND ( 'NONE', #75, .T. ) ;
#110 = CYLINDRICAL_SURFACE ( 'NONE', #144, 0.1181100000000000066 ) ;
#111 = AXIS2_PLACEMENT_3D ( 'NONE', #66, #44, #19 ) ;
#112 = DIRECTION ( 'NONE',  ( -1.224646799147353207E-16, -0.000000000000000000, -1.000000000000000000 ) ) ;
#113 = DIRECTION ( 'NONE',  ( 1.000000000000000000, 0.000000000000000000, -0.000000000000000000 ) ) ;
#114 = CARTESIAN_POINT ( 'NONE',  ( 0.1181100000000000066, 1.446430334472939084E-17, 2.229093999999999465 ) ) ;
#115 = LINE ( 'NONE', #129, #183 ) ;
#116 = EDGE_CURVE ( 'NONE', #95, #291, #127, .T. ) ;
#117 = FILL_AREA_STYLE_COLOUR ( '', #243 ) ;
#118 = CARTESIAN_POINT ( 'NONE',  ( 7.722510477716240475E-17, 0.000000000000000000, 0.6305908350957151187 ) ) ;
#119 = CONICAL_SURFACE ( 'NONE', #285, 0.1179918899999999882, 0.1745329251994339192 ) ;
#120 =( CONVERSION_BASED_UNIT ( 'INCH', #33 ) LENGTH_UNIT ( ) NAMED_UNIT ( #23 ) );
#121 = EDGE_LOOP ( 'NONE', ( #172, #213, #151, #78 ) ) ;
#122 = ADVANCED_FACE ( 'NONE', ( #157 ), #297, .T. ) ;
#123 = VERTEX_POINT ( 'NONE', #182 ) ;
#124 = ORIENTED_EDGE ( 'NONE', *, *, #132, .F. ) ;
#125 = CARTESIAN_POINT ( 'NONE',  ( 7.714307363656999460E-17, 0.000000000000000000, 0.6299209999999999532 ) ) ;
#126 = EDGE_CURVE ( 'NONE', #259, #123, #220, .T. ) ;
#127 = CIRCLE ( 'NONE', #9, 0.1179918899999999882 ) ;
#128 = FACE_OUTER_BOUND ( 'NONE', #287, .T. ) ;
#129 = CARTESIAN_POINT ( 'NONE',  ( 0.1179918899999999882, 1.444983904138465938E-17, -1.444983904138465938E-17 ) ) ;
#130 = CARTESIAN_POINT ( 'NONE',  ( 0.1179918900000000853, 0.000000000000000000, 0.6299209999999999532 ) ) ;
#131 = AXIS2_PLACEMENT_3D ( 'NONE', #167, #2, #71 ) ;
#132 = EDGE_CURVE ( 'NONE', #198, #259, #158, .T. ) ;
#133 = DIRECTION ( 'NONE',  ( 0.1736481776669314137, 0.000000000000000000, 0.9848077530122077983 ) ) ;
#134 = CARTESIAN_POINT ( 'NONE',  ( -0.1181100000000000066, 0.000000000000000000, 2.244094000000000033 ) ) ;
#135 = DIRECTION ( 'NONE',  ( 0.000000000000000000, 0.000000000000000000, -1.000000000000000000 ) ) ;
#136 = EDGE_CURVE ( 'NONE', #17, #289, #74, .T. ) ;
#137 = AXIS2_PLACEMENT_3D ( 'NONE', #161, #164, #7 ) ;
#138 = SURFACE_SIDE_STYLE ('',( #252 ) ) ;
#139 = SURFACE_STYLE_USAGE ( .BOTH. , #190 ) ;
#140 = FACE_OUTER_BOUND ( 'NONE', #108, .T. ) ;
#141 = VERTEX_POINT ( 'NONE', #274 ) ;
#142 = PRESENTATION_STYLE_ASSIGNMENT (( #51 ) ) ;
#143 =( NAMED_UNIT ( * ) PLANE_ANGLE_UNIT ( ) SI_UNIT ( $, .RADIAN. ) );
#144 = AXIS2_PLACEMENT_3D ( 'NONE', #81, #25, #246 ) ;
#145 = ORIENTED_EDGE ( 'NONE', *, *, #290, .F. ) ;
#146 = CARTESIAN_POINT ( 'NONE',  ( 0.000000000000000000, 0.000000000000000000, 0.000000000000000000 ) ) ;
#147 =( NAMED_UNIT ( * ) SI_UNIT ( $, .STERADIAN. ) SOLID_ANGLE_UNIT ( ) );
#148 = CARTESIAN_POINT ( 'NONE',  ( 0.000000000000000000, 0.000000000000000000, 2.244094000000000033 ) ) ;
#149 = ADVANCED_FACE ( 'NONE', ( #296 ), #240, .T. ) ;
#150 = VERTEX_POINT ( 'NONE', #46 ) ;
#151 = ORIENTED_EDGE ( 'NONE', *, *, #191, .F. ) ;
#152 = EDGE_LOOP ( 'NONE', ( #193, #265 ) ) ;
#153 = ORIENTED_EDGE ( 'NONE', *, *, #136, .F. ) ;
#154 = VECTOR ( 'NONE', #299, 39.37007874015748143 ) ;
#155 = CARTESIAN_POINT ( 'NONE',  ( 0.1179918899999999882, 1.444983904138465938E-17, 0.000000000000000000 ) ) ;
#156 = DIRECTION ( 'NONE',  ( -0.000000000000000000, -0.000000000000000000, -1.000000000000000000 ) ) ;
#157 = FACE_OUTER_BOUND ( 'NONE', #233, .T. ) ;
#158 = CIRCLE ( 'NONE', #273, 0.1181100000000000066 ) ;
#159 = DIRECTION ( 'NONE',  ( -1.000000000000000000, 0.000000000000000000, 1.224646799147353454E-16 ) ) ;
#160 = UNCERTAINTY_MEASURE_WITH_UNIT (LENGTH_MEASURE( 1.000000000000000082E-05 ), #276, 'distance_accuracy_value', 'NONE');
#161 = CARTESIAN_POINT ( 'NONE',  ( 0.000000000000000000, 0.000000000000000000, 0.000000000000000000 ) ) ;
#162 = PLANE ( 'NONE',  #131 ) ;
#163 = VECTOR ( 'NONE', #247, 39.37007874015748854 ) ;
#164 = DIRECTION ( 'NONE',  ( -1.224646799147353207E-16, -0.000000000000000000, -1.000000000000000000 ) ) ;
#165 = PRESENTATION_LAYER_ASSIGNMENT (  '', '', ( #93 ) ) ;
#166 = FACE_OUTER_BOUND ( 'NONE', #152, .T. ) ;
#167 = CARTESIAN_POINT ( 'NONE',  ( 0.000000000000000000, 0.000000000000000000, 0.000000000000000000 ) ) ;
#168 = PRODUCT_CONTEXT ( 'NONE', #187, 'mechanical' ) ;
#169 = AXIS2_PLACEMENT_3D ( 'NONE', #217, #199, #65 ) ;
#170 = CARTESIAN_POINT ( 'NONE',  ( 0.000000000000000000, 0.000000000000000000, 2.244094000000000033 ) ) ;
#171 =( CONVERSION_BASED_UNIT ( 'INCH', #282 ) LENGTH_UNIT ( ) NAMED_UNIT ( #203 ) );
#172 = ORIENTED_EDGE ( 'NONE', *, *, #88, .T. ) ;
#173 = ORIENTED_EDGE ( 'NONE', *, *, #45, .T. ) ;
#174 = CIRCLE ( 'NONE', #196, 0.1031100000000002570 ) ;
#175 = ORIENTED_EDGE ( 'NONE', *, *, #221, .F. ) ;
#176 = PRODUCT_DEFINITION_CONTEXT ( 'detailed design', #200, 'design' ) ;
#177 = CARTESIAN_POINT ( 'NONE',  ( -0.1031100000000002570, 0.000000000000000000, 2.244094000000000033 ) ) ;
#178 = LINE ( 'NONE', #211, #242 ) ;
#179 = CARTESIAN_POINT ( 'NONE',  ( -0.1179918899999999882, 0.000000000000000000, 1.444983904138465938E-17 ) ) ;
#180 = EDGE_CURVE ( 'NONE', #291, #95, #20, .T. ) ;
#181 = CARTESIAN_POINT ( 'NONE',  ( 0.000000000000000000, 0.000000000000000000, 2.229093999999999465 ) ) ;
#182 = CARTESIAN_POINT ( 'NONE',  ( -0.1181099999999999234, 0.000000000000000000, 0.6305908350957151187 ) ) ;
#183 = VECTOR ( 'NONE', #82, 39.37007874015748143 ) ;
#184 = AXIS2_PLACEMENT_3D ( 'NONE', #94, #279, #73 ) ;
#185 = CYLINDRICAL_SURFACE ( 'NONE', #238, 0.1179918899999999882 ) ;
#186 = CARTESIAN_POINT ( 'NONE',  ( 7.722510477716240475E-17, 0.000000000000000000, 0.6305908350957151187 ) ) ;
#187 = APPLICATION_CONTEXT ( 'automotive_design' ) ;
#188 = CARTESIAN_POINT ( 'NONE',  ( 0.1031100000000002570, 1.262733314600838667E-17, 2.244094000000000033 ) ) ;
#189 = FACE_OUTER_BOUND ( 'NONE', #283, .T. ) ;
#190 = SURFACE_SIDE_STYLE ('',( #34 ) ) ;
#191 = EDGE_CURVE ( 'NONE', #123, #141, #40, .T. ) ;
#192 = AXIS2_PLACEMENT_3D ( 'NONE', #230, #47, #206 ) ;
#193 = ORIENTED_EDGE ( 'NONE', *, *, #180, .T. ) ;
#194 = EDGE_LOOP ( 'NONE', ( #80, #236, #197, #5 ) ) ;
#195 = ORIENTED_EDGE ( 'NONE', *, *, #102, .T. ) ;
#196 = AXIS2_PLACEMENT_3D ( 'NONE', #170, #269, #27 ) ;
#197 = ORIENTED_EDGE ( 'NONE', *, *, #126, .T. ) ;
#198 = VERTEX_POINT ( 'NONE', #114 ) ;
#199 = DIRECTION ( 'NONE',  ( -0.000000000000000000, -0.000000000000000000, -1.000000000000000000 ) ) ;
#200 = APPLICATION_CONTEXT ( 'automotive_design' ) ;
#201 = LINE ( 'NONE', #204, #272 ) ;
#202 = FACE_OUTER_BOUND ( 'NONE', #79, .T. ) ;
#203 = DIMENSIONAL_EXPONENTS ( 1.000000000000000000, 0.000000000000000000, 0.000000000000000000, 0.000000000000000000, 0.000000000000000000, 0.000000000000000000, 0.000000000000000000 ) ;
#204 = CARTESIAN_POINT ( 'NONE',  ( -0.1179918899999999049, 1.444983904138465938E-17, 0.6299209999999999532 ) ) ;
#205 =( LENGTH_UNIT ( ) NAMED_UNIT ( * ) SI_UNIT ( $, .METRE. ) );
#206 = DIRECTION ( 'NONE',  ( -1.000000000000000000, 0.000000000000000000, 0.000000000000000000 ) ) ;
#207 = ADVANCED_FACE ( 'NONE', ( #202 ), #84, .T. ) ;
#208 = ADVANCED_FACE ( 'NONE', ( #140 ), #229, .T. ) ;
#209 = PRODUCT_RELATED_PRODUCT_CATEGORY ( 'part', '', ( #24 ) ) ;
#210 = CIRCLE ( 'NONE', #54, 0.1181100000000000066 ) ;
#211 = CARTESIAN_POINT ( 'NONE',  ( 0.1181100000000000066, 1.446430334472939084E-17, 2.244094000000000033 ) ) ;
#212 = ORIENTED_EDGE ( 'NONE', *, *, #298, .F. ) ;
#213 = ORIENTED_EDGE ( 'NONE', *, *, #14, .T. ) ;
#214 = VECTOR ( 'NONE', #52, 39.37007874015748854 ) ;
#215 = ORIENTED_EDGE ( 'NONE', *, *, #62, .T. ) ;
#216 = CARTESIAN_POINT ( 'NONE',  ( 0.000000000000000000, 0.000000000000000000, 0.000000000000000000 ) ) ;
#217 = CARTESIAN_POINT ( 'NONE',  ( 0.000000000000000000, 0.000000000000000000, 2.244094000000000033 ) ) ;
#218 =( GEOMETRIC_REPRESENTATION_CONTEXT ( 3 ) GLOBAL_UNCERTAINTY_ASSIGNED_CONTEXT ( ( #160 ) ) GLOBAL_UNIT_ASSIGNED_CONTEXT ( ( #276, #143, #69 ) ) REPRESENTATION_CONTEXT ( 'NONE', 'WORKASPACE' ) );
#219 = DIRECTION ( 'NONE',  ( -1.224646799147353207E-16, -0.000000000000000000, -1.000000000000000000 ) ) ;
#220 = LINE ( 'NONE', #134, #281 ) ;
#221 = EDGE_CURVE ( 'NONE', #38, #150, #77, .T. ) ;
#222 = CARTESIAN_POINT ( 'NONE',  ( 1.769594913022618037E-33, 0.000000000000000000, 1.444983904138465938E-17 ) ) ;
#223 = AXIS2_PLACEMENT_3D ( 'NONE', #245, #271, #63 ) ;
#224 = LENGTH_MEASURE_WITH_UNIT ( LENGTH_MEASURE( 0.02539999999999999897 ), #31 );
#225 = EDGE_CURVE ( 'NONE', #150, #38, #48, .T. ) ;
#226 = DIRECTION ( 'NONE',  ( 1.000000000000000000, 0.000000000000000000, 0.000000000000000000 ) ) ;
#227 = APPLICATION_PROTOCOL_DEFINITION ( 'draft international standard', 'automotive_design', 1998, #200 ) ;
#228 = ORIENTED_EDGE ( 'NONE', *, *, #191, .T. ) ;
#229 = CONICAL_SURFACE ( 'NONE', #106, 0.1031100000000002570, 0.7853981633974318477 ) ;
#230 = CARTESIAN_POINT ( 'NONE',  ( 7.714307363656999460E-17, 0.000000000000000000, 0.6299209999999999532 ) ) ;
#231 = DIRECTION ( 'NONE',  ( -1.224646799147353207E-16, -0.000000000000000000, -1.000000000000000000 ) ) ;
#232 = SHAPE_DEFINITION_REPRESENTATION ( #277, #97 ) ;
#233 = EDGE_LOOP ( 'NONE', ( #56, #153, #264, #124 ) ) ;
#234 = ORIENTED_EDGE ( 'NONE', *, *, #290, .T. ) ;
#235 = ORIENTED_EDGE ( 'NONE', *, *, #45, .F. ) ;
#236 = ORIENTED_EDGE ( 'NONE', *, *, #132, .T. ) ;
#237 = ORIENTED_EDGE ( 'NONE', *, *, #32, .F. ) ;
#238 = AXIS2_PLACEMENT_3D ( 'NONE', #216, #64, #18 ) ;
#239 = FACE_OUTER_BOUND ( 'NONE', #194, .T. ) ;
#240 = CYLINDRICAL_SURFACE ( 'NONE', #169, 0.1181100000000000066 ) ;
#241 = CARTESIAN_POINT ( 'NONE',  ( 0.000000000000000000, 0.000000000000000000, 2.244094000000000033 ) ) ;
#242 = VECTOR ( 'NONE', #11, 39.37007874015748143 ) ;
#243 = COLOUR_RGB ( '',0.7921568627450980005, 0.8196078431372548767, 0.9333333333333333481 ) ;
#244 = EDGE_CURVE ( 'NONE', #141, #123, #210, .T. ) ;
#245 = CARTESIAN_POINT ( 'NONE',  ( 0.000000000000000000, 0.000000000000000000, 2.244094000000000033 ) ) ;
#246 = DIRECTION ( 'NONE',  ( -1.000000000000000000, 0.000000000000000000, 0.000000000000000000 ) ) ;
#247 = DIRECTION ( 'NONE',  ( 0.7071067811865358044, 8.659560562354788645E-17, -0.7071067811865590080 ) ) ;
#248 = PRODUCT_DEFINITION_FORMATION_WITH_SPECIFIED_SOURCE ( 'ANY', '', #24, .NOT_KNOWN. ) ;
#249 = ADVANCED_FACE ( 'NONE', ( #166 ), #162, .F. ) ;
#250 = AXIS2_PLACEMENT_3D ( 'NONE', #241, #61, #268 ) ;
#251 = LINE ( 'NONE', #280, #214 ) ;
#252 = SURFACE_STYLE_FILL_AREA ( #253 ) ;
#253 = FILL_AREA_STYLE ('',( #117 ) ) ;
#254 = EDGE_CURVE ( 'NONE', #289, #198, #4, .T. ) ;
#255 =( NAMED_UNIT ( * ) SI_UNIT ( $, .STERADIAN. ) SOLID_ANGLE_UNIT ( ) );
#256 = AXIS2_PLACEMENT_3D ( 'NONE', #181, #135, #43 ) ;
#257 = DIRECTION ( 'NONE',  ( -1.000000000000000000, 0.000000000000000000, 0.000000000000000000 ) ) ;
#258 = PRESENTATION_STYLE_ASSIGNMENT (( #139 ) ) ;
#259 = VERTEX_POINT ( 'NONE', #89 ) ;
#260 = AXIS2_PLACEMENT_3D ( 'NONE', #146, #6, #226 ) ;
#261 = MECHANICAL_DESIGN_GEOMETRIC_PRESENTATION_REPRESENTATION (  '', ( #57 ), #91 ) ;
#262 = ORIENTED_EDGE ( 'NONE', *, *, #136, .T. ) ;
#263 = MANIFOLD_SOLID_BREP ( 'Cut-Revolve1', #90 ) ;
#264 = ORIENTED_EDGE ( 'NONE', *, *, #298, .T. ) ;
#265 = ORIENTED_EDGE ( 'NONE', *, *, #116, .T. ) ;
#266 = PLANE ( 'NONE',  #104 ) ;
#267 = AXIS2_PLACEMENT_3D ( 'NONE', #186, #112, #22 ) ;
#268 = DIRECTION ( 'NONE',  ( -1.000000000000000000, 0.000000000000000000, 0.000000000000000000 ) ) ;
#269 = DIRECTION ( 'NONE',  ( 0.000000000000000000, 0.000000000000000000, 1.000000000000000000 ) ) ;
#270 = CARTESIAN_POINT ( 'NONE',  ( 0.1179918900000000853, 0.000000000000000000, 0.6299209999999999532 ) ) ;
#271 = DIRECTION ( 'NONE',  ( 0.000000000000000000, 0.000000000000000000, 1.000000000000000000 ) ) ;
#272 = VECTOR ( 'NONE', #292, 39.37007874015747433 ) ;
#273 = AXIS2_PLACEMENT_3D ( 'NONE', #21, #83, #85 ) ;
#274 = CARTESIAN_POINT ( 'NONE',  ( 0.1181100000000000899, 1.446430334472940009E-17, 0.6305908350957151187 ) ) ;
#275 = CARTESIAN_POINT ( 'NONE',  ( 7.714307363656999460E-17, 0.000000000000000000, 0.6299209999999999532 ) ) ;
#276 =( CONVERSION_BASED_UNIT ( 'INCH', #224 ) LENGTH_UNIT ( ) NAMED_UNIT ( #278 ) );
#277 = PRODUCT_DEFINITION_SHAPE ( 'NONE', 'NONE',  #50 ) ;
#278 = DIMENSIONAL_EXPONENTS ( 1.000000000000000000, 0.000000000000000000, 0.000000000000000000, 0.000000000000000000, 0.000000000000000000, 0.000000000000000000, 0.000000000000000000 ) ;
#279 = DIRECTION ( 'NONE',  ( 1.224646799147353207E-16, 0.000000000000000000, 1.000000000000000000 ) ) ;
#280 = CARTESIAN_POINT ( 'NONE',  ( -0.1031100000000002570, 0.000000000000000000, 2.244094000000000033 ) ) ;
#281 = VECTOR ( 'NONE', #156, 39.37007874015748143 ) ;
#282 = LENGTH_MEASURE_WITH_UNIT ( LENGTH_MEASURE( 0.02539999999999999897 ), #55 );
#283 = EDGE_LOOP ( 'NONE', ( #101, #37, #228, #235 ) ) ;
#284 = ORIENTED_EDGE ( 'NONE', *, *, #180, .F. ) ;
#285 = AXIS2_PLACEMENT_3D ( 'NONE', #125, #60, #76 ) ;
#286 = CONICAL_SURFACE ( 'NONE', #184, 0.1179918899999999882, 0.1745329251994339192 ) ;
#287 = EDGE_LOOP ( 'NONE', ( #262, #234 ) ) ;
#288 = ADVANCED_FACE ( 'NONE', ( #189 ), #286, .T. ) ;
#289 = VERTEX_POINT ( 'NONE', #107 ) ;
#290 = EDGE_CURVE ( 'NONE', #289, #17, #174, .T. ) ;
#291 = VERTEX_POINT ( 'NONE', #86 ) ;
#292 = DIRECTION ( 'NONE',  ( -0.1736481776669312194, 2.126576849575783625E-17, 0.9848077530122080203 ) ) ;
#293 =( GEOMETRIC_REPRESENTATION_CONTEXT ( 3 ) GLOBAL_UNCERTAINTY_ASSIGNED_CONTEXT ( ( #49 ) ) GLOBAL_UNIT_ASSIGNED_CONTEXT ( ( #171, #98, #147 ) ) REPRESENTATION_CONTEXT ( 'NONE', 'WORKASPACE' ) );
#294 = FACE_OUTER_BOUND ( 'NONE', #13, .T. ) ;
#295 = LINE ( 'NONE', #179, #154 ) ;
#296 = FACE_OUTER_BOUND ( 'NONE', #121, .T. ) ;
#297 = CONICAL_SURFACE ( 'NONE', #250, 0.1031100000000002570, 0.7853981633974318477 ) ;
#298 = EDGE_CURVE ( 'NONE', #17, #259, #251, .T. ) ;
#299 = DIRECTION ( 'NONE',  ( -1.224646799147353207E-16, -0.000000000000000000, -1.000000000000000000 ) ) ;
ENDSEC;
END-ISO-10303-21;
