ISO-10303-21;
HEADER;
FILE_DESCRIPTION (( 'STEP AP214' ),
    '1' );
FILE_NAME ('Micro_GEC-375-3-030X.STEP',
    '2021-09-03T17:21:22',
    ( '' ),
    ( '' ),
    'SwSTEP 2.0',
    'SolidWorks 2020',
    '' );
FILE_SCHEMA (( 'AUTOMOTIVE_DESIGN' ));
ENDSEC;

DATA;
#1 = DIRECTION ( 'NONE',  ( -1.000000000000000000, 1.224646799147353454E-16, 0.0000000000000000000 ) ) ;
#2 = CONICAL_SURFACE ( 'NONE', #3, 0.1724999999999995981, 0.7853981633974357335 ) ;
#3 = AXIS2_PLACEMENT_3D ( 'NONE', #296, #166, #186 ) ;
#4 = PLANE ( 'NONE',  #199 ) ;
#5 = DIRECTION ( 'NONE',  ( 1.224646799147353207E-16, 1.000000000000000000, -0.0000000000000000000 ) ) ;
#6 = DIRECTION ( 'NONE',  ( -1.224646799147353207E-16, -0.0000000000000000000, -1.000000000000000000 ) ) ;
#7 = ORIENTED_EDGE ( 'NONE', *, *, #172, .F. ) ;
#8 = AXIS2_PLACEMENT_3D ( 'NONE', #278, #251, #62 ) ;
#9 = CIRCLE ( 'NONE', #205, 0.1724999999999995981 ) ;
#10 = EDGE_LOOP ( 'NONE', ( #229, #25, #112, #7 ) ) ;
#11 = ORIENTED_EDGE ( 'NONE', *, *, #16, .F. ) ;
#12 = VERTEX_POINT ( 'NONE', #225 ) ;
#13 = EDGE_LOOP ( 'NONE', ( #64, #198, #160, #267 ) ) ;
#14 = ORIENTED_EDGE ( 'NONE', *, *, #194, .F. ) ;
#15 = FILL_AREA_STYLE_COLOUR ( '', #246 ) ;
#16 = EDGE_CURVE ( 'NONE', #117, #12, #332, .T. ) ;
#17 = CARTESIAN_POINT ( 'NONE',  ( 0.1573124999999999940, 0.0000000000000000000, 0.02999999999999999889 ) ) ;
#18 = LENGTH_MEASURE_WITH_UNIT ( LENGTH_MEASURE( 0.02539999999999999897 ), #122 );
#19 = DIRECTION ( 'NONE',  ( 0.0000000000000000000, 0.0000000000000000000, 1.000000000000000000 ) ) ;
#20 = PRODUCT_DEFINITION ( 'UNKNOWN', '', #335, #73 ) ;
#21 = CIRCLE ( 'NONE', #157, 0.1875000000000000278 ) ;
#22 = SURFACE_STYLE_FILL_AREA ( #35 ) ;
#23 = DIRECTION ( 'NONE',  ( 0.0000000000000000000, 0.0000000000000000000, 1.000000000000000000 ) ) ;
#24 = CARTESIAN_POINT ( 'NONE',  ( 0.0000000000000000000, 0.0000000000000000000, 2.484999999999999432 ) ) ;
#25 = ORIENTED_EDGE ( 'NONE', *, *, #291, .F. ) ;
#26 = CARTESIAN_POINT ( 'NONE',  ( 3.673940397442059960E-18, 0.0000000000000000000, 0.03000000000000000583 ) ) ;
#27 = DIRECTION ( 'NONE',  ( -0.0000000000000000000, -0.0000000000000000000, -1.000000000000000000 ) ) ;
#28 = ORIENTED_EDGE ( 'NONE', *, *, #309, .T. ) ;
#29 = DIRECTION ( 'NONE',  ( 0.0000000000000000000, 0.0000000000000000000, 1.000000000000000000 ) ) ;
#30 = ORIENTED_EDGE ( 'NONE', *, *, #194, .T. ) ;
#31 = DIRECTION ( 'NONE',  ( 1.000000000000000000, 0.0000000000000000000, 0.0000000000000000000 ) ) ;
#32 = CARTESIAN_POINT ( 'NONE',  ( -0.1873124999999999929, 0.0000000000000000000, 2.293916535652885596E-17 ) ) ;
#33 = CONICAL_SURFACE ( 'NONE', #8, 0.1724999999999995981, 0.7853981633974357335 ) ;
#34 = CIRCLE ( 'NONE', #305, 0.1875000000000000278 ) ;
#35 = FILL_AREA_STYLE ('',( #277 ) ) ;
#36 = ORIENTED_EDGE ( 'NONE', *, *, #42, .F. ) ;
#37 = ORIENTED_EDGE ( 'NONE', *, *, #273, .T. ) ;
#38 = DIRECTION ( 'NONE',  ( 0.0000000000000000000, 0.0000000000000000000, 1.000000000000000000 ) ) ;
#39 = VECTOR ( 'NONE', #131, 39.37007874015748143 ) ;
#40 = ORIENTED_EDGE ( 'NONE', *, *, #302, .T. ) ;
#41 = CARTESIAN_POINT ( 'NONE',  ( 0.0000000000000000000, 0.0000000000000000000, 0.0000000000000000000 ) ) ;
#42 = EDGE_CURVE ( 'NONE', #224, #12, #311, .T. ) ;
#43 = DIRECTION ( 'NONE',  ( -1.000000000000000000, 0.0000000000000000000, 0.0000000000000000000 ) ) ;
#44 = PRESENTATION_LAYER_ASSIGNMENT (  '', '', ( #55 ) ) ;
#45 = VECTOR ( 'NONE', #182, 39.37007874015748854 ) ;
#46 =( CONVERSION_BASED_UNIT ( 'INCH', #315 ) LENGTH_UNIT ( ) NAMED_UNIT ( #84 ) );
#47 = APPLICATION_CONTEXT ( 'automotive_design' ) ;
#48 = CARTESIAN_POINT ( 'NONE',  ( 0.1873125000000000484, 0.0000000000000000000, 0.8750000000000000000 ) ) ;
#49 = TOROIDAL_SURFACE ( 'NONE', #257, 0.1573124999999999940, 0.02999999999999999889 ) ;
#50 = ADVANCED_FACE ( 'NONE', ( #170 ), #33, .T. ) ;
#51 = FACE_OUTER_BOUND ( 'NONE', #10, .T. ) ;
#52 = EDGE_LOOP ( 'NONE', ( #40, #220, #250, #167 ) ) ;
#53 = DIRECTION ( 'NONE',  ( 1.000000000000000000, 0.0000000000000000000, 0.0000000000000000000 ) ) ;
#54 = CARTESIAN_POINT ( 'NONE',  ( 3.673940397442059190E-18, 0.0000000000000000000, 0.0000000000000000000 ) ) ;
#55 = STYLED_ITEM ( 'NONE', ( #288 ), #103 ) ;
#56 = ORIENTED_EDGE ( 'NONE', *, *, #291, .T. ) ;
#57 = PRESENTATION_LAYER_ASSIGNMENT (  '', '', ( #209 ) ) ;
#58 = CARTESIAN_POINT ( 'NONE',  ( -0.1875000000000000278, 0.0000000000000000000, 2.484999999999999432 ) ) ;
#59 = PRODUCT ( 'Micro_GEC-375-3-030X', 'Micro_GEC-375-3-030X', '', ( #230 ) ) ;
#60 = AXIS2_PLACEMENT_3D ( 'NONE', #247, #6, #82 ) ;
#61 = ORIENTED_EDGE ( 'NONE', *, *, #172, .T. ) ;
#62 = DIRECTION ( 'NONE',  ( -1.000000000000000000, 0.0000000000000000000, 0.0000000000000000000 ) ) ;
#63 = ORIENTED_EDGE ( 'NONE', *, *, #214, .F. ) ;
#64 = ORIENTED_EDGE ( 'NONE', *, *, #210, .F. ) ;
#65 = FACE_OUTER_BOUND ( 'NONE', #295, .T. ) ;
#66 = DIRECTION ( 'NONE',  ( -1.000000000000000000, 0.0000000000000000000, 1.224646799147352961E-16 ) ) ;
#67 = AXIS2_PLACEMENT_3D ( 'NONE', #105, #266, #300 ) ;
#68 = ADVANCED_FACE ( 'NONE', ( #283 ), #304, .T. ) ;
#69 = DIRECTION ( 'NONE',  ( 1.000000000000000000, 0.0000000000000000000, 0.0000000000000000000 ) ) ;
#70 = DIRECTION ( 'NONE',  ( 1.000000000000000000, 0.0000000000000000000, 0.0000000000000000000 ) ) ;
#71 = CYLINDRICAL_SURFACE ( 'NONE', #282, 0.1875000000000000278 ) ;
#72 = EDGE_CURVE ( 'NONE', #253, #81, #121, .T. ) ;
#73 = PRODUCT_DEFINITION_CONTEXT ( 'detailed design', #272, 'design' ) ;
#74 = TOROIDAL_SURFACE ( 'NONE', #334, 0.1573124999999999940, 0.02999999999999999889 ) ;
#75 = DIRECTION ( 'NONE',  ( 1.224646799147353207E-16, 0.0000000000000000000, 1.000000000000000000 ) ) ;
#76 = AXIS2_PLACEMENT_3D ( 'NONE', #41, #38, #31 ) ;
#77 = ORIENTED_EDGE ( 'NONE', *, *, #331, .T. ) ;
#78 = DIRECTION ( 'NONE',  ( 1.000000000000000000, 0.0000000000000000000, 0.0000000000000000000 ) ) ;
#79 = VERTEX_POINT ( 'NONE', #118 ) ;
#80 = CARTESIAN_POINT ( 'NONE',  ( 0.1724999999999995981, 2.204364238465233357E-17, 2.500000000000000000 ) ) ;
#81 = VERTEX_POINT ( 'NONE', #336 ) ;
#82 = DIRECTION ( 'NONE',  ( -1.000000000000000000, 0.0000000000000000000, 1.224646799147352961E-16 ) ) ;
#83 = ADVANCED_FACE ( 'NONE', ( #92 ), #200, .T. ) ;
#84 = DIMENSIONAL_EXPONENTS ( 1.000000000000000000, 0.0000000000000000000, 0.0000000000000000000, 0.0000000000000000000, 0.0000000000000000000, 0.0000000000000000000, 0.0000000000000000000 ) ;
#85 = CIRCLE ( 'NONE', #129, 0.02999999999999999889 ) ;
#86 = ORIENTED_EDGE ( 'NONE', *, *, #16, .T. ) ;
#87 =( NAMED_UNIT ( * ) PLANE_ANGLE_UNIT ( ) SI_UNIT ( $, .RADIAN. ) );
#88 = ORIENTED_EDGE ( 'NONE', *, *, #302, .F. ) ;
#89 = DIRECTION ( 'NONE',  ( -1.000000000000000000, 0.0000000000000000000, 0.0000000000000000000 ) ) ;
#90 = LINE ( 'NONE', #95, #221 ) ;
#91 =( GEOMETRIC_REPRESENTATION_CONTEXT ( 3 ) GLOBAL_UNCERTAINTY_ASSIGNED_CONTEXT ( ( #106 ) ) GLOBAL_UNIT_ASSIGNED_CONTEXT ( ( #146, #87, #284 ) ) REPRESENTATION_CONTEXT ( 'NONE', 'WORKASPACE' ) );
#92 = FACE_OUTER_BOUND ( 'NONE', #279, .T. ) ;
#93 =( NAMED_UNIT ( * ) PLANE_ANGLE_UNIT ( ) SI_UNIT ( $, .RADIAN. ) );
#94 = EDGE_CURVE ( 'NONE', #274, #174, #90, .T. ) ;
#95 = CARTESIAN_POINT ( 'NONE',  ( -0.1875000000000000278, 0.0000000000000000000, 2.500000000000000000 ) ) ;
#96 = ORIENTED_EDGE ( 'NONE', *, *, #331, .F. ) ;
#97 = MECHANICAL_DESIGN_GEOMETRIC_PRESENTATION_REPRESENTATION (  '', ( #209 ), #91 ) ;
#98 = FACE_OUTER_BOUND ( 'NONE', #13, .T. ) ;
#99 = CARTESIAN_POINT ( 'NONE',  ( 3.673940397442059960E-18, 0.0000000000000000000, 0.03000000000000000583 ) ) ;
#100 = CLOSED_SHELL ( 'NONE', ( #231, #218, #68, #50, #126, #83, #140, #243, #338, #168, #318, #155 ) ) ;
#101 = CIRCLE ( 'NONE', #116, 0.1875000000000000278 ) ;
#102 = CARTESIAN_POINT ( 'NONE',  ( 1.072868196215332765E-16, 0.0000000000000000000, 0.8760633653411785682 ) ) ;
#103 = MANIFOLD_SOLID_BREP ( 'Fillet1', #100 ) ;
#104 = EDGE_CURVE ( 'NONE', #79, #165, #235, .T. ) ;
#105 = CARTESIAN_POINT ( 'NONE',  ( 1.071565949253934025E-16, 0.0000000000000000000, 0.8750000000000000000 ) ) ;
#106 = UNCERTAINTY_MEASURE_WITH_UNIT (LENGTH_MEASURE( 1.000000000000000082E-05 ), #146, 'distance_accuracy_value', 'NONE');
#107 = FACE_OUTER_BOUND ( 'NONE', #324, .T. ) ;
#108 = CIRCLE ( 'NONE', #240, 0.1724999999999995981 ) ;
#109 = FACE_OUTER_BOUND ( 'NONE', #271, .T. ) ;
#110 = ORIENTED_EDGE ( 'NONE', *, *, #94, .T. ) ;
#111 = LINE ( 'NONE', #161, #45 ) ;
#112 = ORIENTED_EDGE ( 'NONE', *, *, #214, .T. ) ;
#113 = DIMENSIONAL_EXPONENTS ( 1.000000000000000000, 0.0000000000000000000, 0.0000000000000000000, 0.0000000000000000000, 0.0000000000000000000, 0.0000000000000000000, 0.0000000000000000000 ) ;
#114 = CARTESIAN_POINT ( 'NONE',  ( 1.071565949253934025E-16, 0.0000000000000000000, 0.8750000000000000000 ) ) ;
#115 = VECTOR ( 'NONE', #145, 39.37007874015748143 ) ;
#116 = AXIS2_PLACEMENT_3D ( 'NONE', #24, #139, #217 ) ;
#117 = VERTEX_POINT ( 'NONE', #256 ) ;
#118 = CARTESIAN_POINT ( 'NONE',  ( 0.1573124999999999940, 0.0000000000000000000, 0.0000000000000000000 ) ) ;
#119 = ORIENTED_EDGE ( 'NONE', *, *, #259, .F. ) ;
#120 = APPLICATION_PROTOCOL_DEFINITION ( 'draft international standard', 'automotive_design', 1998, #47 ) ;
#121 = LINE ( 'NONE', #32, #115 ) ;
#122 =( LENGTH_UNIT ( ) NAMED_UNIT ( * ) SI_UNIT ( $, .METRE. ) );
#123 =( NAMED_UNIT ( * ) PLANE_ANGLE_UNIT ( ) SI_UNIT ( $, .RADIAN. ) );
#124 = AXIS2_PLACEMENT_3D ( 'NONE', #26, #29, #242 ) ;
#125 = DIRECTION ( 'NONE',  ( 0.0000000000000000000, -1.000000000000000000, 0.0000000000000000000 ) ) ;
#126 = ADVANCED_FACE ( 'NONE', ( #319 ), #71, .T. ) ;
#127 = DIRECTION ( 'NONE',  ( 0.0000000000000000000, 0.0000000000000000000, -1.000000000000000000 ) ) ;
#128 = DIRECTION ( 'NONE',  ( 1.000000000000000000, 0.0000000000000000000, -0.0000000000000000000 ) ) ;
#129 = AXIS2_PLACEMENT_3D ( 'NONE', #17, #125, #234 ) ;
#130 = DIRECTION ( 'NONE',  ( -0.0000000000000000000, -0.0000000000000000000, -1.000000000000000000 ) ) ;
#131 = DIRECTION ( 'NONE',  ( -0.1736481776669312749, 2.126576849575784241E-17, 0.9848077530122077983 ) ) ;
#132 = VERTEX_POINT ( 'NONE', #255 ) ;
#133 = DIRECTION ( 'NONE',  ( 0.0000000000000000000, 0.0000000000000000000, 1.000000000000000000 ) ) ;
#134 = ORIENTED_EDGE ( 'NONE', *, *, #72, .T. ) ;
#135 = AXIS2_PLACEMENT_3D ( 'NONE', #261, #19, #128 ) ;
#136 = AXIS2_PLACEMENT_3D ( 'NONE', #297, #75, #78 ) ;
#137 = DIRECTION ( 'NONE',  ( 1.000000000000000000, 0.0000000000000000000, -0.0000000000000000000 ) ) ;
#138 = DIRECTION ( 'NONE',  ( 1.000000000000000000, 0.0000000000000000000, 0.0000000000000000000 ) ) ;
#139 = DIRECTION ( 'NONE',  ( 0.0000000000000000000, 0.0000000000000000000, -1.000000000000000000 ) ) ;
#140 = ADVANCED_FACE ( 'NONE', ( #151 ), #156, .T. ) ;
#141 = DIRECTION ( 'NONE',  ( -0.0000000000000000000, -0.0000000000000000000, -1.000000000000000000 ) ) ;
#142 = CIRCLE ( 'NONE', #191, 0.1873124999999999929 ) ;
#143 = ADVANCED_BREP_SHAPE_REPRESENTATION ( 'Micro_GEC-375-3-030X', ( #103, #76 ), #197 ) ;
#144 = CARTESIAN_POINT ( 'NONE',  ( 1.071565949253934025E-16, 0.0000000000000000000, 0.8750000000000000000 ) ) ;
#145 = DIRECTION ( 'NONE',  ( -1.224646799147353207E-16, -0.0000000000000000000, -1.000000000000000000 ) ) ;
#146 =( CONVERSION_BASED_UNIT ( 'INCH', #201 ) LENGTH_UNIT ( ) NAMED_UNIT ( #113 ) );
#147 = ORIENTED_EDGE ( 'NONE', *, *, #344, .T. ) ;
#148 = EDGE_CURVE ( 'NONE', #79, #149, #85, .T. ) ;
#149 = VERTEX_POINT ( 'NONE', #343 ) ;
#150 = SURFACE_SIDE_STYLE ('',( #173 ) ) ;
#151 = FACE_OUTER_BOUND ( 'NONE', #307, .T. ) ;
#152 =( NAMED_UNIT ( * ) SI_UNIT ( $, .STERADIAN. ) SOLID_ANGLE_UNIT ( ) );
#153 = CIRCLE ( 'NONE', #222, 0.1875000000000000278 ) ;
#154 =( LENGTH_UNIT ( ) NAMED_UNIT ( * ) SI_UNIT ( $, .METRE. ) );
#155 = ADVANCED_FACE ( 'NONE', ( #98 ), #74, .T. ) ;
#156 = PLANE ( 'NONE',  #135 ) ;
#157 = AXIS2_PLACEMENT_3D ( 'NONE', #258, #127, #237 ) ;
#158 = DIRECTION ( 'NONE',  ( 0.7071067811865385799, 8.659560562354823157E-17, -0.7071067811865563435 ) ) ;
#159 = DIRECTION ( 'NONE',  ( -1.224646799147353207E-16, -0.0000000000000000000, -1.000000000000000000 ) ) ;
#160 = ORIENTED_EDGE ( 'NONE', *, *, #148, .T. ) ;
#161 = CARTESIAN_POINT ( 'NONE',  ( -0.1724999999999995981, 0.0000000000000000000, 2.500000000000000000 ) ) ;
#162 = ORIENTED_EDGE ( 'NONE', *, *, #309, .F. ) ;
#163 = VECTOR ( 'NONE', #158, 39.37007874015748854 ) ;
#164 = DIRECTION ( 'NONE',  ( 0.0000000000000000000, 0.0000000000000000000, 1.000000000000000000 ) ) ;
#165 = VERTEX_POINT ( 'NONE', #206 ) ;
#166 = DIRECTION ( 'NONE',  ( 0.0000000000000000000, 0.0000000000000000000, -1.000000000000000000 ) ) ;
#167 = ORIENTED_EDGE ( 'NONE', *, *, #72, .F. ) ;
#168 = ADVANCED_FACE ( 'NONE', ( #65 ), #179, .T. ) ;
#169 = CARTESIAN_POINT ( 'NONE',  ( 3.673940397442059190E-18, 0.0000000000000000000, 0.0000000000000000000 ) ) ;
#170 = FACE_OUTER_BOUND ( 'NONE', #176, .T. ) ;
#171 = ORIENTED_EDGE ( 'NONE', *, *, #185, .F. ) ;
#172 = EDGE_CURVE ( 'NONE', #117, #274, #21, .T. ) ;
#173 = SURFACE_STYLE_FILL_AREA ( #337 ) ;
#174 = VERTEX_POINT ( 'NONE', #346 ) ;
#175 = CIRCLE ( 'NONE', #310, 0.1873124999999999374 ) ;
#176 = EDGE_LOOP ( 'NONE', ( #162, #37, #119, #63 ) ) ;
#177 = EDGE_CURVE ( 'NONE', #81, #149, #142, .T. ) ;
#178 = UNCERTAINTY_MEASURE_WITH_UNIT (LENGTH_MEASURE( 1.000000000000000082E-05 ), #301, 'distance_accuracy_value', 'NONE');
#179 = CYLINDRICAL_SURFACE ( 'NONE', #226, 0.1873124999999999929 ) ;
#180 = DIRECTION ( 'NONE',  ( 1.000000000000000000, 0.0000000000000000000, 0.0000000000000000000 ) ) ;
#181 = CARTESIAN_POINT ( 'NONE',  ( -0.1573124999999999940, 1.926522495908680139E-17, 0.02999999999999999889 ) ) ;
#182 = DIRECTION ( 'NONE',  ( -0.7071067811865385799, 0.0000000000000000000, -0.7071067811865563435 ) ) ;
#183 = CONICAL_SURFACE ( 'NONE', #136, 0.1873124999999999374, 0.1745329251994340025 ) ;
#184 = DIRECTION ( 'NONE',  ( 1.000000000000000000, 0.0000000000000000000, 0.0000000000000000000 ) ) ;
#185 = EDGE_CURVE ( 'NONE', #224, #149, #260, .T. ) ;
#186 = DIRECTION ( 'NONE',  ( -1.000000000000000000, 0.0000000000000000000, 0.0000000000000000000 ) ) ;
#187 = ORIENTED_EDGE ( 'NONE', *, *, #210, .T. ) ;
#188 = DIRECTION ( 'NONE',  ( 1.000000000000000000, 0.0000000000000000000, 0.0000000000000000000 ) ) ;
#189 = EDGE_LOOP ( 'NONE', ( #204, #330, #298, #77 ) ) ;
#190 = AXIS2_PLACEMENT_3D ( 'NONE', #169, #130, #180 ) ;
#191 = AXIS2_PLACEMENT_3D ( 'NONE', #99, #290, #207 ) ;
#192 = CARTESIAN_POINT ( 'NONE',  ( -0.1873124999999998541, 2.295064642027086199E-17, 0.8750000000000000000 ) ) ;
#193 = ORIENTED_EDGE ( 'NONE', *, *, #259, .T. ) ;
#194 = EDGE_CURVE ( 'NONE', #174, #12, #34, .T. ) ;
#195 = CARTESIAN_POINT ( 'NONE',  ( 0.0000000000000000000, 0.0000000000000000000, 2.500000000000000000 ) ) ;
#196 =( GEOMETRIC_REPRESENTATION_CONTEXT ( 3 ) GLOBAL_UNCERTAINTY_ASSIGNED_CONTEXT ( ( #212 ) ) GLOBAL_UNIT_ASSIGNED_CONTEXT ( ( #46, #123, #345 ) ) REPRESENTATION_CONTEXT ( 'NONE', 'WORKASPACE' ) );
#197 =( GEOMETRIC_REPRESENTATION_CONTEXT ( 3 ) GLOBAL_UNCERTAINTY_ASSIGNED_CONTEXT ( ( #178 ) ) GLOBAL_UNIT_ASSIGNED_CONTEXT ( ( #301, #93, #152 ) ) REPRESENTATION_CONTEXT ( 'NONE', 'WORKASPACE' ) );
#198 = ORIENTED_EDGE ( 'NONE', *, *, #104, .F. ) ;
#199 = AXIS2_PLACEMENT_3D ( 'NONE', #350, #213, #137 ) ;
#200 = CYLINDRICAL_SURFACE ( 'NONE', #287, 0.1875000000000000278 ) ;
#201 = LENGTH_MEASURE_WITH_UNIT ( LENGTH_MEASURE( 0.02539999999999999897 ), #281 );
#202 = DIRECTION ( 'NONE',  ( -0.0000000000000000000, -0.0000000000000000000, -1.000000000000000000 ) ) ;
#203 = APPLICATION_PROTOCOL_DEFINITION ( 'draft international standard', 'automotive_design', 1998, #272 ) ;
#204 = ORIENTED_EDGE ( 'NONE', *, *, #262, .F. ) ;
#205 = AXIS2_PLACEMENT_3D ( 'NONE', #329, #133, #184 ) ;
#206 = CARTESIAN_POINT ( 'NONE',  ( -0.1573124999999999940, 2.110219515780783022E-17, 0.0000000000000000000 ) ) ;
#207 = DIRECTION ( 'NONE',  ( 1.000000000000000000, 0.0000000000000000000, 0.0000000000000000000 ) ) ;
#208 = COLOUR_RGB ( '',0.7921568627450980005, 0.8196078431372548767, 0.9333333333333333481 ) ;
#209 = STYLED_ITEM ( 'NONE', ( #341 ), #143 ) ;
#210 = EDGE_CURVE ( 'NONE', #165, #81, #293, .T. ) ;
#211 = DIRECTION ( 'NONE',  ( -0.0000000000000000000, -0.0000000000000000000, -1.000000000000000000 ) ) ;
#212 = UNCERTAINTY_MEASURE_WITH_UNIT (LENGTH_MEASURE( 1.000000000000000082E-05 ), #46, 'distance_accuracy_value', 'NONE');
#213 = DIRECTION ( 'NONE',  ( 0.0000000000000000000, 0.0000000000000000000, 1.000000000000000000 ) ) ;
#214 = EDGE_CURVE ( 'NONE', #132, #274, #111, .T. ) ;
#215 = DIRECTION ( 'NONE',  ( -1.224646799147353207E-16, -0.0000000000000000000, -1.000000000000000000 ) ) ;
#216 = ORIENTED_EDGE ( 'NONE', *, *, #104, .T. ) ;
#217 = DIRECTION ( 'NONE',  ( 1.000000000000000000, 0.0000000000000000000, 0.0000000000000000000 ) ) ;
#218 = ADVANCED_FACE ( 'NONE', ( #327 ), #219, .T. ) ;
#219 = CYLINDRICAL_SURFACE ( 'NONE', #60, 0.1873124999999999929 ) ;
#220 = ORIENTED_EDGE ( 'NONE', *, *, #185, .T. ) ;
#221 = VECTOR ( 'NONE', #202, 39.37007874015748143 ) ;
#222 = AXIS2_PLACEMENT_3D ( 'NONE', #321, #215, #188 ) ;
#223 = CARTESIAN_POINT ( 'NONE',  ( 0.0000000000000000000, 0.0000000000000000000, 2.500000000000000000 ) ) ;
#224 = VERTEX_POINT ( 'NONE', #48 ) ;
#225 = CARTESIAN_POINT ( 'NONE',  ( 0.1875000000000000833, 2.296212748401288650E-17, 0.8760633653411785682 ) ) ;
#226 = AXIS2_PLACEMENT_3D ( 'NONE', #314, #286, #66 ) ;
#227 = DIRECTION ( 'NONE',  ( 0.1736481776669314969, 0.0000000000000000000, 0.9848077530122077983 ) ) ;
#228 = SHAPE_DEFINITION_REPRESENTATION ( #349, #143 ) ;
#229 = ORIENTED_EDGE ( 'NONE', *, *, #273, .F. ) ;
#230 = PRODUCT_CONTEXT ( 'NONE', #47, 'mechanical' ) ;
#231 = ADVANCED_FACE ( 'NONE', ( #109 ), #49, .T. ) ;
#232 = DIRECTION ( 'NONE',  ( -0.0000000000000000000, -0.0000000000000000000, -1.000000000000000000 ) ) ;
#233 = SURFACE_STYLE_USAGE ( .BOTH. , #150 ) ;
#234 = DIRECTION ( 'NONE',  ( 0.0000000000000000000, 0.0000000000000000000, -1.000000000000000000 ) ) ;
#235 = CIRCLE ( 'NONE', #190, 0.1573124999999999940 ) ;
#236 = CARTESIAN_POINT ( 'NONE',  ( 3.673940397442059190E-18, 0.0000000000000000000, 0.02999999999999999889 ) ) ;
#237 = DIRECTION ( 'NONE',  ( 1.000000000000000000, 0.0000000000000000000, 0.0000000000000000000 ) ) ;
#238 = CARTESIAN_POINT ( 'NONE',  ( 0.1873124999999999929, 2.293916535652885596E-17, -2.293916535652885596E-17 ) ) ;
#239 = VECTOR ( 'NONE', #227, 39.37007874015748143 ) ;
#240 = AXIS2_PLACEMENT_3D ( 'NONE', #223, #164, #53 ) ;
#241 = SURFACE_SIDE_STYLE ('',( #22 ) ) ;
#242 = DIRECTION ( 'NONE',  ( 1.000000000000000000, 0.0000000000000000000, 0.0000000000000000000 ) ) ;
#243 = ADVANCED_FACE ( 'NONE', ( #51 ), #2, .T. ) ;
#244 = CARTESIAN_POINT ( 'NONE',  ( 0.1724999999999995981, 2.112515728529179297E-17, 2.500000000000000000 ) ) ;
#245 = MECHANICAL_DESIGN_GEOMETRIC_PRESENTATION_REPRESENTATION (  '', ( #55 ), #196 ) ;
#246 = COLOUR_RGB ( '',0.7921568627450980005, 0.8196078431372548767, 0.9333333333333333481 ) ;
#247 = CARTESIAN_POINT ( 'NONE',  ( 0.0000000000000000000, 0.0000000000000000000, 0.0000000000000000000 ) ) ;
#248 = DIMENSIONAL_EXPONENTS ( 1.000000000000000000, 0.0000000000000000000, 0.0000000000000000000, 0.0000000000000000000, 0.0000000000000000000, 0.0000000000000000000, 0.0000000000000000000 ) ;
#249 = CIRCLE ( 'NONE', #124, 0.1873124999999999929 ) ;
#250 = ORIENTED_EDGE ( 'NONE', *, *, #313, .T. ) ;
#251 = DIRECTION ( 'NONE',  ( 0.0000000000000000000, 0.0000000000000000000, -1.000000000000000000 ) ) ;
#252 = DIRECTION ( 'NONE',  ( 1.000000000000000000, 0.0000000000000000000, 0.0000000000000000000 ) ) ;
#253 = VERTEX_POINT ( 'NONE', #192 ) ;
#254 = EDGE_LOOP ( 'NONE', ( #88, #308, #30, #36 ) ) ;
#255 = CARTESIAN_POINT ( 'NONE',  ( -0.1724999999999995981, 0.0000000000000000000, 2.500000000000000000 ) ) ;
#256 = CARTESIAN_POINT ( 'NONE',  ( 0.1875000000000000278, 2.296212748401287726E-17, 2.484999999999999432 ) ) ;
#257 = AXIS2_PLACEMENT_3D ( 'NONE', #264, #23, #325 ) ;
#258 = CARTESIAN_POINT ( 'NONE',  ( 0.0000000000000000000, 0.0000000000000000000, 2.484999999999999432 ) ) ;
#259 = EDGE_CURVE ( 'NONE', #274, #117, #101, .T. ) ;
#260 = LINE ( 'NONE', #238, #342 ) ;
#261 = CARTESIAN_POINT ( 'NONE',  ( 0.0000000000000000000, 0.0000000000000000000, 2.500000000000000000 ) ) ;
#262 = EDGE_CURVE ( 'NONE', #253, #174, #263, .T. ) ;
#263 = LINE ( 'NONE', #294, #39 ) ;
#264 = CARTESIAN_POINT ( 'NONE',  ( 3.673940397442059190E-18, 0.0000000000000000000, 0.02999999999999999889 ) ) ;
#265 = ORIENTED_EDGE ( 'NONE', *, *, #280, .T. ) ;
#266 = DIRECTION ( 'NONE',  ( -1.224646799147353207E-16, -0.0000000000000000000, -1.000000000000000000 ) ) ;
#267 = ORIENTED_EDGE ( 'NONE', *, *, #177, .F. ) ;
#268 = AXIS2_PLACEMENT_3D ( 'NONE', #144, #303, #252 ) ;
#269 = AXIS2_PLACEMENT_3D ( 'NONE', #54, #27, #138 ) ;
#270 = DIRECTION ( 'NONE',  ( -1.000000000000000000, 0.0000000000000000000, 0.0000000000000000000 ) ) ;
#271 = EDGE_LOOP ( 'NONE', ( #275, #187, #306, #322 ) ) ;
#272 = APPLICATION_CONTEXT ( 'automotive_design' ) ;
#273 = EDGE_CURVE ( 'NONE', #328, #117, #292, .T. ) ;
#274 = VERTEX_POINT ( 'NONE', #58 ) ;
#275 = ORIENTED_EDGE ( 'NONE', *, *, #344, .F. ) ;
#276 = PRODUCT_RELATED_PRODUCT_CATEGORY ( 'part', '', ( #59 ) ) ;
#277 = FILL_AREA_STYLE_COLOUR ( '', #208 ) ;
#278 = CARTESIAN_POINT ( 'NONE',  ( 0.0000000000000000000, 0.0000000000000000000, 2.500000000000000000 ) ) ;
#279 = EDGE_LOOP ( 'NONE', ( #11, #61, #110, #96 ) ) ;
#280 = EDGE_CURVE ( 'NONE', #224, #253, #175, .T. ) ;
#281 =( LENGTH_UNIT ( ) NAMED_UNIT ( * ) SI_UNIT ( $, .METRE. ) );
#282 = AXIS2_PLACEMENT_3D ( 'NONE', #285, #211, #43 ) ;
#283 = FACE_OUTER_BOUND ( 'NONE', #254, .T. ) ;
#284 =( NAMED_UNIT ( * ) SI_UNIT ( $, .STERADIAN. ) SOLID_ANGLE_UNIT ( ) );
#285 = CARTESIAN_POINT ( 'NONE',  ( 0.0000000000000000000, 0.0000000000000000000, 2.500000000000000000 ) ) ;
#286 = DIRECTION ( 'NONE',  ( -1.224646799147353207E-16, -0.0000000000000000000, -1.000000000000000000 ) ) ;
#287 = AXIS2_PLACEMENT_3D ( 'NONE', #195, #141, #89 ) ;
#288 = PRESENTATION_STYLE_ASSIGNMENT (( #348 ) ) ;
#289 = AXIS2_PLACEMENT_3D ( 'NONE', #181, #5, #1 ) ;
#290 = DIRECTION ( 'NONE',  ( 0.0000000000000000000, 0.0000000000000000000, 1.000000000000000000 ) ) ;
#291 = EDGE_CURVE ( 'NONE', #132, #328, #108, .T. ) ;
#292 = LINE ( 'NONE', #244, #163 ) ;
#293 = CIRCLE ( 'NONE', #289, 0.02999999999999998848 ) ;
#294 = CARTESIAN_POINT ( 'NONE',  ( -0.1873124999999998541, 2.293916535652885288E-17, 0.8750000000000000000 ) ) ;
#295 = EDGE_LOOP ( 'NONE', ( #171, #265, #134, #340 ) ) ;
#296 = CARTESIAN_POINT ( 'NONE',  ( 0.0000000000000000000, 0.0000000000000000000, 2.500000000000000000 ) ) ;
#297 = CARTESIAN_POINT ( 'NONE',  ( 1.071565949253934025E-16, 0.0000000000000000000, 0.8750000000000000000 ) ) ;
#298 = ORIENTED_EDGE ( 'NONE', *, *, #42, .T. ) ;
#299 = CIRCLE ( 'NONE', #269, 0.1573124999999999940 ) ;
#300 = DIRECTION ( 'NONE',  ( -1.000000000000000000, 0.0000000000000000000, 0.0000000000000000000 ) ) ;
#301 =( CONVERSION_BASED_UNIT ( 'INCH', #18 ) LENGTH_UNIT ( ) NAMED_UNIT ( #248 ) );
#302 = EDGE_CURVE ( 'NONE', #253, #224, #316, .T. ) ;
#303 = DIRECTION ( 'NONE',  ( 1.224646799147353207E-16, 0.0000000000000000000, 1.000000000000000000 ) ) ;
#304 = CONICAL_SURFACE ( 'NONE', #268, 0.1873124999999999374, 0.1745329251994340025 ) ;
#305 = AXIS2_PLACEMENT_3D ( 'NONE', #102, #317, #70 ) ;
#306 = ORIENTED_EDGE ( 'NONE', *, *, #313, .F. ) ;
#307 = EDGE_LOOP ( 'NONE', ( #56, #28 ) ) ;
#308 = ORIENTED_EDGE ( 'NONE', *, *, #262, .T. ) ;
#309 = EDGE_CURVE ( 'NONE', #328, #132, #9, .T. ) ;
#310 = AXIS2_PLACEMENT_3D ( 'NONE', #114, #159, #270 ) ;
#311 = LINE ( 'NONE', #333, #239 ) ;
#312 = DIRECTION ( 'NONE',  ( 0.0000000000000000000, 0.0000000000000000000, 1.000000000000000000 ) ) ;
#313 = EDGE_CURVE ( 'NONE', #149, #81, #249, .T. ) ;
#314 = CARTESIAN_POINT ( 'NONE',  ( 0.0000000000000000000, 0.0000000000000000000, 0.0000000000000000000 ) ) ;
#315 = LENGTH_MEASURE_WITH_UNIT ( LENGTH_MEASURE( 0.02539999999999999897 ), #154 );
#316 = CIRCLE ( 'NONE', #67, 0.1873124999999999374 ) ;
#317 = DIRECTION ( 'NONE',  ( -1.224646799147353207E-16, -0.0000000000000000000, -1.000000000000000000 ) ) ;
#318 = ADVANCED_FACE ( 'NONE', ( #107 ), #4, .F. ) ;
#319 = FACE_OUTER_BOUND ( 'NONE', #326, .T. ) ;
#320 = VECTOR ( 'NONE', #232, 39.37007874015748143 ) ;
#321 = CARTESIAN_POINT ( 'NONE',  ( 1.072868196215332765E-16, 0.0000000000000000000, 0.8760633653411785682 ) ) ;
#322 = ORIENTED_EDGE ( 'NONE', *, *, #148, .F. ) ;
#323 = FACE_OUTER_BOUND ( 'NONE', #189, .T. ) ;
#324 = EDGE_LOOP ( 'NONE', ( #216, #147 ) ) ;
#325 = DIRECTION ( 'NONE',  ( 1.000000000000000000, 0.0000000000000000000, 0.0000000000000000000 ) ) ;
#326 = EDGE_LOOP ( 'NONE', ( #193, #86, #14, #351 ) ) ;
#327 = FACE_OUTER_BOUND ( 'NONE', #52, .T. ) ;
#328 = VERTEX_POINT ( 'NONE', #80 ) ;
#329 = CARTESIAN_POINT ( 'NONE',  ( 0.0000000000000000000, 0.0000000000000000000, 2.500000000000000000 ) ) ;
#330 = ORIENTED_EDGE ( 'NONE', *, *, #280, .F. ) ;
#331 = EDGE_CURVE ( 'NONE', #12, #174, #153, .T. ) ;
#332 = LINE ( 'NONE', #339, #320 ) ;
#333 = CARTESIAN_POINT ( 'NONE',  ( 0.1873125000000000484, 0.0000000000000000000, 0.8750000000000000000 ) ) ;
#334 = AXIS2_PLACEMENT_3D ( 'NONE', #236, #312, #69 ) ;
#335 = PRODUCT_DEFINITION_FORMATION_WITH_SPECIFIED_SOURCE ( 'ANY', '', #59, .NOT_KNOWN. ) ;
#336 = CARTESIAN_POINT ( 'NONE',  ( -0.1873124999999999929, 0.0000000000000000000, 0.03000000000000000583 ) ) ;
#337 = FILL_AREA_STYLE ('',( #15 ) ) ;
#338 = ADVANCED_FACE ( 'NONE', ( #323 ), #183, .T. ) ;
#339 = CARTESIAN_POINT ( 'NONE',  ( 0.1875000000000000278, 2.296212748401287726E-17, 2.500000000000000000 ) ) ;
#340 = ORIENTED_EDGE ( 'NONE', *, *, #177, .T. ) ;
#341 = PRESENTATION_STYLE_ASSIGNMENT (( #233 ) ) ;
#342 = VECTOR ( 'NONE', #347, 39.37007874015748143 ) ;
#343 = CARTESIAN_POINT ( 'NONE',  ( 0.1873124999999999929, 2.293916535652885596E-17, 0.03000000000000000583 ) ) ;
#344 = EDGE_CURVE ( 'NONE', #165, #79, #299, .T. ) ;
#345 =( NAMED_UNIT ( * ) SI_UNIT ( $, .STERADIAN. ) SOLID_ANGLE_UNIT ( ) );
#346 = CARTESIAN_POINT ( 'NONE',  ( -0.1874999999999999167, 0.0000000000000000000, 0.8760633653411785682 ) ) ;
#347 = DIRECTION ( 'NONE',  ( -1.224646799147353207E-16, -0.0000000000000000000, -1.000000000000000000 ) ) ;
#348 = SURFACE_STYLE_USAGE ( .BOTH. , #241 ) ;
#349 = PRODUCT_DEFINITION_SHAPE ( 'NONE', 'NONE',  #20 ) ;
#350 = CARTESIAN_POINT ( 'NONE',  ( 0.0000000000000000000, 0.0000000000000000000, 0.0000000000000000000 ) ) ;
#351 = ORIENTED_EDGE ( 'NONE', *, *, #94, .F. ) ;
ENDSEC;
END-ISO-10303-21;
