ISO-10303-21;
HEADER;
FILE_DESCRIPTION (( 'STEP AP214' ),
    '1' );
FILE_NAME ('Micro_BEM-125-03.STEP',
    '2021-09-03T13:01:57',
    ( '' ),
    ( '' ),
    'SwSTEP 2.0',
    'SolidWorks 2020',
    '' );
FILE_SCHEMA (( 'AUTOMOTIVE_DESIGN' ));
ENDSEC;

DATA;
#1 = DIRECTION ( 'NONE',  ( 1.224646799147353207E-16, 1.000000000000000000, -0.0000000000000000000 ) ) ;
#2 = PRODUCT_CONTEXT ( 'NONE', #193, 'mechanical' ) ;
#3 = DIRECTION ( 'NONE',  ( -1.224646799147353700E-16, -0.0000000000000000000, -1.000000000000000000 ) ) ;
#4 = CIRCLE ( 'NONE', #297, 0.06250000000000002776 ) ;
#5 = AXIS2_PLACEMENT_3D ( 'NONE', #256, #154, #308 ) ;
#6 = FILL_AREA_STYLE_COLOUR ( '', #233 ) ;
#7 = EDGE_CURVE ( 'NONE', #192, #139, #218, .T. ) ;
#8 = DIRECTION ( 'NONE',  ( -1.000000000000000000, 0.0000000000000000000, 0.0000000000000000000 ) ) ;
#9 = DIRECTION ( 'NONE',  ( 1.000000000000000000, 0.0000000000000000000, 0.0000000000000000000 ) ) ;
#10 = DIRECTION ( 'NONE',  ( 0.0000000000000000000, 0.0000000000000000000, 1.000000000000000000 ) ) ;
#11 = CARTESIAN_POINT ( 'NONE',  ( 7.646388452176290456E-18, 0.0000000000000000000, 0.06243749999999999994 ) ) ;
#12 = EDGE_LOOP ( 'NONE', ( #249, #200, #39, #133 ) ) ;
#13 = ORIENTED_EDGE ( 'NONE', *, *, #288, .F. ) ;
#14 = ORIENTED_EDGE ( 'NONE', *, *, #316, .T. ) ;
#15 = VERTEX_POINT ( 'NONE', #268 ) ;
#16 = CIRCLE ( 'NONE', #211, 0.06250000000000002776 ) ;
#17 = ORIENTED_EDGE ( 'NONE', *, *, #132, .T. ) ;
#18 = DIRECTION ( 'NONE',  ( 0.7071067811865462405, 8.659560562354916834E-17, -0.7071067811865486830 ) ) ;
#19 = EDGE_CURVE ( 'NONE', #139, #150, #16, .T. ) ;
#20 = CARTESIAN_POINT ( 'NONE',  ( 0.0000000000000000000, 0.0000000000000000000, 1.500000000000000222 ) ) ;
#21 = VECTOR ( 'NONE', #126, 39.37007874015748854 ) ;
#22 = VECTOR ( 'NONE', #207, 39.37007874015748143 ) ;
#23 = CARTESIAN_POINT ( 'NONE',  ( 0.04750000000000064587, 6.735557395310483192E-18, 1.500000000000000222 ) ) ;
#24 = EDGE_LOOP ( 'NONE', ( #224, #17, #172, #198 ) ) ;
#25 = DIRECTION ( 'NONE',  ( -1.000000000000000000, 0.0000000000000000000, 0.0000000000000000000 ) ) ;
#26 = FACE_OUTER_BOUND ( 'NONE', #195, .T. ) ;
#27 = FACE_OUTER_BOUND ( 'NONE', #267, .T. ) ;
#28 = CARTESIAN_POINT ( 'NONE',  ( 0.06250000000000002776, 7.654042494670959086E-18, 1.500000000000000222 ) ) ;
#29 = ORIENTED_EDGE ( 'NONE', *, *, #144, .F. ) ;
#30 = DIRECTION ( 'NONE',  ( -0.1736481776669310251, 2.126576849575781468E-17, 0.9848077530122080203 ) ) ;
#31 = ORIENTED_EDGE ( 'NONE', *, *, #168, .F. ) ;
#32 = CARTESIAN_POINT ( 'NONE',  ( 0.0000000000000000000, 0.0000000000000000000, 1.500000000000000222 ) ) ;
#33 = FILL_AREA_STYLE ('',( #83 ) ) ;
#34 = ORIENTED_EDGE ( 'NONE', *, *, #321, .T. ) ;
#35 = EDGE_CURVE ( 'NONE', #192, #319, #196, .T. ) ;
#36 = VERTEX_POINT ( 'NONE', #67 ) ;
#37 = VERTEX_POINT ( 'NONE', #135 ) ;
#38 = ORIENTED_EDGE ( 'NONE', *, *, #142, .F. ) ;
#39 = ORIENTED_EDGE ( 'NONE', *, *, #144, .T. ) ;
#40 = CIRCLE ( 'NONE', #76, 0.06243749999999999994 ) ;
#41 = AXIS2_PLACEMENT_3D ( 'NONE', #134, #55, #151 ) ;
#42 = ORIENTED_EDGE ( 'NONE', *, *, #241, .F. ) ;
#43 = CARTESIAN_POINT ( 'NONE',  ( -0.06243749999999994443, 7.650215473423623230E-18, 0.5000000000000000000 ) ) ;
#44 = ADVANCED_FACE ( 'NONE', ( #225 ), #317, .T. ) ;
#45 = PRODUCT_RELATED_PRODUCT_CATEGORY ( 'part', '', ( #208 ) ) ;
#46 = DIRECTION ( 'NONE',  ( 1.000000000000000000, 0.0000000000000000000, 0.0000000000000000000 ) ) ;
#47 = AXIS2_PLACEMENT_3D ( 'NONE', #230, #125, #75 ) ;
#48 = PRESENTATION_LAYER_ASSIGNMENT (  '', '', ( #212 ) ) ;
#49 =( CONVERSION_BASED_UNIT ( 'INCH', #325 ) LENGTH_UNIT ( ) NAMED_UNIT ( #216 ) );
#50 = DIRECTION ( 'NONE',  ( 1.224646799147353700E-16, 0.0000000000000000000, 1.000000000000000000 ) ) ;
#51 = ADVANCED_FACE ( 'NONE', ( #85 ), #163, .T. ) ;
#52 = FACE_OUTER_BOUND ( 'NONE', #114, .T. ) ;
#53 =( LENGTH_UNIT ( ) NAMED_UNIT ( * ) SI_UNIT ( $, .METRE. ) );
#54 = FACE_OUTER_BOUND ( 'NONE', #276, .T. ) ;
#55 = DIRECTION ( 'NONE',  ( 1.224646799147353700E-16, 0.0000000000000000000, 1.000000000000000000 ) ) ;
#56 = ORIENTED_EDGE ( 'NONE', *, *, #321, .F. ) ;
#57 = ORIENTED_EDGE ( 'NONE', *, *, #19, .F. ) ;
#58 = CARTESIAN_POINT ( 'NONE',  ( 0.0000000000000000000, 0.0000000000000000000, 1.500000000000000222 ) ) ;
#59 = VECTOR ( 'NONE', #73, 39.37007874015748143 ) ;
#60 = AXIS2_PLACEMENT_3D ( 'NONE', #215, #130, #103 ) ;
#61 = EDGE_CURVE ( 'NONE', #287, #112, #81, .T. ) ;
#62 = CARTESIAN_POINT ( 'NONE',  ( 7.646388452176290456E-18, 0.0000000000000000000, 0.06243749999999999994 ) ) ;
#63 =( NAMED_UNIT ( * ) SI_UNIT ( $, .STERADIAN. ) SOLID_ANGLE_UNIT ( ) );
#64 = DIRECTION ( 'NONE',  ( -1.224646799147353700E-16, -0.0000000000000000000, -1.000000000000000000 ) ) ;
#65 = CONICAL_SURFACE ( 'NONE', #127, 0.06243749999999999994, 0.1745329251994337527 ) ;
#66 = LINE ( 'NONE', #167, #87 ) ;
#67 = CARTESIAN_POINT ( 'NONE',  ( 0.06243750000000001382, 7.646388452176287375E-18, 0.06243749999999999301 ) ) ;
#68 = EDGE_LOOP ( 'NONE', ( #247, #34, #188, #246 ) ) ;
#69 = EDGE_CURVE ( 'NONE', #112, #319, #66, .T. ) ;
#70 = ORIENTED_EDGE ( 'NONE', *, *, #316, .F. ) ;
#71 = CARTESIAN_POINT ( 'NONE',  ( -0.06243749999999999994, 0.0000000000000000000, 7.646388452176290456E-18 ) ) ;
#72 = CIRCLE ( 'NONE', #5, 0.06243749999999999994 ) ;
#73 = DIRECTION ( 'NONE',  ( -1.224646799147353700E-16, -0.0000000000000000000, -1.000000000000000000 ) ) ;
#74 = ORIENTED_EDGE ( 'NONE', *, *, #109, .T. ) ;
#75 = DIRECTION ( 'NONE',  ( 0.0000000000000000000, 0.0000000000000000000, -1.000000000000000000 ) ) ;
#76 = AXIS2_PLACEMENT_3D ( 'NONE', #228, #1, #94 ) ;
#77 = PRODUCT_DEFINITION_CONTEXT ( 'detailed design', #161, 'design' ) ;
#78 = FACE_OUTER_BOUND ( 'NONE', #158, .T. ) ;
#79 = CARTESIAN_POINT ( 'NONE',  ( -0.06243749999999994443, 7.646388452176287375E-18, 0.5000000000000000000 ) ) ;
#80 = EDGE_CURVE ( 'NONE', #37, #36, #105, .T. ) ;
#81 = CIRCLE ( 'NONE', #279, 0.04750000000000064587 ) ;
#82 = AXIS2_PLACEMENT_3D ( 'NONE', #254, #92, #149 ) ;
#83 = FILL_AREA_STYLE_COLOUR ( '', #263 ) ;
#84 = ADVANCED_BREP_SHAPE_REPRESENTATION ( 'Micro_BEM-125-03', ( #186, #82 ), #190 ) ;
#85 = FACE_OUTER_BOUND ( 'NONE', #68, .T. ) ;
#86 = DIRECTION ( 'NONE',  ( 1.000000000000000000, 0.0000000000000000000, 0.0000000000000000000 ) ) ;
#87 = VECTOR ( 'NONE', #18, 39.37007874015748854 ) ;
#88 = DIRECTION ( 'NONE',  ( -1.000000000000000000, 0.0000000000000000000, 1.224646799147353947E-16 ) ) ;
#89 = AXIS2_PLACEMENT_3D ( 'NONE', #32, #10, #236 ) ;
#90 = CARTESIAN_POINT ( 'NONE',  ( -0.06250000000000002776, 0.0000000000000000000, 1.500000000000000222 ) ) ;
#91 = DIRECTION ( 'NONE',  ( 0.0000000000000000000, 1.000000000000000000, 0.0000000000000000000 ) ) ;
#92 = DIRECTION ( 'NONE',  ( 0.0000000000000000000, 0.0000000000000000000, 1.000000000000000000 ) ) ;
#93 = EDGE_CURVE ( 'NONE', #15, #150, #97, .T. ) ;
#94 = DIRECTION ( 'NONE',  ( -1.000000000000000000, 1.224646799147353454E-16, 0.0000000000000000000 ) ) ;
#95 = CARTESIAN_POINT ( 'NONE',  ( 0.06250000000000008327, 7.654042494670966789E-18, 0.5003544551137262264 ) ) ;
#96 = ADVANCED_FACE ( 'NONE', ( #99 ), #177, .T. ) ;
#97 = LINE ( 'NONE', #229, #238 ) ;
#98 = AXIS2_PLACEMENT_3D ( 'NONE', #62, #91, #86 ) ;
#99 = FACE_OUTER_BOUND ( 'NONE', #245, .T. ) ;
#100 = EDGE_CURVE ( 'NONE', #150, #139, #323, .T. ) ;
#101 = DIRECTION ( 'NONE',  ( -1.224646799147353700E-16, -0.0000000000000000000, -1.000000000000000000 ) ) ;
#102 = VERTEX_POINT ( 'NONE', #299 ) ;
#103 = DIRECTION ( 'NONE',  ( -1.000000000000000000, 0.0000000000000000000, 0.0000000000000000000 ) ) ;
#104 = PRODUCT_DEFINITION ( 'UNKNOWN', '', #291, #77 ) ;
#105 = CIRCLE ( 'NONE', #47, 0.06243749999999999994 ) ;
#106 =( NAMED_UNIT ( * ) PLANE_ANGLE_UNIT ( ) SI_UNIT ( $, .RADIAN. ) );
#107 = VERTEX_POINT ( 'NONE', #43 ) ;
#108 = DIRECTION ( 'NONE',  ( 0.0000000000000000000, 1.000000000000000000, 0.0000000000000000000 ) ) ;
#109 = EDGE_CURVE ( 'NONE', #107, #102, #145, .T. ) ;
#110 = FACE_OUTER_BOUND ( 'NONE', #24, .T. ) ;
#111 = SURFACE_STYLE_USAGE ( .BOTH. , #244 ) ;
#112 = VERTEX_POINT ( 'NONE', #23 ) ;
#113 = CARTESIAN_POINT ( 'NONE',  ( 0.0000000000000000000, 0.0000000000000000000, 0.0000000000000000000 ) ) ;
#114 = EDGE_LOOP ( 'NONE', ( #56, #320, #74, #318 ) ) ;
#115 = AXIS2_PLACEMENT_3D ( 'NONE', #113, #64, #88 ) ;
#116 = ORIENTED_EDGE ( 'NONE', *, *, #80, .T. ) ;
#117 = DIRECTION ( 'NONE',  ( -0.0000000000000000000, -0.0000000000000000000, -1.000000000000000000 ) ) ;
#118 = UNCERTAINTY_MEASURE_WITH_UNIT (LENGTH_MEASURE( 1.000000000000000082E-05 ), #259, 'distance_accuracy_value', 'NONE');
#119 = CARTESIAN_POINT ( 'NONE',  ( 6.123233995736768501E-17, 0.0000000000000000000, 0.5000000000000000000 ) ) ;
#120 = SHAPE_DEFINITION_REPRESENTATION ( #146, #84 ) ;
#121 = CARTESIAN_POINT ( 'NONE',  ( 6.127574818941430966E-17, 0.0000000000000000000, 0.5003544551137262264 ) ) ;
#122 = AXIS2_PLACEMENT_3D ( 'NONE', #58, #239, #129 ) ;
#123 = ORIENTED_EDGE ( 'NONE', *, *, #93, .F. ) ;
#124 = PRESENTATION_STYLE_ASSIGNMENT (( #303 ) ) ;
#125 = DIRECTION ( 'NONE',  ( 0.0000000000000000000, -1.000000000000000000, 0.0000000000000000000 ) ) ;
#126 = DIRECTION ( 'NONE',  ( -0.7071067811865462405, 0.0000000000000000000, -0.7071067811865486830 ) ) ;
#127 = AXIS2_PLACEMENT_3D ( 'NONE', #232, #261, #213 ) ;
#128 = CARTESIAN_POINT ( 'NONE',  ( 0.0000000000000000000, 0.0000000000000000000, 0.0000000000000000000 ) ) ;
#129 = DIRECTION ( 'NONE',  ( -1.000000000000000000, 0.0000000000000000000, 0.0000000000000000000 ) ) ;
#130 = DIRECTION ( 'NONE',  ( -1.224646799147353700E-16, -0.0000000000000000000, -1.000000000000000000 ) ) ;
#131 = DIRECTION ( 'NONE',  ( 0.0000000000000000000, 0.0000000000000000000, 1.000000000000000000 ) ) ;
#132 = EDGE_CURVE ( 'NONE', #319, #192, #4, .T. ) ;
#133 = ORIENTED_EDGE ( 'NONE', *, *, #132, .F. ) ;
#134 = CARTESIAN_POINT ( 'NONE',  ( 7.646388452176290456E-18, 0.0000000000000000000, 0.06243749999999999994 ) ) ;
#135 = CARTESIAN_POINT ( 'NONE',  ( 1.146958267826443414E-17, 0.0000000000000000000, 0.0000000000000000000 ) ) ;
#136 = CONICAL_SURFACE ( 'NONE', #248, 0.04750000000000064587, 0.7853981633974466137 ) ;
#137 = CARTESIAN_POINT ( 'NONE',  ( 6.127574818941430966E-17, 0.0000000000000000000, 0.5003544551137262264 ) ) ;
#138 = ORIENTED_EDGE ( 'NONE', *, *, #168, .T. ) ;
#139 = VERTEX_POINT ( 'NONE', #180 ) ;
#140 = CARTESIAN_POINT ( 'NONE',  ( 0.0000000000000000000, 0.0000000000000000000, 1.485000000000000764 ) ) ;
#141 = VECTOR ( 'NONE', #310, 39.37007874015748143 ) ;
#142 = EDGE_CURVE ( 'NONE', #15, #107, #152, .T. ) ;
#143 = CARTESIAN_POINT ( 'NONE',  ( 6.123233995736768501E-17, 0.0000000000000000000, 0.5000000000000000000 ) ) ;
#144 = EDGE_CURVE ( 'NONE', #287, #192, #255, .T. ) ;
#145 = LINE ( 'NONE', #71, #59 ) ;
#146 = PRODUCT_DEFINITION_SHAPE ( 'NONE', 'NONE',  #104 ) ;
#147 = DIRECTION ( 'NONE',  ( 0.0000000000000000000, 0.0000000000000000000, -1.000000000000000000 ) ) ;
#148 = DIRECTION ( 'NONE',  ( 1.000000000000000000, 0.0000000000000000000, 0.0000000000000000000 ) ) ;
#149 = DIRECTION ( 'NONE',  ( 1.000000000000000000, 0.0000000000000000000, 0.0000000000000000000 ) ) ;
#150 = VERTEX_POINT ( 'NONE', #95 ) ;
#151 = DIRECTION ( 'NONE',  ( -1.000000000000000000, 0.0000000000000000000, 1.367291288120251888E-16 ) ) ;
#152 = CIRCLE ( 'NONE', #171, 0.06243749999999999994 ) ;
#153 = AXIS2_PLACEMENT_3D ( 'NONE', #240, #181, #8 ) ;
#154 = DIRECTION ( 'NONE',  ( 1.224646799147353700E-16, 0.0000000000000000000, 1.000000000000000000 ) ) ;
#155 = CARTESIAN_POINT ( 'NONE',  ( 0.0000000000000000000, 0.0000000000000000000, 1.500000000000000222 ) ) ;
#156 = ADVANCED_FACE ( 'NONE', ( #273 ), #136, .T. ) ;
#157 = CARTESIAN_POINT ( 'NONE',  ( -0.04750000000000064587, 0.0000000000000000000, 1.500000000000000222 ) ) ;
#158 = EDGE_LOOP ( 'NONE', ( #314, #14 ) ) ;
#159 = AXIS2_PLACEMENT_3D ( 'NONE', #121, #3, #175 ) ;
#160 = CYLINDRICAL_SURFACE ( 'NONE', #324, 0.06243749999999999994 ) ;
#161 = APPLICATION_CONTEXT ( 'automotive_design' ) ;
#162 =( CONVERSION_BASED_UNIT ( 'INCH', #219 ) LENGTH_UNIT ( ) NAMED_UNIT ( #285 ) );
#163 = CYLINDRICAL_SURFACE ( 'NONE', #115, 0.06243749999999999994 ) ;
#164 = STYLED_ITEM ( 'NONE', ( #124 ), #186 ) ;
#165 = CIRCLE ( 'NONE', #270, 0.04750000000000064587 ) ;
#166 = CARTESIAN_POINT ( 'NONE',  ( 0.0000000000000000000, 0.0000000000000000000, 1.500000000000000222 ) ) ;
#167 = CARTESIAN_POINT ( 'NONE',  ( 0.04750000000000064587, 5.817072295950006528E-18, 1.500000000000000222 ) ) ;
#168 = EDGE_CURVE ( 'NONE', #37, #102, #40, .T. ) ;
#169 = ORIENTED_EDGE ( 'NONE', *, *, #7, .F. ) ;
#170 = CLOSED_SHELL ( 'NONE', ( #264, #51, #191, #203, #96, #272, #257, #156, #182, #231, #44 ) ) ;
#171 = AXIS2_PLACEMENT_3D ( 'NONE', #143, #277, #25 ) ;
#172 = ORIENTED_EDGE ( 'NONE', *, *, #7, .T. ) ;
#173 = MECHANICAL_DESIGN_GEOMETRIC_PRESENTATION_REPRESENTATION (  '', ( #212 ), #234 ) ;
#174 = APPLICATION_PROTOCOL_DEFINITION ( 'draft international standard', 'automotive_design', 1998, #161 ) ;
#175 = DIRECTION ( 'NONE',  ( 1.000000000000000000, 0.0000000000000000000, 0.0000000000000000000 ) ) ;
#176 = ORIENTED_EDGE ( 'NONE', *, *, #235, .F. ) ;
#177 = CYLINDRICAL_SURFACE ( 'NONE', #189, 0.06250000000000002776 ) ;
#178 = CARTESIAN_POINT ( 'NONE',  ( 0.0000000000000000000, 0.0000000000000000000, 1.500000000000000222 ) ) ;
#179 = ORIENTED_EDGE ( 'NONE', *, *, #35, .T. ) ;
#180 = CARTESIAN_POINT ( 'NONE',  ( -0.06249999999999996531, 0.0000000000000000000, 0.5003544551137262264 ) ) ;
#181 = DIRECTION ( 'NONE',  ( -0.0000000000000000000, -0.0000000000000000000, -1.000000000000000000 ) ) ;
#182 = ADVANCED_FACE ( 'NONE', ( #26 ), #306, .T. ) ;
#183 = LINE ( 'NONE', #185, #141 ) ;
#184 = PRESENTATION_LAYER_ASSIGNMENT (  '', '', ( #164 ) ) ;
#185 = CARTESIAN_POINT ( 'NONE',  ( 0.06243749999999999994, 7.646388452176287375E-18, -7.646388452176290456E-18 ) ) ;
#186 = MANIFOLD_SOLID_BREP ( 'Fillet1', #170 ) ;
#187 = DIRECTION ( 'NONE',  ( -1.000000000000000000, 0.0000000000000000000, 1.224646799147353947E-16 ) ) ;
#188 = ORIENTED_EDGE ( 'NONE', *, *, #235, .T. ) ;
#189 = AXIS2_PLACEMENT_3D ( 'NONE', #20, #205, #271 ) ;
#190 =( GEOMETRIC_REPRESENTATION_CONTEXT ( 3 ) GLOBAL_UNCERTAINTY_ASSIGNED_CONTEXT ( ( #118 ) ) GLOBAL_UNIT_ASSIGNED_CONTEXT ( ( #259, #106, #217 ) ) REPRESENTATION_CONTEXT ( 'NONE', 'WORKASPACE' ) );
#191 = ADVANCED_FACE ( 'NONE', ( #281 ), #65, .T. ) ;
#192 = VERTEX_POINT ( 'NONE', #284 ) ;
#193 = APPLICATION_CONTEXT ( 'automotive_design' ) ;
#194 =( NAMED_UNIT ( * ) PLANE_ANGLE_UNIT ( ) SI_UNIT ( $, .RADIAN. ) );
#195 = EDGE_LOOP ( 'NONE', ( #13, #38, #282, #269 ) ) ;
#196 = CIRCLE ( 'NONE', #222, 0.06250000000000002776 ) ;
#197 = CIRCLE ( 'NONE', #41, 0.06243749999999999994 ) ;
#198 = ORIENTED_EDGE ( 'NONE', *, *, #100, .F. ) ;
#199 = DIRECTION ( 'NONE',  ( -1.224646799147353700E-16, -0.0000000000000000000, -1.000000000000000000 ) ) ;
#200 = ORIENTED_EDGE ( 'NONE', *, *, #61, .F. ) ;
#201 = APPLICATION_PROTOCOL_DEFINITION ( 'draft international standard', 'automotive_design', 1998, #193 ) ;
#202 = AXIS2_PLACEMENT_3D ( 'NONE', #119, #50, #148 ) ;
#203 = ADVANCED_FACE ( 'NONE', ( #27 ), #275, .T. ) ;
#204 = DIRECTION ( 'NONE',  ( 0.1736481776669312471, 0.0000000000000000000, 0.9848077530122077983 ) ) ;
#205 = DIRECTION ( 'NONE',  ( -0.0000000000000000000, -0.0000000000000000000, -1.000000000000000000 ) ) ;
#206 = FILL_AREA_STYLE ('',( #6 ) ) ;
#207 = DIRECTION ( 'NONE',  ( -0.0000000000000000000, -0.0000000000000000000, -1.000000000000000000 ) ) ;
#208 = PRODUCT ( 'Micro_BEM-125-03', 'Micro_BEM-125-03', '', ( #2 ) ) ;
#209 = UNCERTAINTY_MEASURE_WITH_UNIT (LENGTH_MEASURE( 1.000000000000000082E-05 ), #162, 'distance_accuracy_value', 'NONE');
#210 = CYLINDRICAL_SURFACE ( 'NONE', #153, 0.06250000000000002776 ) ;
#211 = AXIS2_PLACEMENT_3D ( 'NONE', #137, #199, #290 ) ;
#212 = STYLED_ITEM ( 'NONE', ( #315 ), #84 ) ;
#213 = DIRECTION ( 'NONE',  ( 1.000000000000000000, 0.0000000000000000000, 0.0000000000000000000 ) ) ;
#214 = ORIENTED_EDGE ( 'NONE', *, *, #80, .F. ) ;
#215 = CARTESIAN_POINT ( 'NONE',  ( 6.123233995736768501E-17, 0.0000000000000000000, 0.5000000000000000000 ) ) ;
#216 = DIMENSIONAL_EXPONENTS ( 1.000000000000000000, 0.0000000000000000000, 0.0000000000000000000, 0.0000000000000000000, 0.0000000000000000000, 0.0000000000000000000, 0.0000000000000000000 ) ;
#217 =( NAMED_UNIT ( * ) SI_UNIT ( $, .STERADIAN. ) SOLID_ANGLE_UNIT ( ) );
#218 = LINE ( 'NONE', #90, #242 ) ;
#219 = LENGTH_MEASURE_WITH_UNIT ( LENGTH_MEASURE( 0.02539999999999999897 ), #265 );
#220 = DIRECTION ( 'NONE',  ( 0.0000000000000000000, 0.0000000000000000000, -1.000000000000000000 ) ) ;
#221 = ORIENTED_EDGE ( 'NONE', *, *, #35, .F. ) ;
#222 = AXIS2_PLACEMENT_3D ( 'NONE', #140, #220, #294 ) ;
#223 = VECTOR ( 'NONE', #30, 39.37007874015748854 ) ;
#224 = ORIENTED_EDGE ( 'NONE', *, *, #283, .F. ) ;
#225 = FACE_OUTER_BOUND ( 'NONE', #311, .T. ) ;
#226 =( GEOMETRIC_REPRESENTATION_CONTEXT ( 3 ) GLOBAL_UNCERTAINTY_ASSIGNED_CONTEXT ( ( #301 ) ) GLOBAL_UNIT_ASSIGNED_CONTEXT ( ( #49, #298, #251 ) ) REPRESENTATION_CONTEXT ( 'NONE', 'WORKASPACE' ) );
#227 = CIRCLE ( 'NONE', #60, 0.06243749999999999994 ) ;
#228 = CARTESIAN_POINT ( 'NONE',  ( 7.646388452176290456E-18, 0.0000000000000000000, 0.06243749999999999994 ) ) ;
#229 = CARTESIAN_POINT ( 'NONE',  ( 0.06243750000000006239, 0.0000000000000000000, 0.5000000000000000000 ) ) ;
#230 = CARTESIAN_POINT ( 'NONE',  ( 7.646388452176290456E-18, 0.0000000000000000000, 0.06243749999999999994 ) ) ;
#231 = ADVANCED_FACE ( 'NONE', ( #52 ), #160, .T. ) ;
#232 = CARTESIAN_POINT ( 'NONE',  ( 6.123233995736768501E-17, 0.0000000000000000000, 0.5000000000000000000 ) ) ;
#233 = COLOUR_RGB ( '',0.7921568627450980005, 0.8196078431372548767, 0.9333333333333333481 ) ;
#234 =( GEOMETRIC_REPRESENTATION_CONTEXT ( 3 ) GLOBAL_UNCERTAINTY_ASSIGNED_CONTEXT ( ( #209 ) ) GLOBAL_UNIT_ASSIGNED_CONTEXT ( ( #162, #194, #63 ) ) REPRESENTATION_CONTEXT ( 'NONE', 'WORKASPACE' ) );
#235 = EDGE_CURVE ( 'NONE', #36, #102, #197, .T. ) ;
#236 = DIRECTION ( 'NONE',  ( 1.000000000000000000, 0.0000000000000000000, -0.0000000000000000000 ) ) ;
#237 = SPHERICAL_SURFACE ( 'NONE', #307, 0.06243749999999999994 ) ;
#238 = VECTOR ( 'NONE', #204, 39.37007874015748143 ) ;
#239 = DIRECTION ( 'NONE',  ( 0.0000000000000000000, 0.0000000000000000000, -1.000000000000000000 ) ) ;
#240 = CARTESIAN_POINT ( 'NONE',  ( 0.0000000000000000000, 0.0000000000000000000, 1.500000000000000222 ) ) ;
#241 = EDGE_CURVE ( 'NONE', #102, #36, #72, .T. ) ;
#242 = VECTOR ( 'NONE', #117, 39.37007874015748143 ) ;
#243 = ORIENTED_EDGE ( 'NONE', *, *, #283, .T. ) ;
#244 = SURFACE_SIDE_STYLE ('',( #286 ) ) ;
#245 = EDGE_LOOP ( 'NONE', ( #179, #243, #57, #169 ) ) ;
#246 = ORIENTED_EDGE ( 'NONE', *, *, #109, .F. ) ;
#247 = ORIENTED_EDGE ( 'NONE', *, *, #293, .T. ) ;
#248 = AXIS2_PLACEMENT_3D ( 'NONE', #178, #147, #253 ) ;
#249 = ORIENTED_EDGE ( 'NONE', *, *, #69, .F. ) ;
#250 = CARTESIAN_POINT ( 'NONE',  ( -0.04750000000000064587, 0.0000000000000000000, 1.500000000000000222 ) ) ;
#251 =( NAMED_UNIT ( * ) SI_UNIT ( $, .STERADIAN. ) SOLID_ANGLE_UNIT ( ) );
#252 = SURFACE_STYLE_FILL_AREA ( #206 ) ;
#253 = DIRECTION ( 'NONE',  ( -1.000000000000000000, 0.0000000000000000000, 0.0000000000000000000 ) ) ;
#254 = CARTESIAN_POINT ( 'NONE',  ( 0.0000000000000000000, 0.0000000000000000000, 0.0000000000000000000 ) ) ;
#255 = LINE ( 'NONE', #250, #21 ) ;
#256 = CARTESIAN_POINT ( 'NONE',  ( 7.646388452176290456E-18, 0.0000000000000000000, 0.06243749999999999994 ) ) ;
#257 = ADVANCED_FACE ( 'NONE', ( #78 ), #258, .T. ) ;
#258 = PLANE ( 'NONE',  #89 ) ;
#259 =( CONVERSION_BASED_UNIT ( 'INCH', #280 ) LENGTH_UNIT ( ) NAMED_UNIT ( #289 ) );
#260 = LINE ( 'NONE', #79, #223 ) ;
#261 = DIRECTION ( 'NONE',  ( 1.224646799147353700E-16, 0.0000000000000000000, 1.000000000000000000 ) ) ;
#262 = ORIENTED_EDGE ( 'NONE', *, *, #69, .T. ) ;
#263 = COLOUR_RGB ( '',0.7921568627450980005, 0.8196078431372548767, 0.9333333333333333481 ) ;
#264 = ADVANCED_FACE ( 'NONE', ( #54 ), #237, .T. ) ;
#265 =( LENGTH_UNIT ( ) NAMED_UNIT ( * ) SI_UNIT ( $, .METRE. ) );
#266 = DIRECTION ( 'NONE',  ( 1.000000000000000000, 0.0000000000000000000, 0.0000000000000000000 ) ) ;
#267 = EDGE_LOOP ( 'NONE', ( #70, #262, #221, #29 ) ) ;
#268 = CARTESIAN_POINT ( 'NONE',  ( 0.06243750000000006239, 0.0000000000000000000, 0.5000000000000000000 ) ) ;
#269 = ORIENTED_EDGE ( 'NONE', *, *, #100, .T. ) ;
#270 = AXIS2_PLACEMENT_3D ( 'NONE', #155, #131, #305 ) ;
#271 = DIRECTION ( 'NONE',  ( -1.000000000000000000, 0.0000000000000000000, 0.0000000000000000000 ) ) ;
#272 = ADVANCED_FACE ( 'NONE', ( #110 ), #210, .T. ) ;
#273 = FACE_OUTER_BOUND ( 'NONE', #12, .T. ) ;
#274 = CARTESIAN_POINT ( 'NONE',  ( 0.0000000000000000000, 0.0000000000000000000, 1.485000000000000764 ) ) ;
#275 = CONICAL_SURFACE ( 'NONE', #122, 0.04750000000000064587, 0.7853981633974466137 ) ;
#276 = EDGE_LOOP ( 'NONE', ( #214, #138, #176 ) ) ;
#277 = DIRECTION ( 'NONE',  ( -1.224646799147353700E-16, -0.0000000000000000000, -1.000000000000000000 ) ) ;
#278 = LINE ( 'NONE', #28, #22 ) ;
#279 = AXIS2_PLACEMENT_3D ( 'NONE', #166, #292, #266 ) ;
#280 = LENGTH_MEASURE_WITH_UNIT ( LENGTH_MEASURE( 0.02539999999999999897 ), #53 );
#281 = FACE_OUTER_BOUND ( 'NONE', #312, .T. ) ;
#282 = ORIENTED_EDGE ( 'NONE', *, *, #93, .T. ) ;
#283 = EDGE_CURVE ( 'NONE', #319, #150, #278, .T. ) ;
#284 = CARTESIAN_POINT ( 'NONE',  ( -0.06250000000000002776, 0.0000000000000000000, 1.485000000000000764 ) ) ;
#285 = DIMENSIONAL_EXPONENTS ( 1.000000000000000000, 0.0000000000000000000, 0.0000000000000000000, 0.0000000000000000000, 0.0000000000000000000, 0.0000000000000000000, 0.0000000000000000000 ) ;
#286 = SURFACE_STYLE_FILL_AREA ( #33 ) ;
#287 = VERTEX_POINT ( 'NONE', #157 ) ;
#288 = EDGE_CURVE ( 'NONE', #107, #139, #260, .T. ) ;
#289 = DIMENSIONAL_EXPONENTS ( 1.000000000000000000, 0.0000000000000000000, 0.0000000000000000000, 0.0000000000000000000, 0.0000000000000000000, 0.0000000000000000000, 0.0000000000000000000 ) ;
#290 = DIRECTION ( 'NONE',  ( 1.000000000000000000, 0.0000000000000000000, 0.0000000000000000000 ) ) ;
#291 = PRODUCT_DEFINITION_FORMATION_WITH_SPECIFIED_SOURCE ( 'ANY', '', #208, .NOT_KNOWN. ) ;
#292 = DIRECTION ( 'NONE',  ( 0.0000000000000000000, 0.0000000000000000000, 1.000000000000000000 ) ) ;
#293 = EDGE_CURVE ( 'NONE', #107, #15, #227, .T. ) ;
#294 = DIRECTION ( 'NONE',  ( 1.000000000000000000, 0.0000000000000000000, 0.0000000000000000000 ) ) ;
#295 = ORIENTED_EDGE ( 'NONE', *, *, #293, .F. ) ;
#296 = ORIENTED_EDGE ( 'NONE', *, *, #288, .T. ) ;
#297 = AXIS2_PLACEMENT_3D ( 'NONE', #274, #302, #46 ) ;
#298 =( NAMED_UNIT ( * ) PLANE_ANGLE_UNIT ( ) SI_UNIT ( $, .RADIAN. ) );
#299 = CARTESIAN_POINT ( 'NONE',  ( -0.06243749999999999301, 0.0000000000000000000, 0.06243750000000001382 ) ) ;
#300 = SURFACE_SIDE_STYLE ('',( #252 ) ) ;
#301 = UNCERTAINTY_MEASURE_WITH_UNIT (LENGTH_MEASURE( 1.000000000000000082E-05 ), #49, 'distance_accuracy_value', 'NONE');
#302 = DIRECTION ( 'NONE',  ( 0.0000000000000000000, 0.0000000000000000000, -1.000000000000000000 ) ) ;
#303 = SURFACE_STYLE_USAGE ( .BOTH. , #300 ) ;
#304 = CARTESIAN_POINT ( 'NONE',  ( 0.06250000000000002776, 7.654042494670959086E-18, 1.485000000000000764 ) ) ;
#305 = DIRECTION ( 'NONE',  ( 1.000000000000000000, 0.0000000000000000000, 0.0000000000000000000 ) ) ;
#306 = CONICAL_SURFACE ( 'NONE', #202, 0.06243749999999999994, 0.1745329251994337527 ) ;
#307 = AXIS2_PLACEMENT_3D ( 'NONE', #11, #108, #9 ) ;
#308 = DIRECTION ( 'NONE',  ( -1.000000000000000000, 0.0000000000000000000, 1.367291288120251888E-16 ) ) ;
#309 = ORIENTED_EDGE ( 'NONE', *, *, #19, .T. ) ;
#310 = DIRECTION ( 'NONE',  ( -1.224646799147353700E-16, -0.0000000000000000000, -1.000000000000000000 ) ) ;
#311 = EDGE_LOOP ( 'NONE', ( #31, #116, #42 ) ) ;
#312 = EDGE_LOOP ( 'NONE', ( #295, #296, #309, #123 ) ) ;
#313 = MECHANICAL_DESIGN_GEOMETRIC_PRESENTATION_REPRESENTATION (  '', ( #164 ), #226 ) ;
#314 = ORIENTED_EDGE ( 'NONE', *, *, #61, .T. ) ;
#315 = PRESENTATION_STYLE_ASSIGNMENT (( #111 ) ) ;
#316 = EDGE_CURVE ( 'NONE', #112, #287, #165, .T. ) ;
#317 = SPHERICAL_SURFACE ( 'NONE', #98, 0.06243749999999999994 ) ;
#318 = ORIENTED_EDGE ( 'NONE', *, *, #241, .T. ) ;
#319 = VERTEX_POINT ( 'NONE', #304 ) ;
#320 = ORIENTED_EDGE ( 'NONE', *, *, #142, .T. ) ;
#321 = EDGE_CURVE ( 'NONE', #15, #36, #183, .T. ) ;
#322 =( LENGTH_UNIT ( ) NAMED_UNIT ( * ) SI_UNIT ( $, .METRE. ) );
#323 = CIRCLE ( 'NONE', #159, 0.06250000000000002776 ) ;
#324 = AXIS2_PLACEMENT_3D ( 'NONE', #128, #101, #187 ) ;
#325 = LENGTH_MEASURE_WITH_UNIT ( LENGTH_MEASURE( 0.02539999999999999897 ), #322 );
ENDSEC;
END-ISO-10303-21;
