ISO-10303-21;
HEADER;
FILE_DESCRIPTION (( 'STEP AP214' ),
    '1' );
FILE_NAME ('Micro_BMR-022-2X.STEP',
    '2021-09-03T13:53:12',
    ( '' ),
    ( '' ),
    'SwSTEP 2.0',
    'SolidWorks 2020',
    '' );
FILE_SCHEMA (( 'AUTOMOTIVE_DESIGN' ));
ENDSEC;

DATA;
#1 = DIRECTION ( 'NONE',  ( 0.0000000000000000000, 0.0000000000000000000, 1.000000000000000000 ) ) ;
#2 = CARTESIAN_POINT ( 'NONE',  ( 1.345764367583026786E-18, 0.0000000000000000000, 0.01098900000000000050 ) ) ;
#3 = CIRCLE ( 'NONE', #53, 0.01098899999999999530 ) ;
#4 =( NAMED_UNIT ( * ) PLANE_ANGLE_UNIT ( ) SI_UNIT ( $, .RADIAN. ) );
#5 = VERTEX_POINT ( 'NONE', #112 ) ;
#6 =( LENGTH_UNIT ( ) NAMED_UNIT ( * ) SI_UNIT ( $, .METRE. ) );
#7 = ORIENTED_EDGE ( 'NONE', *, *, #123, .F. ) ;
#8 = CONICAL_SURFACE ( 'NONE', #22, 0.04750000000000064587, 0.7853981633974466137 ) ;
#9 = ORIENTED_EDGE ( 'NONE', *, *, #75, .F. ) ;
#10 = PRODUCT_DEFINITION_FORMATION_WITH_SPECIFIED_SOURCE ( 'ANY', '', #280, .NOT_KNOWN. ) ;
#11 = CARTESIAN_POINT ( 'NONE',  ( 0.0000000000000000000, 0.0000000000000000000, 1.500000000000000222 ) ) ;
#12 = CARTESIAN_POINT ( 'NONE',  ( 0.0000000000000000000, 0.0000000000000000000, 1.485000000000000764 ) ) ;
#13 = LINE ( 'NONE', #59, #81 ) ;
#14 = DIMENSIONAL_EXPONENTS ( 1.000000000000000000, 0.0000000000000000000, 0.0000000000000000000, 0.0000000000000000000, 0.0000000000000000000, 0.0000000000000000000, 0.0000000000000000000 ) ;
#15 = AXIS2_PLACEMENT_3D ( 'NONE', #44, #170, #173 ) ;
#16 = APPLICATION_PROTOCOL_DEFINITION ( 'draft international standard', 'automotive_design', 1998, #127 ) ;
#17 = ORIENTED_EDGE ( 'NONE', *, *, #129, .F. ) ;
#18 = EDGE_CURVE ( 'NONE', #263, #5, #164, .T. ) ;
#19 = DIRECTION ( 'NONE',  ( -1.224646799147353454E-16, -0.0000000000000000000, -1.000000000000000000 ) ) ;
#20 = SURFACE_SIDE_STYLE ('',( #242 ) ) ;
#21 = VECTOR ( 'NONE', #318, 39.37007874015748854 ) ;
#22 = AXIS2_PLACEMENT_3D ( 'NONE', #271, #65, #48 ) ;
#23 = FACE_OUTER_BOUND ( 'NONE', #157, .T. ) ;
#24 = EDGE_CURVE ( 'NONE', #263, #117, #37, .T. ) ;
#25 = CARTESIAN_POINT ( 'NONE',  ( 0.0000000000000000000, 0.0000000000000000000, 0.0000000000000000000 ) ) ;
#26 = DIRECTION ( 'NONE',  ( -1.224646799147353454E-16, -0.0000000000000000000, -1.000000000000000000 ) ) ;
#27 = CIRCLE ( 'NONE', #220, 0.01098900000000000050 ) ;
#28 = DIRECTION ( 'NONE',  ( 1.000000000000000000, 0.0000000000000000000, 0.0000000000000000000 ) ) ;
#29 = EDGE_LOOP ( 'NONE', ( #7, #17, #60, #304 ) ) ;
#30 = DIRECTION ( 'NONE',  ( 1.000000000000000000, 0.0000000000000000000, 0.0000000000000000000 ) ) ;
#31 = AXIS2_PLACEMENT_3D ( 'NONE', #228, #1, #226 ) ;
#32 = DIRECTION ( 'NONE',  ( 0.0000000000000000000, 0.0000000000000000000, -1.000000000000000000 ) ) ;
#33 = CARTESIAN_POINT ( 'NONE',  ( -0.01098899999999998836, 4.499903431126993417E-18, 0.06600000000000000311 ) ) ;
#34 = EDGE_CURVE ( 'NONE', #263, #55, #184, .T. ) ;
#35 = EDGE_CURVE ( 'NONE', #188, #85, #13, .T. ) ;
#36 = DIRECTION ( 'NONE',  ( 0.0000000000000000000, 0.0000000000000000000, 1.000000000000000000 ) ) ;
#37 = LINE ( 'NONE', #62, #208 ) ;
#38 = ORIENTED_EDGE ( 'NONE', *, *, #253, .F. ) ;
#39 = DIMENSIONAL_EXPONENTS ( 1.000000000000000000, 0.0000000000000000000, 0.0000000000000000000, 0.0000000000000000000, 0.0000000000000000000, 0.0000000000000000000, 0.0000000000000000000 ) ;
#40 = ADVANCED_FACE ( 'NONE', ( #236 ), #316, .T. ) ;
#41 = ORIENTED_EDGE ( 'NONE', *, *, #321, .F. ) ;
#42 = CONICAL_SURFACE ( 'NONE', #177, 0.01098899999999999703, 0.1745329251994338637 ) ;
#43 = EDGE_LOOP ( 'NONE', ( #133, #288, #213, #41 ) ) ;
#44 = CARTESIAN_POINT ( 'NONE',  ( 1.345764367583026786E-18, 0.0000000000000000000, 0.01098900000000000050 ) ) ;
#45 = DIRECTION ( 'NONE',  ( 1.000000000000000000, 0.0000000000000000000, 0.0000000000000000000 ) ) ;
#46 = AXIS2_PLACEMENT_3D ( 'NONE', #148, #249, #30 ) ;
#47 = CARTESIAN_POINT ( 'NONE',  ( 1.345764367583026786E-18, 0.0000000000000000000, 0.01098900000000000050 ) ) ;
#48 = DIRECTION ( 'NONE',  ( -1.000000000000000000, 0.0000000000000000000, 0.0000000000000000000 ) ) ;
#49 = CARTESIAN_POINT ( 'NONE',  ( -0.06250000000000002776, 0.0000000000000000000, 1.485000000000000764 ) ) ;
#50 = LENGTH_MEASURE_WITH_UNIT ( LENGTH_MEASURE( 0.02539999999999999897 ), #6 );
#51 = DIRECTION ( 'NONE',  ( -1.000000000000000000, 0.0000000000000000000, 0.0000000000000000000 ) ) ;
#52 = ORIENTED_EDGE ( 'NONE', *, *, #308, .T. ) ;
#53 = AXIS2_PLACEMENT_3D ( 'NONE', #295, #269, #264 ) ;
#54 =( CONVERSION_BASED_UNIT ( 'INCH', #50 ) LENGTH_UNIT ( ) NAMED_UNIT ( #14 ) );
#55 = VERTEX_POINT ( 'NONE', #33 ) ;
#56 = ADVANCED_BREP_SHAPE_REPRESENTATION ( 'Micro_BMR-022-2X', ( #235, #94 ), #142 ) ;
#57 = ORIENTED_EDGE ( 'NONE', *, *, #88, .T. ) ;
#58 = DIRECTION ( 'NONE',  ( 0.1736481776669313581, 0.0000000000000000000, 0.9848077530122077983 ) ) ;
#59 = CARTESIAN_POINT ( 'NONE',  ( -0.06250000000000002776, 0.0000000000000000000, 1.500000000000000222 ) ) ;
#60 = ORIENTED_EDGE ( 'NONE', *, *, #231, .T. ) ;
#61 = EDGE_CURVE ( 'NONE', #78, #188, #310, .T. ) ;
#62 = CARTESIAN_POINT ( 'NONE',  ( 0.01098900000000000571, 0.0000000000000000000, 0.06600000000000000311 ) ) ;
#63 = CARTESIAN_POINT ( 'NONE',  ( 0.01098899999999999530, 1.345764367583025823E-18, -1.345764367583026016E-18 ) ) ;
#64 =( GEOMETRIC_REPRESENTATION_CONTEXT ( 3 ) GLOBAL_UNCERTAINTY_ASSIGNED_CONTEXT ( ( #222 ) ) GLOBAL_UNIT_ASSIGNED_CONTEXT ( ( #79, #153, #223 ) ) REPRESENTATION_CONTEXT ( 'NONE', 'WORKASPACE' ) );
#65 = DIRECTION ( 'NONE',  ( 0.0000000000000000000, 0.0000000000000000000, -1.000000000000000000 ) ) ;
#66 = SPHERICAL_SURFACE ( 'NONE', #15, 0.01098900000000000050 ) ;
#67 = DIRECTION ( 'NONE',  ( -1.000000000000000000, 0.0000000000000000000, 1.224646799147353454E-16 ) ) ;
#68 = AXIS2_PLACEMENT_3D ( 'NONE', #182, #309, #28 ) ;
#69 = DIRECTION ( 'NONE',  ( 1.224646799147353454E-16, 0.0000000000000000000, 1.000000000000000000 ) ) ;
#70 = DIRECTION ( 'NONE',  ( -1.224646799147353454E-16, -0.0000000000000000000, -1.000000000000000000 ) ) ;
#71 = CLOSED_SHELL ( 'NONE', ( #98, #291, #176, #110, #248, #270, #40, #300, #89, #97, #156 ) ) ;
#72 = FACE_OUTER_BOUND ( 'NONE', #131, .T. ) ;
#73 = STYLED_ITEM ( 'NONE', ( #95 ), #235 ) ;
#74 = DIRECTION ( 'NONE',  ( -0.0000000000000000000, -0.0000000000000000000, -1.000000000000000000 ) ) ;
#75 = EDGE_CURVE ( 'NONE', #188, #78, #116, .T. ) ;
#76 = ORIENTED_EDGE ( 'NONE', *, *, #34, .T. ) ;
#77 = DIRECTION ( 'NONE',  ( -1.000000000000000000, 0.0000000000000000000, 1.224646799147353454E-16 ) ) ;
#78 = VERTEX_POINT ( 'NONE', #207 ) ;
#79 =( CONVERSION_BASED_UNIT ( 'INCH', #108 ) LENGTH_UNIT ( ) NAMED_UNIT ( #323 ) );
#80 = VERTEX_POINT ( 'NONE', #314 ) ;
#81 = VECTOR ( 'NONE', #317, 39.37007874015748143 ) ;
#82 = DIRECTION ( 'NONE',  ( -1.000000000000000000, 0.0000000000000000000, 0.0000000000000000000 ) ) ;
#83 = ORIENTED_EDGE ( 'NONE', *, *, #275, .F. ) ;
#84 = CARTESIAN_POINT ( 'NONE',  ( 0.0000000000000000000, 0.0000000000000000000, 0.0000000000000000000 ) ) ;
#85 = VERTEX_POINT ( 'NONE', #190 ) ;
#86 = AXIS2_PLACEMENT_3D ( 'NONE', #2, #106, #178 ) ;
#87 = DIRECTION ( 'NONE',  ( 0.0000000000000000000, 0.0000000000000000000, -1.000000000000000000 ) ) ;
#88 = EDGE_CURVE ( 'NONE', #55, #85, #286, .T. ) ;
#89 = ADVANCED_FACE ( 'NONE', ( #23 ), #42, .T. ) ;
#90 = ORIENTED_EDGE ( 'NONE', *, *, #292, .F. ) ;
#91 = LENGTH_MEASURE_WITH_UNIT ( LENGTH_MEASURE( 0.02539999999999999897 ), #186 );
#92 = DIRECTION ( 'NONE',  ( 0.0000000000000000000, 0.0000000000000000000, 1.000000000000000000 ) ) ;
#93 = DIRECTION ( 'NONE',  ( -1.000000000000000000, 0.0000000000000000000, 0.0000000000000000000 ) ) ;
#94 = AXIS2_PLACEMENT_3D ( 'NONE', #84, #36, #285 ) ;
#95 = PRESENTATION_STYLE_ASSIGNMENT (( #244 ) ) ;
#96 = DIRECTION ( 'NONE',  ( 0.7071067811865462405, 8.659560562354916834E-17, -0.7071067811865486830 ) ) ;
#97 = ADVANCED_FACE ( 'NONE', ( #322 ), #216, .T. ) ;
#98 = ADVANCED_FACE ( 'NONE', ( #298 ), #66, .T. ) ;
#99 = AXIS2_PLACEMENT_3D ( 'NONE', #185, #180, #77 ) ;
#100 = DIRECTION ( 'NONE',  ( 1.224646799147353454E-16, 0.0000000000000000000, 1.000000000000000000 ) ) ;
#101 = DIRECTION ( 'NONE',  ( -0.0000000000000000000, -0.0000000000000000000, -1.000000000000000000 ) ) ;
#102 = ORIENTED_EDGE ( 'NONE', *, *, #292, .T. ) ;
#103 = PRODUCT_DEFINITION ( 'UNKNOWN', '', #10, #146 ) ;
#104 = DIRECTION ( 'NONE',  ( 1.224646799147353454E-16, 0.0000000000000000000, 1.000000000000000000 ) ) ;
#105 = AXIS2_PLACEMENT_3D ( 'NONE', #145, #70, #93 ) ;
#106 = DIRECTION ( 'NONE',  ( 0.0000000000000000000, -1.000000000000000000, 0.0000000000000000000 ) ) ;
#107 = ORIENTED_EDGE ( 'NONE', *, *, #18, .F. ) ;
#108 = LENGTH_MEASURE_WITH_UNIT ( LENGTH_MEASURE( 0.02539999999999999897 ), #297 );
#109 = CARTESIAN_POINT ( 'NONE',  ( 0.01098900000000000571, 0.0000000000000000000, 0.06600000000000000311 ) ) ;
#110 = ADVANCED_FACE ( 'NONE', ( #294 ), #8, .T. ) ;
#111 = AXIS2_PLACEMENT_3D ( 'NONE', #128, #101, #51 ) ;
#112 = CARTESIAN_POINT ( 'NONE',  ( 0.01098899999999999703, 1.345764367583025823E-18, 0.01098899999999999703 ) ) ;
#113 = PRESENTATION_STYLE_ASSIGNMENT (( #281 ) ) ;
#114 = CARTESIAN_POINT ( 'NONE',  ( 0.0000000000000000000, 0.0000000000000000000, 1.485000000000000764 ) ) ;
#115 = DIRECTION ( 'NONE',  ( 1.000000000000000000, 0.0000000000000000000, 0.0000000000000000000 ) ) ;
#116 = CIRCLE ( 'NONE', #121, 0.06250000000000002776 ) ;
#117 = VERTEX_POINT ( 'NONE', #193 ) ;
#118 = DIRECTION ( 'NONE',  ( -1.224646799147353454E-16, -0.0000000000000000000, -1.000000000000000000 ) ) ;
#119 = DIRECTION ( 'NONE',  ( 0.0000000000000000000, 0.0000000000000000000, 1.000000000000000000 ) ) ;
#120 = LINE ( 'NONE', #221, #215 ) ;
#121 = AXIS2_PLACEMENT_3D ( 'NONE', #12, #284, #115 ) ;
#122 = LINE ( 'NONE', #197, #21 ) ;
#123 = EDGE_CURVE ( 'NONE', #313, #78, #120, .T. ) ;
#124 = CARTESIAN_POINT ( 'NONE',  ( 0.0000000000000000000, 0.0000000000000000000, 1.500000000000000222 ) ) ;
#125 = ORIENTED_EDGE ( 'NONE', *, *, #166, .T. ) ;
#126 = DIRECTION ( 'NONE',  ( -1.000000000000000000, 0.0000000000000000000, 0.0000000000000000000 ) ) ;
#127 = APPLICATION_CONTEXT ( 'automotive_design' ) ;
#128 = CARTESIAN_POINT ( 'NONE',  ( 0.0000000000000000000, 0.0000000000000000000, 1.500000000000000222 ) ) ;
#129 = EDGE_CURVE ( 'NONE', #230, #313, #159, .T. ) ;
#130 =( CONVERSION_BASED_UNIT ( 'INCH', #91 ) LENGTH_UNIT ( ) NAMED_UNIT ( #39 ) );
#131 = EDGE_LOOP ( 'NONE', ( #165, #181, #202, #261 ) ) ;
#132 = AXIS2_PLACEMENT_3D ( 'NONE', #25, #19, #67 ) ;
#133 = ORIENTED_EDGE ( 'NONE', *, *, #259, .F. ) ;
#134 = SHAPE_DEFINITION_REPRESENTATION ( #225, #56 ) ;
#135 = ORIENTED_EDGE ( 'NONE', *, *, #253, .T. ) ;
#136 = ORIENTED_EDGE ( 'NONE', *, *, #166, .F. ) ;
#137 = CARTESIAN_POINT ( 'NONE',  ( 8.082668874372533300E-18, 0.0000000000000000000, 0.06600000000000000311 ) ) ;
#138 = EDGE_LOOP ( 'NONE', ( #107, #76, #162, #252 ) ) ;
#139 = FILL_AREA_STYLE ('',( #320 ) ) ;
#140 = CIRCLE ( 'NONE', #46, 0.06250000000000002776 ) ;
#141 = LINE ( 'NONE', #325, #160 ) ;
#142 =( GEOMETRIC_REPRESENTATION_CONTEXT ( 3 ) GLOBAL_UNCERTAINTY_ASSIGNED_CONTEXT ( ( #266 ) ) GLOBAL_UNIT_ASSIGNED_CONTEXT ( ( #54, #4, #204 ) ) REPRESENTATION_CONTEXT ( 'NONE', 'WORKASPACE' ) );
#143 = EDGE_CURVE ( 'NONE', #55, #263, #232, .T. ) ;
#144 = CARTESIAN_POINT ( 'NONE',  ( -0.04750000000000064587, 0.0000000000000000000, 1.500000000000000222 ) ) ;
#145 = CARTESIAN_POINT ( 'NONE',  ( 8.082668874372533300E-18, 0.0000000000000000000, 0.06600000000000000311 ) ) ;
#146 = PRODUCT_DEFINITION_CONTEXT ( 'detailed design', #127, 'design' ) ;
#147 = VECTOR ( 'NONE', #237, 39.37007874015748143 ) ;
#148 = CARTESIAN_POINT ( 'NONE',  ( 4.385869192961820901E-17, 0.0000000000000000000, 0.3581333978103264370 ) ) ;
#149 = AXIS2_PLACEMENT_3D ( 'NONE', #250, #32, #126 ) ;
#150 =( GEOMETRIC_REPRESENTATION_CONTEXT ( 3 ) GLOBAL_UNCERTAINTY_ASSIGNED_CONTEXT ( ( #218 ) ) GLOBAL_UNIT_ASSIGNED_CONTEXT ( ( #130, #287, #210 ) ) REPRESENTATION_CONTEXT ( 'NONE', 'WORKASPACE' ) );
#151 = CARTESIAN_POINT ( 'NONE',  ( 0.04750000000000064587, 6.735557395310483192E-18, 1.500000000000000222 ) ) ;
#152 = ORIENTED_EDGE ( 'NONE', *, *, #129, .T. ) ;
#153 =( NAMED_UNIT ( * ) PLANE_ANGLE_UNIT ( ) SI_UNIT ( $, .RADIAN. ) );
#154 = DIRECTION ( 'NONE',  ( -0.0000000000000000000, -0.0000000000000000000, -1.000000000000000000 ) ) ;
#155 = AXIS2_PLACEMENT_3D ( 'NONE', #293, #174, #265 ) ;
#156 = ADVANCED_FACE ( 'NONE', ( #175 ), #272, .T. ) ;
#157 = EDGE_LOOP ( 'NONE', ( #183, #191, #311, #192 ) ) ;
#158 = EDGE_LOOP ( 'NONE', ( #312, #57, #135, #240 ) ) ;
#159 = CIRCLE ( 'NONE', #167, 0.04750000000000064587 ) ;
#160 = VECTOR ( 'NONE', #26, 39.37007874015748143 ) ;
#161 = STYLED_ITEM ( 'NONE', ( #113 ), #56 ) ;
#162 = ORIENTED_EDGE ( 'NONE', *, *, #171, .T. ) ;
#163 = SURFACE_SIDE_STYLE ('',( #233 ) ) ;
#164 = LINE ( 'NONE', #63, #147 ) ;
#165 = ORIENTED_EDGE ( 'NONE', *, *, #143, .T. ) ;
#166 = EDGE_CURVE ( 'NONE', #80, #278, #27, .T. ) ;
#167 = AXIS2_PLACEMENT_3D ( 'NONE', #124, #119, #243 ) ;
#168 = ORIENTED_EDGE ( 'NONE', *, *, #212, .F. ) ;
#169 = CYLINDRICAL_SURFACE ( 'NONE', #111, 0.06250000000000002776 ) ;
#170 = DIRECTION ( 'NONE',  ( 0.0000000000000000000, 1.000000000000000000, 0.0000000000000000000 ) ) ;
#171 = EDGE_CURVE ( 'NONE', #55, #278, #141, .T. ) ;
#172 = CONICAL_SURFACE ( 'NONE', #149, 0.04750000000000064587, 0.7853981633974466137 ) ;
#173 = DIRECTION ( 'NONE',  ( 1.000000000000000000, 0.0000000000000000000, 0.0000000000000000000 ) ) ;
#174 = DIRECTION ( 'NONE',  ( 0.0000000000000000000, 1.000000000000000000, 0.0000000000000000000 ) ) ;
#175 = FACE_OUTER_BOUND ( 'NONE', #211, .T. ) ;
#176 = ADVANCED_FACE ( 'NONE', ( #219 ), #195, .T. ) ;
#177 = AXIS2_PLACEMENT_3D ( 'NONE', #194, #69, #241 ) ;
#178 = DIRECTION ( 'NONE',  ( 0.0000000000000000000, 0.0000000000000000000, -1.000000000000000000 ) ) ;
#179 = EDGE_LOOP ( 'NONE', ( #276, #187, #9, #279 ) ) ;
#180 = DIRECTION ( 'NONE',  ( -1.224646799147353454E-16, -0.0000000000000000000, -1.000000000000000000 ) ) ;
#181 = ORIENTED_EDGE ( 'NONE', *, *, #18, .T. ) ;
#182 = CARTESIAN_POINT ( 'NONE',  ( 4.385869192961820901E-17, 0.0000000000000000000, 0.3581333978103264370 ) ) ;
#183 = ORIENTED_EDGE ( 'NONE', *, *, #88, .F. ) ;
#184 = CIRCLE ( 'NONE', #296, 0.01098899999999999703 ) ;
#185 = CARTESIAN_POINT ( 'NONE',  ( 0.0000000000000000000, 0.0000000000000000000, 0.0000000000000000000 ) ) ;
#186 =( LENGTH_UNIT ( ) NAMED_UNIT ( * ) SI_UNIT ( $, .METRE. ) );
#187 = ORIENTED_EDGE ( 'NONE', *, *, #123, .T. ) ;
#188 = VERTEX_POINT ( 'NONE', #49 ) ;
#189 = APPLICATION_CONTEXT ( 'automotive_design' ) ;
#190 = CARTESIAN_POINT ( 'NONE',  ( -0.06249999999999997918, 0.0000000000000000000, 0.3581333978103264370 ) ) ;
#191 = ORIENTED_EDGE ( 'NONE', *, *, #34, .F. ) ;
#192 = ORIENTED_EDGE ( 'NONE', *, *, #321, .T. ) ;
#193 = CARTESIAN_POINT ( 'NONE',  ( 0.06250000000000006939, 7.654042494670963708E-18, 0.3581333978103264370 ) ) ;
#194 = CARTESIAN_POINT ( 'NONE',  ( 8.082668874372533300E-18, 0.0000000000000000000, 0.06600000000000000311 ) ) ;
#195 = CONICAL_SURFACE ( 'NONE', #273, 0.01098899999999999703, 0.1745329251994338637 ) ;
#196 = DIRECTION ( 'NONE',  ( -0.1736481776669311639, 2.126576849575783008E-17, 0.9848077530122080203 ) ) ;
#197 = CARTESIAN_POINT ( 'NONE',  ( -0.04750000000000064587, 0.0000000000000000000, 1.500000000000000222 ) ) ;
#198 = PRODUCT_RELATED_PRODUCT_CATEGORY ( 'part', '', ( #280 ) ) ;
#199 = CARTESIAN_POINT ( 'NONE',  ( 0.0000000000000000000, 0.0000000000000000000, 1.500000000000000222 ) ) ;
#200 = MECHANICAL_DESIGN_GEOMETRIC_PRESENTATION_REPRESENTATION (  '', ( #73 ), #64 ) ;
#201 = CYLINDRICAL_SURFACE ( 'NONE', #267, 0.06250000000000002776 ) ;
#202 = ORIENTED_EDGE ( 'NONE', *, *, #275, .T. ) ;
#203 = COLOUR_RGB ( '',0.7921568627450980005, 0.8196078431372548767, 0.9333333333333333481 ) ;
#204 =( NAMED_UNIT ( * ) SI_UNIT ( $, .STERADIAN. ) SOLID_ANGLE_UNIT ( ) );
#205 = EDGE_LOOP ( 'NONE', ( #152, #52 ) ) ;
#206 = DIRECTION ( 'NONE',  ( 1.000000000000000000, 0.0000000000000000000, 0.0000000000000000000 ) ) ;
#207 = CARTESIAN_POINT ( 'NONE',  ( 0.06250000000000002776, 7.654042494670959086E-18, 1.485000000000000764 ) ) ;
#208 = VECTOR ( 'NONE', #58, 39.37007874015748143 ) ;
#209 = CIRCLE ( 'NONE', #68, 0.06250000000000002776 ) ;
#210 =( NAMED_UNIT ( * ) SI_UNIT ( $, .STERADIAN. ) SOLID_ANGLE_UNIT ( ) );
#211 = EDGE_LOOP ( 'NONE', ( #136, #102, #168 ) ) ;
#212 = EDGE_CURVE ( 'NONE', #278, #5, #3, .T. ) ;
#213 = ORIENTED_EDGE ( 'NONE', *, *, #35, .T. ) ;
#214 = DIRECTION ( 'NONE',  ( -1.000000000000000000, 1.224646799147353207E-16, 0.0000000000000000000 ) ) ;
#215 = VECTOR ( 'NONE', #96, 39.37007874015748854 ) ;
#216 = CYLINDRICAL_SURFACE ( 'NONE', #132, 0.01098899999999999530 ) ;
#217 = CARTESIAN_POINT ( 'NONE',  ( 8.082668874372533300E-18, 0.0000000000000000000, 0.06600000000000000311 ) ) ;
#218 = UNCERTAINTY_MEASURE_WITH_UNIT (LENGTH_MEASURE( 1.000000000000000082E-05 ), #130, 'distance_accuracy_value', 'NONE');
#219 = FACE_OUTER_BOUND ( 'NONE', #158, .T. ) ;
#220 = AXIS2_PLACEMENT_3D ( 'NONE', #47, #245, #214 ) ;
#221 = CARTESIAN_POINT ( 'NONE',  ( 0.04750000000000064587, 5.817072295950006528E-18, 1.500000000000000222 ) ) ;
#222 = UNCERTAINTY_MEASURE_WITH_UNIT (LENGTH_MEASURE( 1.000000000000000082E-05 ), #79, 'distance_accuracy_value', 'NONE');
#223 =( NAMED_UNIT ( * ) SI_UNIT ( $, .STERADIAN. ) SOLID_ANGLE_UNIT ( ) );
#224 = CARTESIAN_POINT ( 'NONE',  ( -0.01098899999999999356, 0.0000000000000000000, 0.01098900000000000224 ) ) ;
#225 = PRODUCT_DEFINITION_SHAPE ( 'NONE', 'NONE',  #103 ) ;
#226 = DIRECTION ( 'NONE',  ( 1.000000000000000000, 0.0000000000000000000, 0.0000000000000000000 ) ) ;
#227 = VECTOR ( 'NONE', #74, 39.37007874015748143 ) ;
#228 = CARTESIAN_POINT ( 'NONE',  ( 0.0000000000000000000, 0.0000000000000000000, 1.500000000000000222 ) ) ;
#229 = CARTESIAN_POINT ( 'NONE',  ( 0.06250000000000002776, 7.654042494670959086E-18, 1.500000000000000222 ) ) ;
#230 = VERTEX_POINT ( 'NONE', #144 ) ;
#231 = EDGE_CURVE ( 'NONE', #230, #188, #122, .T. ) ;
#232 = CIRCLE ( 'NONE', #105, 0.01098899999999999703 ) ;
#233 = SURFACE_STYLE_FILL_AREA ( #257 ) ;
#234 = EDGE_LOOP ( 'NONE', ( #90, #125, #83 ) ) ;
#235 = MANIFOLD_SOLID_BREP ( 'Fillet1', #71 ) ;
#236 = FACE_OUTER_BOUND ( 'NONE', #205, .T. ) ;
#237 = DIRECTION ( 'NONE',  ( -1.224646799147353454E-16, -0.0000000000000000000, -1.000000000000000000 ) ) ;
#238 = AXIS2_PLACEMENT_3D ( 'NONE', #305, #104, #299 ) ;
#239 = APPLICATION_PROTOCOL_DEFINITION ( 'draft international standard', 'automotive_design', 1998, #189 ) ;
#240 = ORIENTED_EDGE ( 'NONE', *, *, #24, .F. ) ;
#241 = DIRECTION ( 'NONE',  ( 1.000000000000000000, 0.0000000000000000000, 0.0000000000000000000 ) ) ;
#242 = SURFACE_STYLE_FILL_AREA ( #139 ) ;
#243 = DIRECTION ( 'NONE',  ( 1.000000000000000000, 0.0000000000000000000, 0.0000000000000000000 ) ) ;
#244 = SURFACE_STYLE_USAGE ( .BOTH. , #20 ) ;
#245 = DIRECTION ( 'NONE',  ( 1.224646799147353207E-16, 1.000000000000000000, -0.0000000000000000000 ) ) ;
#246 = FACE_OUTER_BOUND ( 'NONE', #43, .T. ) ;
#247 = CYLINDRICAL_SURFACE ( 'NONE', #99, 0.01098899999999999530 ) ;
#248 = ADVANCED_FACE ( 'NONE', ( #251 ), #169, .T. ) ;
#249 = DIRECTION ( 'NONE',  ( -1.224646799147353454E-16, -0.0000000000000000000, -1.000000000000000000 ) ) ;
#250 = CARTESIAN_POINT ( 'NONE',  ( 0.0000000000000000000, 0.0000000000000000000, 1.500000000000000222 ) ) ;
#251 = FACE_OUTER_BOUND ( 'NONE', #306, .T. ) ;
#252 = ORIENTED_EDGE ( 'NONE', *, *, #212, .T. ) ;
#253 = EDGE_CURVE ( 'NONE', #85, #117, #140, .T. ) ;
#254 = FILL_AREA_STYLE_COLOUR ( '', #303 ) ;
#255 = DIRECTION ( 'NONE',  ( -1.000000000000000000, 0.0000000000000000000, 0.0000000000000000000 ) ) ;
#256 = VECTOR ( 'NONE', #196, 39.37007874015747433 ) ;
#257 = FILL_AREA_STYLE ('',( #254 ) ) ;
#258 = ORIENTED_EDGE ( 'NONE', *, *, #259, .T. ) ;
#259 = EDGE_CURVE ( 'NONE', #78, #117, #302, .T. ) ;
#260 = CARTESIAN_POINT ( 'NONE',  ( -0.01098899999999998836, 1.345764367583026016E-18, 0.06600000000000000311 ) ) ;
#261 = ORIENTED_EDGE ( 'NONE', *, *, #171, .F. ) ;
#262 = PRESENTATION_LAYER_ASSIGNMENT (  '', '', ( #73 ) ) ;
#263 = VERTEX_POINT ( 'NONE', #109 ) ;
#264 = DIRECTION ( 'NONE',  ( -1.000000000000000000, 0.0000000000000000000, 1.942175125170813114E-16 ) ) ;
#265 = DIRECTION ( 'NONE',  ( 1.000000000000000000, 0.0000000000000000000, 0.0000000000000000000 ) ) ;
#266 = UNCERTAINTY_MEASURE_WITH_UNIT (LENGTH_MEASURE( 1.000000000000000082E-05 ), #54, 'distance_accuracy_value', 'NONE');
#267 = AXIS2_PLACEMENT_3D ( 'NONE', #199, #154, #82 ) ;
#268 = PRESENTATION_LAYER_ASSIGNMENT (  '', '', ( #161 ) ) ;
#269 = DIRECTION ( 'NONE',  ( 1.224646799147353454E-16, 0.0000000000000000000, 1.000000000000000000 ) ) ;
#270 = ADVANCED_FACE ( 'NONE', ( #246 ), #201, .T. ) ;
#271 = CARTESIAN_POINT ( 'NONE',  ( 0.0000000000000000000, 0.0000000000000000000, 1.500000000000000222 ) ) ;
#272 = SPHERICAL_SURFACE ( 'NONE', #155, 0.01098900000000000050 ) ;
#273 = AXIS2_PLACEMENT_3D ( 'NONE', #217, #100, #45 ) ;
#274 = FACE_OUTER_BOUND ( 'NONE', #29, .T. ) ;
#275 = EDGE_CURVE ( 'NONE', #5, #278, #290, .T. ) ;
#276 = ORIENTED_EDGE ( 'NONE', *, *, #308, .F. ) ;
#277 = CIRCLE ( 'NONE', #86, 0.01098900000000000050 ) ;
#278 = VERTEX_POINT ( 'NONE', #224 ) ;
#279 = ORIENTED_EDGE ( 'NONE', *, *, #231, .F. ) ;
#280 = PRODUCT ( 'Micro_BMR-022-2X', 'Micro_BMR-022-2X', '', ( #283 ) ) ;
#281 = SURFACE_STYLE_USAGE ( .BOTH. , #163 ) ;
#282 = ORIENTED_EDGE ( 'NONE', *, *, #35, .F. ) ;
#283 = PRODUCT_CONTEXT ( 'NONE', #189, 'mechanical' ) ;
#284 = DIRECTION ( 'NONE',  ( 0.0000000000000000000, 0.0000000000000000000, -1.000000000000000000 ) ) ;
#285 = DIRECTION ( 'NONE',  ( 1.000000000000000000, 0.0000000000000000000, 0.0000000000000000000 ) ) ;
#286 = LINE ( 'NONE', #260, #256 ) ;
#287 =( NAMED_UNIT ( * ) PLANE_ANGLE_UNIT ( ) SI_UNIT ( $, .RADIAN. ) );
#288 = ORIENTED_EDGE ( 'NONE', *, *, #61, .T. ) ;
#289 = DIRECTION ( 'NONE',  ( 1.000000000000000000, 0.0000000000000000000, -0.0000000000000000000 ) ) ;
#290 = CIRCLE ( 'NONE', #238, 0.01098899999999999530 ) ;
#291 = ADVANCED_FACE ( 'NONE', ( #72 ), #247, .T. ) ;
#292 = EDGE_CURVE ( 'NONE', #80, #5, #277, .T. ) ;
#293 = CARTESIAN_POINT ( 'NONE',  ( 1.345764367583026786E-18, 0.0000000000000000000, 0.01098900000000000050 ) ) ;
#294 = FACE_OUTER_BOUND ( 'NONE', #179, .T. ) ;
#295 = CARTESIAN_POINT ( 'NONE',  ( 1.345764367583026786E-18, 0.0000000000000000000, 0.01098900000000000050 ) ) ;
#296 = AXIS2_PLACEMENT_3D ( 'NONE', #137, #118, #255 ) ;
#297 =( LENGTH_UNIT ( ) NAMED_UNIT ( * ) SI_UNIT ( $, .METRE. ) );
#298 = FACE_OUTER_BOUND ( 'NONE', #234, .T. ) ;
#299 = DIRECTION ( 'NONE',  ( -1.000000000000000000, 0.0000000000000000000, 1.942175125170813114E-16 ) ) ;
#300 = ADVANCED_FACE ( 'NONE', ( #274 ), #172, .T. ) ;
#301 = AXIS2_PLACEMENT_3D ( 'NONE', #11, #92, #289 ) ;
#302 = LINE ( 'NONE', #229, #227 ) ;
#303 = COLOUR_RGB ( '',0.7921568627450980005, 0.8196078431372548767, 0.9333333333333333481 ) ;
#304 = ORIENTED_EDGE ( 'NONE', *, *, #61, .F. ) ;
#305 = CARTESIAN_POINT ( 'NONE',  ( 1.345764367583026786E-18, 0.0000000000000000000, 0.01098900000000000050 ) ) ;
#306 = EDGE_LOOP ( 'NONE', ( #307, #258, #38, #282 ) ) ;
#307 = ORIENTED_EDGE ( 'NONE', *, *, #75, .T. ) ;
#308 = EDGE_CURVE ( 'NONE', #313, #230, #315, .T. ) ;
#309 = DIRECTION ( 'NONE',  ( -1.224646799147353454E-16, -0.0000000000000000000, -1.000000000000000000 ) ) ;
#310 = CIRCLE ( 'NONE', #319, 0.06250000000000002776 ) ;
#311 = ORIENTED_EDGE ( 'NONE', *, *, #24, .T. ) ;
#312 = ORIENTED_EDGE ( 'NONE', *, *, #143, .F. ) ;
#313 = VERTEX_POINT ( 'NONE', #151 ) ;
#314 = CARTESIAN_POINT ( 'NONE',  ( 2.018646551374540083E-18, 0.0000000000000000000, 0.0000000000000000000 ) ) ;
#315 = CIRCLE ( 'NONE', #31, 0.04750000000000064587 ) ;
#316 = PLANE ( 'NONE',  #301 ) ;
#317 = DIRECTION ( 'NONE',  ( -0.0000000000000000000, -0.0000000000000000000, -1.000000000000000000 ) ) ;
#318 = DIRECTION ( 'NONE',  ( -0.7071067811865462405, 0.0000000000000000000, -0.7071067811865486830 ) ) ;
#319 = AXIS2_PLACEMENT_3D ( 'NONE', #114, #87, #206 ) ;
#320 = FILL_AREA_STYLE_COLOUR ( '', #203 ) ;
#321 = EDGE_CURVE ( 'NONE', #117, #85, #209, .T. ) ;
#322 = FACE_OUTER_BOUND ( 'NONE', #138, .T. ) ;
#323 = DIMENSIONAL_EXPONENTS ( 1.000000000000000000, 0.0000000000000000000, 0.0000000000000000000, 0.0000000000000000000, 0.0000000000000000000, 0.0000000000000000000, 0.0000000000000000000 ) ;
#324 = MECHANICAL_DESIGN_GEOMETRIC_PRESENTATION_REPRESENTATION (  '', ( #161 ), #150 ) ;
#325 = CARTESIAN_POINT ( 'NONE',  ( -0.01098899999999999530, 0.0000000000000000000, 1.345764367583026016E-18 ) ) ;
ENDSEC;
END-ISO-10303-21;
