ISO-10303-21;
HEADER;
FILE_DESCRIPTION (( 'STEP AP214' ),
    '1' );
FILE_NAME ('59843.STEP',
    '2023-06-22T23:13:07',
    ( '' ),
    ( '' ),
    'SwSTEP 2.0',
    'SolidWorks 2023',
    '' );
FILE_SCHEMA (( 'AUTOMOTIVE_DESIGN' ));
ENDSEC;

DATA;
#1 = CARTESIAN_POINT ( 'NONE',  ( 3.032960542342103792E-32, 1.000000000000000000, 0.000000000000000000 ) ) ;
#2 = VERTEX_POINT ( 'NONE', #15 ) ;
#3 = ORIENTED_EDGE ( 'NONE', *, *, #244, .T. ) ;
#4 = CYLINDRICAL_SURFACE ( 'NONE', #162, 0.1875000000000000278 ) ;
#5 = ORIENTED_EDGE ( 'NONE', *, *, #234, .F. ) ;
#6 = COLOUR_RGB ( '',1.000000000000000000, 0.000000000000000000, 0.000000000000000000 ) ;
#7 = VERTEX_POINT ( 'NONE', #272 ) ;
#8 = DIRECTION ( 'NONE',  ( -6.123233995736769734E-17, 1.000000000000000000, -0.000000000000000000 ) ) ;
#9 = DIRECTION ( 'NONE',  ( -0.000000000000000000, -1.000000000000000000, -0.000000000000000000 ) ) ;
#10 = CARTESIAN_POINT ( 'NONE',  ( 0.000000000000000000, 0.000000000000000000, 0.000000000000000000 ) ) ;
#11 = ORIENTED_EDGE ( 'NONE', *, *, #261, .T. ) ;
#12 = CIRCLE ( 'NONE', #123, 0.1875000000000000278 ) ;
#13 = AXIS2_PLACEMENT_3D ( 'NONE', #63, #207, #179 ) ;
#14 = EDGE_CURVE ( 'NONE', #7, #104, #12, .T. ) ;
#15 = CARTESIAN_POINT ( 'NONE',  ( 0.1875000000000000278, 3.000000000000000444, 2.296212748401288650E-17 ) ) ;
#16 = FACE_OUTER_BOUND ( 'NONE', #265, .T. ) ;
#17 = ADVANCED_FACE ( 'NONE', ( #247 ), #39, .T. ) ;
#18 = CLOSED_SHELL ( 'NONE', ( #17, #232, #255, #38 ) ) ;
#19 = PRESENTATION_LAYER_ASSIGNMENT (  '', '', ( #46 ) ) ;
#20 = FACE_OUTER_BOUND ( 'NONE', #145, .T. ) ;
#21 = DIRECTION ( 'NONE',  ( -1.000000000000000000, -6.123233995736769734E-17, 0.000000000000000000 ) ) ;
#22 = PRESENTATION_STYLE_ASSIGNMENT (( #72 ) ) ;
#23 = PRESENTATION_LAYER_ASSIGNMENT (  '', '', ( #309 ) ) ;
#24 =( NAMED_UNIT ( * ) PLANE_ANGLE_UNIT ( ) SI_UNIT ( $, .RADIAN. ) );
#25 =( NAMED_UNIT ( * ) PLANE_ANGLE_UNIT ( ) SI_UNIT ( $, .RADIAN. ) );
#26 = DIRECTION ( 'NONE',  ( 0.000000000000000000, 1.000000000000000000, 0.000000000000000000 ) ) ;
#27 = UNCERTAINTY_MEASURE_WITH_UNIT (LENGTH_MEASURE( 1.000000000000000082E-05 ), #161, 'distance_accuracy_value', 'NONE');
#28 = SURFACE_STYLE_USAGE ( .BOTH. , #117 ) ;
#29 = DIRECTION ( 'NONE',  ( 0.000000000000000000, 0.000000000000000000, -1.000000000000000000 ) ) ;
#30 = PRODUCT_RELATED_PRODUCT_CATEGORY ( 'part', '', ( #230 ) ) ;
#31 = ORIENTED_EDGE ( 'NONE', *, *, #297, .T. ) ;
#32 =( GEOMETRIC_REPRESENTATION_CONTEXT ( 3 ) GLOBAL_UNCERTAINTY_ASSIGNED_CONTEXT ( ( #131 ) ) GLOBAL_UNIT_ASSIGNED_CONTEXT ( ( #189, #24, #197 ) ) REPRESENTATION_CONTEXT ( 'NONE', 'WORKASPACE' ) );
#33 = SURFACE_SIDE_STYLE ('',( #203 ) ) ;
#34 = EDGE_LOOP ( 'NONE', ( #225, #281 ) ) ;
#35 = CYLINDRICAL_SURFACE ( 'NONE', #58, 0.1875000000000000278 ) ;
#36 = PRESENTATION_STYLE_ASSIGNMENT (( #201 ) ) ;
#37 = PRODUCT_DEFINITION_CONTEXT ( 'detailed design', #130, 'design' ) ;
#38 = ADVANCED_FACE ( 'NONE', ( #204 ), #86, .F. ) ;
#39 = CYLINDRICAL_SURFACE ( 'NONE', #308, 0.1875000000000000833 ) ;
#40 = PRODUCT_DEFINITION_SHAPE ( 'NONE', 'NONE',  #105 ) ;
#41 = COLOUR_RGB ( '',1.000000000000000000, 0.000000000000000000, 0.000000000000000000 ) ;
#42 =( CONVERSION_BASED_UNIT ( 'INCH', #200 ) LENGTH_UNIT ( ) NAMED_UNIT ( #186 ) );
#43 = APPLICATION_PROTOCOL_DEFINITION ( 'draft international standard', 'automotive_design', 1998, #130 ) ;
#44 = FILL_AREA_STYLE ('',( #180 ) ) ;
#45 = DIRECTION ( 'NONE',  ( 0.000000000000000000, -1.000000000000000000, -0.000000000000000000 ) ) ;
#46 = STYLED_ITEM ( 'NONE', ( #155 ), #216 ) ;
#47 =( NAMED_UNIT ( * ) PLANE_ANGLE_UNIT ( ) SI_UNIT ( $, .RADIAN. ) );
#48 = SURFACE_SIDE_STYLE ('',( #65 ) ) ;
#49 = FILL_AREA_STYLE_COLOUR ( '', #212 ) ;
#50 = DIRECTION ( 'NONE',  ( -6.123233995736769734E-17, 1.000000000000000000, -0.000000000000000000 ) ) ;
#51 = CYLINDRICAL_SURFACE ( 'NONE', #113, 0.1875000000000000833 ) ;
#52 = SURFACE_STYLE_USAGE ( .BOTH. , #217 ) ;
#53 = VERTEX_POINT ( 'NONE', #205 ) ;
#54 = COLOUR_RGB ( '',1.000000000000000000, 0.000000000000000000, 0.000000000000000000 ) ;
#55 = EDGE_CURVE ( 'NONE', #53, #2, #149, .T. ) ;
#56 = CARTESIAN_POINT ( 'NONE',  ( 0.000000000000000000, 0.000000000000000000, 0.000000000000000000 ) ) ;
#57 = FILL_AREA_STYLE_COLOUR ( '', #224 ) ;
#58 = AXIS2_PLACEMENT_3D ( 'NONE', #221, #101, #111 ) ;
#59 =( GEOMETRIC_REPRESENTATION_CONTEXT ( 3 ) GLOBAL_UNCERTAINTY_ASSIGNED_CONTEXT ( ( #27 ) ) GLOBAL_UNIT_ASSIGNED_CONTEXT ( ( #161, #240, #91 ) ) REPRESENTATION_CONTEXT ( 'NONE', 'WORKASPACE' ) );
#60 = EDGE_CURVE ( 'NONE', #143, #53, #251, .T. ) ;
#61 = CARTESIAN_POINT ( 'NONE',  ( 0.000000000000000000, 0.000000000000000000, 0.000000000000000000 ) ) ;
#62 = AXIS2_PLACEMENT_3D ( 'NONE', #193, #285, #119 ) ;
#63 = CARTESIAN_POINT ( 'NONE',  ( 0.000000000000000000, 0.000000000000000000, 0.000000000000000000 ) ) ;
#64 = DIRECTION ( 'NONE',  ( -1.000000000000000000, 0.000000000000000000, 0.000000000000000000 ) ) ;
#65 = SURFACE_STYLE_FILL_AREA ( #44 ) ;
#66 =( NAMED_UNIT ( * ) SI_UNIT ( $, .STERADIAN. ) SOLID_ANGLE_UNIT ( ) );
#67 = PRESENTATION_STYLE_ASSIGNMENT (( #90 ) ) ;
#68 =( CONVERSION_BASED_UNIT ( 'INCH', #114 ) LENGTH_UNIT ( ) NAMED_UNIT ( #109 ) );
#69 = DIRECTION ( 'NONE',  ( -1.000000000000000000, 0.000000000000000000, 0.000000000000000000 ) ) ;
#70 = EDGE_CURVE ( 'NONE', #104, #7, #249, .T. ) ;
#71 = LENGTH_MEASURE_WITH_UNIT ( LENGTH_MEASURE( 0.02539999999999999897 ), #306 );
#72 = SURFACE_STYLE_USAGE ( .BOTH. , #142 ) ;
#73 = ORIENTED_EDGE ( 'NONE', *, *, #151, .F. ) ;
#74 = DIRECTION ( 'NONE',  ( 0.000000000000000000, -0.000000000000000000, 1.000000000000000000 ) ) ;
#75 = ORIENTED_EDGE ( 'NONE', *, *, #151, .T. ) ;
#76 = DIRECTION ( 'NONE',  ( 0.000000000000000000, 0.000000000000000000, -1.000000000000000000 ) ) ;
#77 = LENGTH_MEASURE_WITH_UNIT ( LENGTH_MEASURE( 0.02539999999999999897 ), #293 );
#78 = EDGE_LOOP ( 'NONE', ( #223, #31 ) ) ;
#79 = VECTOR ( 'NONE', #9, 39.37007874015748143 ) ;
#80 = FILL_AREA_STYLE_COLOUR ( '', #6 ) ;
#81 = PLANE ( 'NONE',  #141 ) ;
#82 = CARTESIAN_POINT ( 'NONE',  ( -0.1875000000000002220, 3.000000000000000444, 0.000000000000000000 ) ) ;
#83 = SURFACE_STYLE_USAGE ( .BOTH. , #291 ) ;
#84 = MECHANICAL_DESIGN_GEOMETRIC_PRESENTATION_REPRESENTATION (  '', ( #290 ), #128 ) ;
#85 = UNCERTAINTY_MEASURE_WITH_UNIT (LENGTH_MEASURE( 1.000000000000000082E-05 ), #238, 'distance_accuracy_value', 'NONE');
#86 = PLANE ( 'NONE',  #139 ) ;
#87 = CARTESIAN_POINT ( 'NONE',  ( 2.296212748401287726E-17, 0.000000000000000000, 0.1875000000000000278 ) ) ;
#88 = SHAPE_DEFINITION_REPRESENTATION ( #40, #283 ) ;
#89 = CARTESIAN_POINT ( 'NONE',  ( 0.1875000000000000278, 3.000000000000000444, 0.000000000000000000 ) ) ;
#90 = SURFACE_STYLE_USAGE ( .BOTH. , #48 ) ;
#91 =( NAMED_UNIT ( * ) SI_UNIT ( $, .STERADIAN. ) SOLID_ANGLE_UNIT ( ) );
#92 = DIRECTION ( 'NONE',  ( -1.000000000000000000, 0.000000000000000000, 0.000000000000000000 ) ) ;
#93 = CLOSED_SHELL ( 'NONE', ( #176, #257, #287, #216 ) ) ;
#94 =( LENGTH_UNIT ( ) NAMED_UNIT ( * ) SI_UNIT ( $, .METRE. ) );
#95 =( LENGTH_UNIT ( ) NAMED_UNIT ( * ) SI_UNIT ( $, .METRE. ) );
#96 = FILL_AREA_STYLE ('',( #220 ) ) ;
#97 = ORIENTED_EDGE ( 'NONE', *, *, #190, .T. ) ;
#98 = DIRECTION ( 'NONE',  ( -0.000000000000000000, -1.000000000000000000, -0.000000000000000000 ) ) ;
#99 = SURFACE_STYLE_FILL_AREA ( #227 ) ;
#100 = ORIENTED_EDGE ( 'NONE', *, *, #70, .F. ) ;
#101 = DIRECTION ( 'NONE',  ( -0.000000000000000000, -1.000000000000000000, -0.000000000000000000 ) ) ;
#102 =( LENGTH_UNIT ( ) NAMED_UNIT ( * ) SI_UNIT ( $, .METRE. ) );
#103 = CIRCLE ( 'NONE', #62, 0.1875000000000000278 ) ;
#104 = VERTEX_POINT ( 'NONE', #156 ) ;
#105 = PRODUCT_DEFINITION ( 'UNKNOWN', '', #144, #37 ) ;
#106 = UNCERTAINTY_MEASURE_WITH_UNIT (LENGTH_MEASURE( 1.000000000000000082E-05 ), #68, 'distance_accuracy_value', 'NONE');
#107 =( GEOMETRIC_REPRESENTATION_CONTEXT ( 3 ) GLOBAL_UNCERTAINTY_ASSIGNED_CONTEXT ( ( #85 ) ) GLOBAL_UNIT_ASSIGNED_CONTEXT ( ( #238, #25, #182 ) ) REPRESENTATION_CONTEXT ( 'NONE', 'WORKASPACE' ) );
#108 = DIRECTION ( 'NONE',  ( -0.000000000000000000, -1.000000000000000000, -0.000000000000000000 ) ) ;
#109 = DIMENSIONAL_EXPONENTS ( 1.000000000000000000, 0.000000000000000000, 0.000000000000000000, 0.000000000000000000, 0.000000000000000000, 0.000000000000000000, 0.000000000000000000 ) ;
#110 = CARTESIAN_POINT ( 'NONE',  ( 2.296212748401287726E-17, 1.000000000000000000, 0.1875000000000000278 ) ) ;
#111 = DIRECTION ( 'NONE',  ( 0.000000000000000000, 0.000000000000000000, -1.000000000000000000 ) ) ;
#112 = VECTOR ( 'NONE', #184, 39.37007874015748143 ) ;
#113 = AXIS2_PLACEMENT_3D ( 'NONE', #172, #8, #69 ) ;
#114 = LENGTH_MEASURE_WITH_UNIT ( LENGTH_MEASURE( 0.02539999999999999897 ), #164 );
#115 =( NAMED_UNIT ( * ) SI_UNIT ( $, .STERADIAN. ) SOLID_ANGLE_UNIT ( ) );
#116 = DIRECTION ( 'NONE',  ( -1.000000000000000000, 0.000000000000000000, 0.000000000000000000 ) ) ;
#117 = SURFACE_SIDE_STYLE ('',( #235 ) ) ;
#118 = MECHANICAL_DESIGN_GEOMETRIC_PRESENTATION_REPRESENTATION (  '', ( #282 ), #59 ) ;
#119 = DIRECTION ( 'NONE',  ( -1.000000000000000000, 0.000000000000000000, 0.000000000000000000 ) ) ;
#120 = DIMENSIONAL_EXPONENTS ( 1.000000000000000000, 0.000000000000000000, 0.000000000000000000, 0.000000000000000000, 0.000000000000000000, 0.000000000000000000, 0.000000000000000000 ) ;
#121 = ORIENTED_EDGE ( 'NONE', *, *, #60, .F. ) ;
#122 =( NAMED_UNIT ( * ) SI_UNIT ( $, .STERADIAN. ) SOLID_ANGLE_UNIT ( ) );
#123 = AXIS2_PLACEMENT_3D ( 'NONE', #61, #108, #152 ) ;
#124 = CARTESIAN_POINT ( 'NONE',  ( 0.1875000000000000278, 1.000000000000000000, 2.296212748401288650E-17 ) ) ;
#125 = EDGE_LOOP ( 'NONE', ( #3, #147, #170, #121 ) ) ;
#126 = DIRECTION ( 'NONE',  ( -0.000000000000000000, -1.000000000000000000, -0.000000000000000000 ) ) ;
#127 = EDGE_LOOP ( 'NONE', ( #97, #75, #100, #5 ) ) ;
#128 =( GEOMETRIC_REPRESENTATION_CONTEXT ( 3 ) GLOBAL_UNCERTAINTY_ASSIGNED_CONTEXT ( ( #305 ) ) GLOBAL_UNIT_ASSIGNED_CONTEXT ( ( #42, #253, #115 ) ) REPRESENTATION_CONTEXT ( 'NONE', 'WORKASPACE' ) );
#129 = PRESENTATION_STYLE_ASSIGNMENT (( #83 ) ) ;
#130 = APPLICATION_CONTEXT ( 'automotive_design' ) ;
#131 = UNCERTAINTY_MEASURE_WITH_UNIT (LENGTH_MEASURE( 1.000000000000000082E-05 ), #189, 'distance_accuracy_value', 'NONE');
#132 = CARTESIAN_POINT ( 'NONE',  ( -1.224646799147353700E-16, 3.000000000000000444, 0.000000000000000000 ) ) ;
#133 = CARTESIAN_POINT ( 'NONE',  ( -0.1875000000000000278, 1.000000000000000000, 0.000000000000000000 ) ) ;
#134 = DIMENSIONAL_EXPONENTS ( 1.000000000000000000, 0.000000000000000000, 0.000000000000000000, 0.000000000000000000, 0.000000000000000000, 0.000000000000000000, 0.000000000000000000 ) ;
#135 = PRESENTATION_LAYER_ASSIGNMENT (  '', '', ( #219 ) ) ;
#136 = DIRECTION ( 'NONE',  ( -6.123233995736769734E-17, 1.000000000000000000, 0.000000000000000000 ) ) ;
#137 = FILL_AREA_STYLE_COLOUR ( '', #54 ) ;
#138 = FILL_AREA_STYLE ('',( #49 ) ) ;
#139 = AXIS2_PLACEMENT_3D ( 'NONE', #89, #294, #187 ) ;
#140 = PLANE ( 'NONE',  #300 ) ;
#141 = AXIS2_PLACEMENT_3D ( 'NONE', #10, #45, #301 ) ;
#142 = SURFACE_SIDE_STYLE ('',( #236 ) ) ;
#143 = VERTEX_POINT ( 'NONE', #133 ) ;
#144 = PRODUCT_DEFINITION_FORMATION_WITH_SPECIFIED_SOURCE ( 'ANY', '', #230, .NOT_KNOWN. ) ;
#145 = EDGE_LOOP ( 'NONE', ( #266, #11, #245, #286 ) ) ;
#146 = VERTEX_POINT ( 'NONE', #110 ) ;
#147 = ORIENTED_EDGE ( 'NONE', *, *, #213, .T. ) ;
#148 = UNCERTAINTY_MEASURE_WITH_UNIT (LENGTH_MEASURE( 1.000000000000000082E-05 ), #169, 'distance_accuracy_value', 'NONE');
#149 = CIRCLE ( 'NONE', #174, 0.1875000000000001388 ) ;
#150 = CARTESIAN_POINT ( 'NONE',  ( 0.000000000000000000, 0.000000000000000000, 0.000000000000000000 ) ) ;
#151 = EDGE_CURVE ( 'NONE', #146, #7, #209, .T. ) ;
#152 = DIRECTION ( 'NONE',  ( 0.000000000000000000, 0.000000000000000000, -1.000000000000000000 ) ) ;
#153 = MECHANICAL_DESIGN_GEOMETRIC_PRESENTATION_REPRESENTATION (  '', ( #191 ), #299 ) ;
#154 =( GEOMETRIC_REPRESENTATION_CONTEXT ( 3 ) GLOBAL_UNCERTAINTY_ASSIGNED_CONTEXT ( ( #148 ) ) GLOBAL_UNIT_ASSIGNED_CONTEXT ( ( #169, #233, #66 ) ) REPRESENTATION_CONTEXT ( 'NONE', 'WORKASPACE' ) );
#155 = PRESENTATION_STYLE_ASSIGNMENT (( #28 ) ) ;
#156 = CARTESIAN_POINT ( 'NONE',  ( 0.000000000000000000, 0.000000000000000000, -0.1875000000000000278 ) ) ;
#157 = ORIENTED_EDGE ( 'NONE', *, *, #234, .T. ) ;
#158 = FACE_OUTER_BOUND ( 'NONE', #241, .T. ) ;
#159 =( NAMED_UNIT ( * ) SI_UNIT ( $, .STERADIAN. ) SOLID_ANGLE_UNIT ( ) );
#160 = LINE ( 'NONE', #183, #112 ) ;
#161 =( CONVERSION_BASED_UNIT ( 'INCH', #71 ) LENGTH_UNIT ( ) NAMED_UNIT ( #120 ) );
#162 = AXIS2_PLACEMENT_3D ( 'NONE', #56, #98, #76 ) ;
#163 = MANIFOLD_SOLID_BREP ( 'Revolve - Tool Body (Straight Shanked)', #18 ) ;
#164 =( LENGTH_UNIT ( ) NAMED_UNIT ( * ) SI_UNIT ( $, .METRE. ) );
#165 = AXIS2_PLACEMENT_3D ( 'NONE', #211, #307, #29 ) ;
#166 = DIMENSIONAL_EXPONENTS ( 1.000000000000000000, 0.000000000000000000, 0.000000000000000000, 0.000000000000000000, 0.000000000000000000, 0.000000000000000000, 0.000000000000000000 ) ;
#167 = FACE_OUTER_BOUND ( 'NONE', #178, .T. ) ;
#168 = VERTEX_POINT ( 'NONE', #124 ) ;
#169 =( CONVERSION_BASED_UNIT ( 'INCH', #277 ) LENGTH_UNIT ( ) NAMED_UNIT ( #134 ) );
#170 = ORIENTED_EDGE ( 'NONE', *, *, #55, .F. ) ;
#171 = ORIENTED_EDGE ( 'NONE', *, *, #261, .F. ) ;
#172 = CARTESIAN_POINT ( 'NONE',  ( -1.224646799147353700E-16, 3.000000000000000444, 0.000000000000000000 ) ) ;
#173 =( LENGTH_UNIT ( ) NAMED_UNIT ( * ) SI_UNIT ( $, .METRE. ) );
#174 = AXIS2_PLACEMENT_3D ( 'NONE', #132, #273, #64 ) ;
#175 = AXIS2_PLACEMENT_3D ( 'NONE', #1, #288, #116 ) ;
#176 = ADVANCED_FACE ( 'NONE', ( #262 ), #4, .T. ) ;
#177 = FILL_AREA_STYLE ('',( #80 ) ) ;
#178 = EDGE_LOOP ( 'NONE', ( #73, #242, #157, #202 ) ) ;
#179 = DIRECTION ( 'NONE',  ( 1.000000000000000000, 0.000000000000000000, 0.000000000000000000 ) ) ;
#180 = FILL_AREA_STYLE_COLOUR ( '', #41 ) ;
#181 = DIRECTION ( 'NONE',  ( -6.123233995736769734E-17, 1.000000000000000000, -0.000000000000000000 ) ) ;
#182 =( NAMED_UNIT ( * ) SI_UNIT ( $, .STERADIAN. ) SOLID_ANGLE_UNIT ( ) );
#183 = CARTESIAN_POINT ( 'NONE',  ( 0.1874999999999999445, 3.000000000000000444, 2.296212748401288342E-17 ) ) ;
#184 = DIRECTION ( 'NONE',  ( -6.123233995736769734E-17, 1.000000000000000000, -0.000000000000000000 ) ) ;
#185 = DIRECTION ( 'NONE',  ( -0.000000000000000000, -1.000000000000000000, -0.000000000000000000 ) ) ;
#186 = DIMENSIONAL_EXPONENTS ( 1.000000000000000000, 0.000000000000000000, 0.000000000000000000, 0.000000000000000000, 0.000000000000000000, 0.000000000000000000, 0.000000000000000000 ) ;
#187 = DIRECTION ( 'NONE',  ( 1.000000000000000000, 6.123233995736769734E-17, 0.000000000000000000 ) ) ;
#188 = AXIS2_PLACEMENT_3D ( 'NONE', #256, #50, #92 ) ;
#189 =( CONVERSION_BASED_UNIT ( 'INCH', #304 ) LENGTH_UNIT ( ) NAMED_UNIT ( #166 ) );
#190 = EDGE_CURVE ( 'NONE', #289, #146, #210, .T. ) ;
#191 = STYLED_ITEM ( 'NONE', ( #36 ), #176 ) ;
#192 = PRESENTATION_LAYER_ASSIGNMENT (  '', '', ( #282 ) ) ;
#193 = CARTESIAN_POINT ( 'NONE',  ( 3.032960542342103792E-32, 1.000000000000000000, 0.000000000000000000 ) ) ;
#194 = MECHANICAL_DESIGN_GEOMETRIC_PRESENTATION_REPRESENTATION (  '', ( #46 ), #107 ) ;
#195 = CIRCLE ( 'NONE', #175, 0.1875000000000000278 ) ;
#196 = SURFACE_STYLE_FILL_AREA ( #96 ) ;
#197 =( NAMED_UNIT ( * ) SI_UNIT ( $, .STERADIAN. ) SOLID_ANGLE_UNIT ( ) );
#198 = CARTESIAN_POINT ( 'NONE',  ( 0.000000000000000000, 1.000000000000000000, 0.000000000000000000 ) ) ;
#199 = DIRECTION ( 'NONE',  ( 0.000000000000000000, 0.000000000000000000, -1.000000000000000000 ) ) ;
#200 = LENGTH_MEASURE_WITH_UNIT ( LENGTH_MEASURE( 0.02539999999999999897 ), #173 );
#201 = SURFACE_STYLE_USAGE ( .BOTH. , #33 ) ;
#202 = ORIENTED_EDGE ( 'NONE', *, *, #14, .F. ) ;
#203 = SURFACE_STYLE_FILL_AREA ( #177 ) ;
#204 = FACE_OUTER_BOUND ( 'NONE', #78, .T. ) ;
#205 = CARTESIAN_POINT ( 'NONE',  ( -0.1875000000000002776, 3.000000000000000444, 0.000000000000000000 ) ) ;
#206 = MECHANICAL_DESIGN_GEOMETRIC_PRESENTATION_REPRESENTATION (  '', ( #309 ), #250 ) ;
#207 = DIRECTION ( 'NONE',  ( 0.000000000000000000, 0.000000000000000000, 1.000000000000000000 ) ) ;
#208 = DIRECTION ( 'NONE',  ( -1.000000000000000000, 0.000000000000000000, 0.000000000000000000 ) ) ;
#209 = LINE ( 'NONE', #87, #303 ) ;
#210 = CIRCLE ( 'NONE', #246, 0.1875000000000000278 ) ;
#211 = CARTESIAN_POINT ( 'NONE',  ( 0.000000000000000000, 1.000000000000000000, 0.000000000000000000 ) ) ;
#212 = COLOUR_RGB ( '',0.7921568627450980005, 0.8196078431372548767, 0.9333333333333333481 ) ;
#213 = EDGE_CURVE ( 'NONE', #168, #2, #160, .T. ) ;
#214 =( NAMED_UNIT ( * ) PLANE_ANGLE_UNIT ( ) SI_UNIT ( $, .RADIAN. ) );
#215 = CARTESIAN_POINT ( 'NONE',  ( 0.000000000000000000, 1.000000000000000000, -0.1875000000000000278 ) ) ;
#216 = ADVANCED_FACE ( 'NONE', ( #158 ), #81, .T. ) ;
#217 = SURFACE_SIDE_STYLE ('',( #196 ) ) ;
#218 = ORIENTED_EDGE ( 'NONE', *, *, #244, .F. ) ;
#219 = STYLED_ITEM ( 'NONE', ( #243 ), #257 ) ;
#220 = FILL_AREA_STYLE_COLOUR ( '', #274 ) ;
#221 = CARTESIAN_POINT ( 'NONE',  ( 0.000000000000000000, 0.000000000000000000, 0.000000000000000000 ) ) ;
#222 = APPLICATION_CONTEXT ( 'automotive_design' ) ;
#223 = ORIENTED_EDGE ( 'NONE', *, *, #55, .T. ) ;
#224 = COLOUR_RGB ( '',0.7921568627450980005, 0.8196078431372548767, 0.9333333333333333481 ) ;
#225 = ORIENTED_EDGE ( 'NONE', *, *, #190, .F. ) ;
#226 = CARTESIAN_POINT ( 'NONE',  ( 0.000000000000000000, 0.000000000000000000, -0.1875000000000000278 ) ) ;
#227 = FILL_AREA_STYLE ('',( #57 ) ) ;
#228 = DIMENSIONAL_EXPONENTS ( 1.000000000000000000, 0.000000000000000000, 0.000000000000000000, 0.000000000000000000, 0.000000000000000000, 0.000000000000000000, 0.000000000000000000 ) ;
#229 = CARTESIAN_POINT ( 'NONE',  ( -1.224646799147353700E-16, 3.000000000000000444, 0.000000000000000000 ) ) ;
#230 = PRODUCT ( '59843', '59843', '', ( #271 ) ) ;
#231 = CIRCLE ( 'NONE', #165, 0.1875000000000000278 ) ;
#232 = ADVANCED_FACE ( 'NONE', ( #16 ), #284, .F. ) ;
#233 =( NAMED_UNIT ( * ) PLANE_ANGLE_UNIT ( ) SI_UNIT ( $, .RADIAN. ) );
#234 = EDGE_CURVE ( 'NONE', #289, #104, #292, .T. ) ;
#235 = SURFACE_STYLE_FILL_AREA ( #252 ) ;
#236 = SURFACE_STYLE_FILL_AREA ( #138 ) ;
#237 =( CONVERSION_BASED_UNIT ( 'INCH', #77 ) LENGTH_UNIT ( ) NAMED_UNIT ( #280 ) );
#238 =( CONVERSION_BASED_UNIT ( 'INCH', #278 ) LENGTH_UNIT ( ) NAMED_UNIT ( #228 ) );
#239 = CARTESIAN_POINT ( 'NONE',  ( 0.000000000000000000, 1.000000000000000000, 0.000000000000000000 ) ) ;
#240 =( NAMED_UNIT ( * ) PLANE_ANGLE_UNIT ( ) SI_UNIT ( $, .RADIAN. ) );
#241 = EDGE_LOOP ( 'NONE', ( #269, #259 ) ) ;
#242 = ORIENTED_EDGE ( 'NONE', *, *, #302, .T. ) ;
#243 = PRESENTATION_STYLE_ASSIGNMENT (( #52 ) ) ;
#244 = EDGE_CURVE ( 'NONE', #143, #168, #195, .T. ) ;
#245 = ORIENTED_EDGE ( 'NONE', *, *, #60, .T. ) ;
#246 = AXIS2_PLACEMENT_3D ( 'NONE', #198, #295, #199 ) ;
#247 = FACE_OUTER_BOUND ( 'NONE', #125, .T. ) ;
#248 = DIRECTION ( 'NONE',  ( 0.000000000000000000, 0.000000000000000000, -1.000000000000000000 ) ) ;
#249 = CIRCLE ( 'NONE', #276, 0.1875000000000000278 ) ;
#250 =( GEOMETRIC_REPRESENTATION_CONTEXT ( 3 ) GLOBAL_UNCERTAINTY_ASSIGNED_CONTEXT ( ( #106 ) ) GLOBAL_UNIT_ASSIGNED_CONTEXT ( ( #68, #214, #122 ) ) REPRESENTATION_CONTEXT ( 'NONE', 'WORKASPACE' ) );
#251 = LINE ( 'NONE', #82, #270 ) ;
#252 = FILL_AREA_STYLE ('',( #137 ) ) ;
#253 =( NAMED_UNIT ( * ) PLANE_ANGLE_UNIT ( ) SI_UNIT ( $, .RADIAN. ) );
#254 = AXIS2_PLACEMENT_3D ( 'NONE', #275, #136, #21 ) ;
#255 = ADVANCED_FACE ( 'NONE', ( #20 ), #51, .T. ) ;
#256 = CARTESIAN_POINT ( 'NONE',  ( -1.224646799147353700E-16, 3.000000000000000444, 0.000000000000000000 ) ) ;
#257 = ADVANCED_FACE ( 'NONE', ( #279 ), #140, .T. ) ;
#258 = CIRCLE ( 'NONE', #188, 0.1875000000000001388 ) ;
#259 = ORIENTED_EDGE ( 'NONE', *, *, #14, .T. ) ;
#260 = UNCERTAINTY_MEASURE_WITH_UNIT (LENGTH_MEASURE( 1.000000000000000082E-05 ), #237, 'distance_accuracy_value', 'NONE');
#261 = EDGE_CURVE ( 'NONE', #168, #143, #103, .T. ) ;
#262 = FACE_OUTER_BOUND ( 'NONE', #127, .T. ) ;
#263 = PRESENTATION_LAYER_ASSIGNMENT (  '', '', ( #290 ) ) ;
#264 = MECHANICAL_DESIGN_GEOMETRIC_PRESENTATION_REPRESENTATION (  '', ( #219 ), #32 ) ;
#265 = EDGE_LOOP ( 'NONE', ( #218, #171 ) ) ;
#266 = ORIENTED_EDGE ( 'NONE', *, *, #213, .F. ) ;
#267 = APPLICATION_PROTOCOL_DEFINITION ( 'draft international standard', 'automotive_design', 1998, #222 ) ;
#268 = MANIFOLD_SOLID_BREP ( 'Revolve - Cutting Edge', #93 ) ;
#269 = ORIENTED_EDGE ( 'NONE', *, *, #70, .T. ) ;
#270 = VECTOR ( 'NONE', #181, 39.37007874015748143 ) ;
#271 = PRODUCT_CONTEXT ( 'NONE', #222, 'mechanical' ) ;
#272 = CARTESIAN_POINT ( 'NONE',  ( 2.296212748401287726E-17, 0.000000000000000000, 0.1875000000000000278 ) ) ;
#273 = DIRECTION ( 'NONE',  ( -6.123233995736769734E-17, 1.000000000000000000, -0.000000000000000000 ) ) ;
#274 = COLOUR_RGB ( '',1.000000000000000000, 0.000000000000000000, 0.000000000000000000 ) ;
#275 = CARTESIAN_POINT ( 'NONE',  ( 3.515061990613733472E-34, 1.000000000000000000, 0.000000000000000000 ) ) ;
#276 = AXIS2_PLACEMENT_3D ( 'NONE', #150, #126, #248 ) ;
#277 = LENGTH_MEASURE_WITH_UNIT ( LENGTH_MEASURE( 0.02539999999999999897 ), #95 );
#278 = LENGTH_MEASURE_WITH_UNIT ( LENGTH_MEASURE( 0.02539999999999999897 ), #94 );
#279 = FACE_OUTER_BOUND ( 'NONE', #34, .T. ) ;
#280 = DIMENSIONAL_EXPONENTS ( 1.000000000000000000, 0.000000000000000000, 0.000000000000000000, 0.000000000000000000, 0.000000000000000000, 0.000000000000000000, 0.000000000000000000 ) ;
#281 = ORIENTED_EDGE ( 'NONE', *, *, #302, .F. ) ;
#282 = STYLED_ITEM ( 'NONE', ( #67 ), #287 ) ;
#283 = ADVANCED_BREP_SHAPE_REPRESENTATION ( '59843', ( #268, #163, #13 ), #154 ) ;
#284 = PLANE ( 'NONE',  #254 ) ;
#285 = DIRECTION ( 'NONE',  ( -6.123233995736769734E-17, 1.000000000000000000, -0.000000000000000000 ) ) ;
#286 = ORIENTED_EDGE ( 'NONE', *, *, #297, .F. ) ;
#287 = ADVANCED_FACE ( 'NONE', ( #167 ), #35, .T. ) ;
#288 = DIRECTION ( 'NONE',  ( -6.123233995736769734E-17, 1.000000000000000000, -0.000000000000000000 ) ) ;
#289 = VERTEX_POINT ( 'NONE', #215 ) ;
#290 = STYLED_ITEM ( 'NONE', ( #129 ), #163 ) ;
#291 = SURFACE_SIDE_STYLE ('',( #99 ) ) ;
#292 = LINE ( 'NONE', #226, #79 ) ;
#293 =( LENGTH_UNIT ( ) NAMED_UNIT ( * ) SI_UNIT ( $, .METRE. ) );
#294 = DIRECTION ( 'NONE',  ( 6.123233995736769734E-17, -1.000000000000000000, 0.000000000000000000 ) ) ;
#295 = DIRECTION ( 'NONE',  ( -0.000000000000000000, -1.000000000000000000, -0.000000000000000000 ) ) ;
#296 = PRESENTATION_LAYER_ASSIGNMENT (  '', '', ( #191 ) ) ;
#297 = EDGE_CURVE ( 'NONE', #2, #53, #258, .T. ) ;
#298 = DIRECTION ( 'NONE',  ( -6.123233995736769734E-17, 1.000000000000000000, -0.000000000000000000 ) ) ;
#299 =( GEOMETRIC_REPRESENTATION_CONTEXT ( 3 ) GLOBAL_UNCERTAINTY_ASSIGNED_CONTEXT ( ( #260 ) ) GLOBAL_UNIT_ASSIGNED_CONTEXT ( ( #237, #47, #159 ) ) REPRESENTATION_CONTEXT ( 'NONE', 'WORKASPACE' ) );
#300 = AXIS2_PLACEMENT_3D ( 'NONE', #239, #26, #74 ) ;
#301 = DIRECTION ( 'NONE',  ( 0.000000000000000000, 0.000000000000000000, -1.000000000000000000 ) ) ;
#302 = EDGE_CURVE ( 'NONE', #146, #289, #231, .T. ) ;
#303 = VECTOR ( 'NONE', #185, 39.37007874015748143 ) ;
#304 = LENGTH_MEASURE_WITH_UNIT ( LENGTH_MEASURE( 0.02539999999999999897 ), #102 );
#305 = UNCERTAINTY_MEASURE_WITH_UNIT (LENGTH_MEASURE( 1.000000000000000082E-05 ), #42, 'distance_accuracy_value', 'NONE');
#306 =( LENGTH_UNIT ( ) NAMED_UNIT ( * ) SI_UNIT ( $, .METRE. ) );
#307 = DIRECTION ( 'NONE',  ( -0.000000000000000000, -1.000000000000000000, -0.000000000000000000 ) ) ;
#308 = AXIS2_PLACEMENT_3D ( 'NONE', #229, #298, #208 ) ;
#309 = STYLED_ITEM ( 'NONE', ( #22 ), #268 ) ;
ENDSEC;
END-ISO-10303-21;
