ISO-10303-21;
HEADER;
FILE_DESCRIPTION (( 'STEP AP214' ),
    '1' );
FILE_NAME ('44497.STEP',
    '2023-06-22T20:46:52',
    ( '' ),
    ( '' ),
    'SwSTEP 2.0',
    'SolidWorks 2023',
    '' );
FILE_SCHEMA (( 'AUTOMOTIVE_DESIGN' ));
ENDSEC;

DATA;
#1 = PLANE ( 'NONE',  #223 ) ;
#2 = DIMENSIONAL_EXPONENTS ( 1.000000000000000000, 0.000000000000000000, 0.000000000000000000, 0.000000000000000000, 0.000000000000000000, 0.000000000000000000, 0.000000000000000000 ) ;
#3 = SURFACE_STYLE_USAGE ( .BOTH. , #166 ) ;
#4 = CYLINDRICAL_SURFACE ( 'NONE', #168, 0.6250000000000000000 ) ;
#5 = DIMENSIONAL_EXPONENTS ( 1.000000000000000000, 0.000000000000000000, 0.000000000000000000, 0.000000000000000000, 0.000000000000000000, 0.000000000000000000, 0.000000000000000000 ) ;
#6 = FILL_AREA_STYLE ('',( #191 ) ) ;
#7 = CIRCLE ( 'NONE', #66, 0.6250000000000000000 ) ;
#8 = COLOUR_RGB ( '',1.000000000000000000, 0.000000000000000000, 0.000000000000000000 ) ;
#9 = VERTEX_POINT ( 'NONE', #252 ) ;
#10 = EDGE_CURVE ( 'NONE', #77, #178, #215, .T. ) ;
#11 = UNCERTAINTY_MEASURE_WITH_UNIT (LENGTH_MEASURE( 1.000000000000000082E-05 ), #141, 'distance_accuracy_value', 'NONE');
#12 = AXIS2_PLACEMENT_3D ( 'NONE', #111, #86, #272 ) ;
#13 = PRESENTATION_LAYER_ASSIGNMENT (  '', '', ( #89 ) ) ;
#14 = DIRECTION ( 'NONE',  ( -2.226630543904284693E-17, 1.000000000000000000, -0.000000000000000000 ) ) ;
#15 = DIRECTION ( 'NONE',  ( 0.000000000000000000, 0.000000000000000000, -1.000000000000000000 ) ) ;
#16 = APPLICATION_CONTEXT ( 'automotive_design' ) ;
#17 = CARTESIAN_POINT ( 'NONE',  ( 0.6250000000000000000, 6.000000000000000888, 0.000000000000000000 ) ) ;
#18 = DIRECTION ( 'NONE',  ( -0.000000000000000000, -1.000000000000000000, -0.000000000000000000 ) ) ;
#19 = AXIS2_PLACEMENT_3D ( 'NONE', #20, #90, #182 ) ;
#20 = CARTESIAN_POINT ( 'NONE',  ( -6.123233995736784525E-17, 6.000000000000000888, 0.000000000000000000 ) ) ;
#21 = VERTEX_POINT ( 'NONE', #278 ) ;
#22 = FACE_OUTER_BOUND ( 'NONE', #35, .T. ) ;
#23 = CARTESIAN_POINT ( 'NONE',  ( 0.6250000000000000000, 6.000000000000000888, 7.654042494670957853E-17 ) ) ;
#24 = CARTESIAN_POINT ( 'NONE',  ( 7.654042494670957853E-17, 3.250000000000000000, 0.6250000000000000000 ) ) ;
#25 = DIRECTION ( 'NONE',  ( -2.226630543904284693E-17, 1.000000000000000000, -0.000000000000000000 ) ) ;
#26 = CARTESIAN_POINT ( 'NONE',  ( 1.549338618452340907E-34, 3.250000000000000000, 0.000000000000000000 ) ) ;
#27 = CARTESIAN_POINT ( 'NONE',  ( -0.6250000000000000000, 3.250000000000000000, 0.000000000000000000 ) ) ;
#28 = DIRECTION ( 'NONE',  ( -1.000000000000000000, 0.000000000000000000, 0.000000000000000000 ) ) ;
#29 = CARTESIAN_POINT ( 'NONE',  ( 0.000000000000000000, 0.000000000000000000, 0.000000000000000000 ) ) ;
#30 = MECHANICAL_DESIGN_GEOMETRIC_PRESENTATION_REPRESENTATION (  '', ( #67 ), #80 ) ;
#31 = ORIENTED_EDGE ( 'NONE', *, *, #306, .T. ) ;
#32 = STYLED_ITEM ( 'NONE', ( #51 ), #231 ) ;
#33 = DIMENSIONAL_EXPONENTS ( 1.000000000000000000, 0.000000000000000000, 0.000000000000000000, 0.000000000000000000, 0.000000000000000000, 0.000000000000000000, 0.000000000000000000 ) ;
#34 = ORIENTED_EDGE ( 'NONE', *, *, #269, .T. ) ;
#35 = EDGE_LOOP ( 'NONE', ( #100, #34 ) ) ;
#36 = ORIENTED_EDGE ( 'NONE', *, *, #71, .F. ) ;
#37 = AXIS2_PLACEMENT_3D ( 'NONE', #305, #130, #15 ) ;
#38 = ADVANCED_FACE ( 'NONE', ( #82 ), #180, .T. ) ;
#39 =( LENGTH_UNIT ( ) NAMED_UNIT ( * ) SI_UNIT ( $, .METRE. ) );
#40 = FILL_AREA_STYLE_COLOUR ( '', #79 ) ;
#41 = DIRECTION ( 'NONE',  ( -0.000000000000000000, -1.000000000000000000, -0.000000000000000000 ) ) ;
#42 = EDGE_LOOP ( 'NONE', ( #161, #201, #64, #104 ) ) ;
#43 = CLOSED_SHELL ( 'NONE', ( #38, #231, #132, #138 ) ) ;
#44 = FACE_OUTER_BOUND ( 'NONE', #131, .T. ) ;
#45 = AXIS2_PLACEMENT_3D ( 'NONE', #224, #14, #102 ) ;
#46 = AXIS2_PLACEMENT_3D ( 'NONE', #114, #273, #133 ) ;
#47 = DIRECTION ( 'NONE',  ( 0.000000000000000000, -0.000000000000000000, 1.000000000000000000 ) ) ;
#48 =( LENGTH_UNIT ( ) NAMED_UNIT ( * ) SI_UNIT ( $, .METRE. ) );
#49 =( NAMED_UNIT ( * ) PLANE_ANGLE_UNIT ( ) SI_UNIT ( $, .RADIAN. ) );
#50 = DIMENSIONAL_EXPONENTS ( 1.000000000000000000, 0.000000000000000000, 0.000000000000000000, 0.000000000000000000, 0.000000000000000000, 0.000000000000000000, 0.000000000000000000 ) ;
#51 = PRESENTATION_STYLE_ASSIGNMENT (( #3 ) ) ;
#52 = MECHANICAL_DESIGN_GEOMETRIC_PRESENTATION_REPRESENTATION (  '', ( #89 ), #249 ) ;
#53 = DIRECTION ( 'NONE',  ( -2.226630543904284693E-17, 1.000000000000000000, -0.000000000000000000 ) ) ;
#54 = ADVANCED_BREP_SHAPE_REPRESENTATION ( '44497', ( #240, #124, #95 ), #150 ) ;
#55 = ORIENTED_EDGE ( 'NONE', *, *, #176, .T. ) ;
#56 = CIRCLE ( 'NONE', #61, 0.6250000000000000000 ) ;
#57 = EDGE_CURVE ( 'NONE', #178, #291, #230, .T. ) ;
#58 = ORIENTED_EDGE ( 'NONE', *, *, #148, .F. ) ;
#59 = VERTEX_POINT ( 'NONE', #23 ) ;
#60 = EDGE_LOOP ( 'NONE', ( #254, #206 ) ) ;
#61 = AXIS2_PLACEMENT_3D ( 'NONE', #187, #53, #234 ) ;
#62 = FILL_AREA_STYLE ('',( #83 ) ) ;
#63 = SURFACE_STYLE_USAGE ( .BOTH. , #181 ) ;
#64 = ORIENTED_EDGE ( 'NONE', *, *, #221, .T. ) ;
#65 = CARTESIAN_POINT ( 'NONE',  ( -0.6250000000000000000, 6.000000000000000888, 0.000000000000000000 ) ) ;
#66 = AXIS2_PLACEMENT_3D ( 'NONE', #88, #164, #257 ) ;
#67 = STYLED_ITEM ( 'NONE', ( #212 ), #132 ) ;
#68 = DIRECTION ( 'NONE',  ( 0.000000000000000000, 0.000000000000000000, -1.000000000000000000 ) ) ;
#69 =( NAMED_UNIT ( * ) SI_UNIT ( $, .STERADIAN. ) SOLID_ANGLE_UNIT ( ) );
#70 = LINE ( 'NONE', #65, #208 ) ;
#71 = EDGE_CURVE ( 'NONE', #282, #9, #7, .T. ) ;
#72 =( CONVERSION_BASED_UNIT ( 'INCH', #192 ) LENGTH_UNIT ( ) NAMED_UNIT ( #50 ) );
#73 =( CONVERSION_BASED_UNIT ( 'INCH', #263 ) LENGTH_UNIT ( ) NAMED_UNIT ( #151 ) );
#74 =( NAMED_UNIT ( * ) SI_UNIT ( $, .STERADIAN. ) SOLID_ANGLE_UNIT ( ) );
#75 = LINE ( 'NONE', #92, #236 ) ;
#76 = UNCERTAINTY_MEASURE_WITH_UNIT (LENGTH_MEASURE( 1.000000000000000082E-05 ), #72, 'distance_accuracy_value', 'NONE');
#77 = VERTEX_POINT ( 'NONE', #129 ) ;
#78 = EDGE_CURVE ( 'NONE', #9, #282, #179, .T. ) ;
#79 = COLOUR_RGB ( '',1.000000000000000000, 0.000000000000000000, 0.000000000000000000 ) ;
#80 =( GEOMETRIC_REPRESENTATION_CONTEXT ( 3 ) GLOBAL_UNCERTAINTY_ASSIGNED_CONTEXT ( ( #76 ) ) GLOBAL_UNIT_ASSIGNED_CONTEXT ( ( #72, #49, #136 ) ) REPRESENTATION_CONTEXT ( 'NONE', 'WORKASPACE' ) );
#81 = APPLICATION_PROTOCOL_DEFINITION ( 'draft international standard', 'automotive_design', 1998, #248 ) ;
#82 = FACE_OUTER_BOUND ( 'NONE', #220, .T. ) ;
#83 = FILL_AREA_STYLE_COLOUR ( '', #101 ) ;
#84 = EDGE_LOOP ( 'NONE', ( #243, #155 ) ) ;
#85 = DIRECTION ( 'NONE',  ( -1.000000000000000000, 0.000000000000000000, 0.000000000000000000 ) ) ;
#86 = DIRECTION ( 'NONE',  ( -0.000000000000000000, -1.000000000000000000, -0.000000000000000000 ) ) ;
#87 = FILL_AREA_STYLE_COLOUR ( '', #8 ) ;
#88 = CARTESIAN_POINT ( 'NONE',  ( 0.000000000000000000, 3.250000000000000000, 0.000000000000000000 ) ) ;
#89 = STYLED_ITEM ( 'NONE', ( #217 ), #240 ) ;
#90 = DIRECTION ( 'NONE',  ( -2.226630543904284693E-17, 1.000000000000000000, -0.000000000000000000 ) ) ;
#91 = FACE_OUTER_BOUND ( 'NONE', #42, .T. ) ;
#92 = CARTESIAN_POINT ( 'NONE',  ( 0.6250000000000000000, 6.000000000000000888, 7.654042494670957853E-17 ) ) ;
#93 = SURFACE_SIDE_STYLE ('',( #96 ) ) ;
#94 = SURFACE_STYLE_USAGE ( .BOTH. , #260 ) ;
#95 = AXIS2_PLACEMENT_3D ( 'NONE', #153, #99, #271 ) ;
#96 = SURFACE_STYLE_FILL_AREA ( #237 ) ;
#97 =( LENGTH_UNIT ( ) NAMED_UNIT ( * ) SI_UNIT ( $, .METRE. ) );
#98 = VERTEX_POINT ( 'NONE', #167 ) ;
#99 = DIRECTION ( 'NONE',  ( 0.000000000000000000, 0.000000000000000000, 1.000000000000000000 ) ) ;
#100 = ORIENTED_EDGE ( 'NONE', *, *, #205, .T. ) ;
#101 = COLOUR_RGB ( '',1.000000000000000000, 0.000000000000000000, 0.000000000000000000 ) ;
#102 = DIRECTION ( 'NONE',  ( -1.000000000000000000, 0.000000000000000000, 0.000000000000000000 ) ) ;
#103 = FACE_OUTER_BOUND ( 'NONE', #84, .T. ) ;
#104 = ORIENTED_EDGE ( 'NONE', *, *, #269, .F. ) ;
#105 = FILL_AREA_STYLE ('',( #87 ) ) ;
#106 = DIRECTION ( 'NONE',  ( 0.000000000000000000, 0.000000000000000000, -1.000000000000000000 ) ) ;
#107 = COLOUR_RGB ( '',0.7921568627450980005, 0.8196078431372548767, 0.9333333333333333481 ) ;
#108 = PRESENTATION_LAYER_ASSIGNMENT (  '', '', ( #146 ) ) ;
#109 = ADVANCED_FACE ( 'NONE', ( #44 ), #1, .F. ) ;
#110 = DIRECTION ( 'NONE',  ( -0.000000000000000000, -1.000000000000000000, -0.000000000000000000 ) ) ;
#111 = CARTESIAN_POINT ( 'NONE',  ( 0.000000000000000000, 3.250000000000000000, 0.000000000000000000 ) ) ;
#112 = DIRECTION ( 'NONE',  ( 1.000000000000000000, 2.226630543904284693E-17, 0.000000000000000000 ) ) ;
#113 = SURFACE_SIDE_STYLE ('',( #157 ) ) ;
#114 = CARTESIAN_POINT ( 'NONE',  ( 0.000000000000000000, 0.000000000000000000, 0.000000000000000000 ) ) ;
#115 = FILL_AREA_STYLE_COLOUR ( '', #216 ) ;
#116 = CIRCLE ( 'NONE', #46, 0.6250000000000000000 ) ;
#117 =( LENGTH_UNIT ( ) NAMED_UNIT ( * ) SI_UNIT ( $, .METRE. ) );
#118 = FILL_AREA_STYLE_COLOUR ( '', #107 ) ;
#119 = SURFACE_STYLE_FILL_AREA ( #6 ) ;
#120 = PRESENTATION_STYLE_ASSIGNMENT (( #94 ) ) ;
#121 = LENGTH_MEASURE_WITH_UNIT ( LENGTH_MEASURE( 0.02539999999999999897 ), #48 );
#122 = ADVANCED_FACE ( 'NONE', ( #91 ), #4, .T. ) ;
#123 = DIRECTION ( 'NONE',  ( 0.000000000000000000, 0.000000000000000000, -1.000000000000000000 ) ) ;
#124 = MANIFOLD_SOLID_BREP ( 'Revolve - Tool Body (Straight Shanked)', #229 ) ;
#125 = VECTOR ( 'NONE', #304, 39.37007874015748143 ) ;
#126 = AXIS2_PLACEMENT_3D ( 'NONE', #17, #255, #112 ) ;
#127 = ORIENTED_EDGE ( 'NONE', *, *, #205, .F. ) ;
#128 =( GEOMETRIC_REPRESENTATION_CONTEXT ( 3 ) GLOBAL_UNCERTAINTY_ASSIGNED_CONTEXT ( ( #175 ) ) GLOBAL_UNIT_ASSIGNED_CONTEXT ( ( #73, #235, #142 ) ) REPRESENTATION_CONTEXT ( 'NONE', 'WORKASPACE' ) );
#129 = CARTESIAN_POINT ( 'NONE',  ( 0.000000000000000000, 3.250000000000000000, -0.6250000000000000000 ) ) ;
#130 = DIRECTION ( 'NONE',  ( -0.000000000000000000, -1.000000000000000000, -0.000000000000000000 ) ) ;
#131 = EDGE_LOOP ( 'NONE', ( #36, #232 ) ) ;
#132 = ADVANCED_FACE ( 'NONE', ( #210 ), #309, .T. ) ;
#133 = DIRECTION ( 'NONE',  ( 0.000000000000000000, 0.000000000000000000, -1.000000000000000000 ) ) ;
#134 =( LENGTH_UNIT ( ) NAMED_UNIT ( * ) SI_UNIT ( $, .METRE. ) );
#135 =( GEOMETRIC_REPRESENTATION_CONTEXT ( 3 ) GLOBAL_UNCERTAINTY_ASSIGNED_CONTEXT ( ( #149 ) ) GLOBAL_UNIT_ASSIGNED_CONTEXT ( ( #209, #169, #242 ) ) REPRESENTATION_CONTEXT ( 'NONE', 'WORKASPACE' ) );
#136 =( NAMED_UNIT ( * ) SI_UNIT ( $, .STERADIAN. ) SOLID_ANGLE_UNIT ( ) );
#137 = EDGE_LOOP ( 'NONE', ( #302, #31, #127, #196 ) ) ;
#138 = ADVANCED_FACE ( 'NONE', ( #277 ), #163, .T. ) ;
#139 = MECHANICAL_DESIGN_GEOMETRIC_PRESENTATION_REPRESENTATION (  '', ( #160 ), #194 ) ;
#140 = AXIS2_PLACEMENT_3D ( 'NONE', #258, #233, #85 ) ;
#141 =( CONVERSION_BASED_UNIT ( 'INCH', #238 ) LENGTH_UNIT ( ) NAMED_UNIT ( #5 ) );
#142 =( NAMED_UNIT ( * ) SI_UNIT ( $, .STERADIAN. ) SOLID_ANGLE_UNIT ( ) );
#143 = CARTESIAN_POINT ( 'NONE',  ( -6.123233995736784525E-17, 6.000000000000000888, 0.000000000000000000 ) ) ;
#144 = DIMENSIONAL_EXPONENTS ( 1.000000000000000000, 0.000000000000000000, 0.000000000000000000, 0.000000000000000000, 0.000000000000000000, 0.000000000000000000, 0.000000000000000000 ) ;
#145 = UNCERTAINTY_MEASURE_WITH_UNIT (LENGTH_MEASURE( 1.000000000000000082E-05 ), #265, 'distance_accuracy_value', 'NONE');
#146 = STYLED_ITEM ( 'NONE', ( #120 ), #124 ) ;
#147 = MECHANICAL_DESIGN_GEOMETRIC_PRESENTATION_REPRESENTATION (  '', ( #32 ), #135 ) ;
#148 = EDGE_CURVE ( 'NONE', #77, #98, #184, .T. ) ;
#149 = UNCERTAINTY_MEASURE_WITH_UNIT (LENGTH_MEASURE( 1.000000000000000082E-05 ), #209, 'distance_accuracy_value', 'NONE');
#150 =( GEOMETRIC_REPRESENTATION_CONTEXT ( 3 ) GLOBAL_UNCERTAINTY_ASSIGNED_CONTEXT ( ( #145 ) ) GLOBAL_UNIT_ASSIGNED_CONTEXT ( ( #265, #297, #246 ) ) REPRESENTATION_CONTEXT ( 'NONE', 'WORKASPACE' ) );
#151 = DIMENSIONAL_EXPONENTS ( 1.000000000000000000, 0.000000000000000000, 0.000000000000000000, 0.000000000000000000, 0.000000000000000000, 0.000000000000000000, 0.000000000000000000 ) ;
#152 = ADVANCED_FACE ( 'NONE', ( #22 ), #158, .F. ) ;
#153 = CARTESIAN_POINT ( 'NONE',  ( 0.000000000000000000, 0.000000000000000000, 0.000000000000000000 ) ) ;
#154 = PRODUCT_DEFINITION_CONTEXT ( 'detailed design', #248, 'design' ) ;
#155 = ORIENTED_EDGE ( 'NONE', *, *, #176, .F. ) ;
#156 = AXIS2_PLACEMENT_3D ( 'NONE', #29, #308, #123 ) ;
#157 = SURFACE_STYLE_FILL_AREA ( #185 ) ;
#158 = PLANE ( 'NONE',  #126 ) ;
#159 =( CONVERSION_BASED_UNIT ( 'INCH', #275 ) LENGTH_UNIT ( ) NAMED_UNIT ( #144 ) );
#160 = STYLED_ITEM ( 'NONE', ( #225 ), #38 ) ;
#161 = ORIENTED_EDGE ( 'NONE', *, *, #306, .F. ) ;
#162 = PRODUCT_DEFINITION_FORMATION_WITH_SPECIFIED_SOURCE ( 'ANY', '', #279, .NOT_KNOWN. ) ;
#163 = PLANE ( 'NONE',  #174 ) ;
#164 = DIRECTION ( 'NONE',  ( -2.226630543904284693E-17, 1.000000000000000000, -0.000000000000000000 ) ) ;
#165 = DIRECTION ( 'NONE',  ( -2.226630543904284693E-17, 1.000000000000000000, -0.000000000000000000 ) ) ;
#166 = SURFACE_SIDE_STYLE ('',( #285 ) ) ;
#167 = CARTESIAN_POINT ( 'NONE',  ( 0.000000000000000000, 0.000000000000000000, -0.6250000000000000000 ) ) ;
#168 = AXIS2_PLACEMENT_3D ( 'NONE', #143, #284, #28 ) ;
#169 =( NAMED_UNIT ( * ) PLANE_ANGLE_UNIT ( ) SI_UNIT ( $, .RADIAN. ) );
#170 = SURFACE_STYLE_USAGE ( .BOTH. , #93 ) ;
#171 = SURFACE_STYLE_FILL_AREA ( #207 ) ;
#172 = ADVANCED_FACE ( 'NONE', ( #204 ), #307, .T. ) ;
#173 =( NAMED_UNIT ( * ) PLANE_ANGLE_UNIT ( ) SI_UNIT ( $, .RADIAN. ) );
#174 = AXIS2_PLACEMENT_3D ( 'NONE', #303, #202, #280 ) ;
#175 = UNCERTAINTY_MEASURE_WITH_UNIT (LENGTH_MEASURE( 1.000000000000000082E-05 ), #73, 'distance_accuracy_value', 'NONE');
#176 = EDGE_CURVE ( 'NONE', #178, #77, #241, .T. ) ;
#177 = APPLICATION_PROTOCOL_DEFINITION ( 'draft international standard', 'automotive_design', 1998, #16 ) ;
#178 = VERTEX_POINT ( 'NONE', #24 ) ;
#179 = CIRCLE ( 'NONE', #45, 0.6250000000000000000 ) ;
#180 = CYLINDRICAL_SURFACE ( 'NONE', #244, 0.6250000000000000000 ) ;
#181 = SURFACE_SIDE_STYLE ('',( #228 ) ) ;
#182 = DIRECTION ( 'NONE',  ( -1.000000000000000000, 0.000000000000000000, 0.000000000000000000 ) ) ;
#183 = ORIENTED_EDGE ( 'NONE', *, *, #148, .T. ) ;
#184 = LINE ( 'NONE', #301, #266 ) ;
#185 = FILL_AREA_STYLE ('',( #40 ) ) ;
#186 = MECHANICAL_DESIGN_GEOMETRIC_PRESENTATION_REPRESENTATION (  '', ( #195 ), #296 ) ;
#187 = CARTESIAN_POINT ( 'NONE',  ( -6.123233995736784525E-17, 6.000000000000000888, 0.000000000000000000 ) ) ;
#188 = PRODUCT_RELATED_PRODUCT_CATEGORY ( 'part', '', ( #279 ) ) ;
#189 =( LENGTH_UNIT ( ) NAMED_UNIT ( * ) SI_UNIT ( $, .METRE. ) );
#190 = AXIS2_PLACEMENT_3D ( 'NONE', #226, #110, #68 ) ;
#191 = FILL_AREA_STYLE_COLOUR ( '', #256 ) ;
#192 = LENGTH_MEASURE_WITH_UNIT ( LENGTH_MEASURE( 0.02539999999999999897 ), #264 );
#193 = UNCERTAINTY_MEASURE_WITH_UNIT (LENGTH_MEASURE( 1.000000000000000082E-05 ), #199, 'distance_accuracy_value', 'NONE');
#194 =( GEOMETRIC_REPRESENTATION_CONTEXT ( 3 ) GLOBAL_UNCERTAINTY_ASSIGNED_CONTEXT ( ( #193 ) ) GLOBAL_UNIT_ASSIGNED_CONTEXT ( ( #199, #274, #69 ) ) REPRESENTATION_CONTEXT ( 'NONE', 'WORKASPACE' ) );
#195 = STYLED_ITEM ( 'NONE', ( #251 ), #138 ) ;
#196 = ORIENTED_EDGE ( 'NONE', *, *, #221, .F. ) ;
#197 = EDGE_CURVE ( 'NONE', #291, #98, #116, .T. ) ;
#198 = PLANE ( 'NONE',  #200 ) ;
#199 =( CONVERSION_BASED_UNIT ( 'INCH', #299 ) LENGTH_UNIT ( ) NAMED_UNIT ( #288 ) );
#200 = AXIS2_PLACEMENT_3D ( 'NONE', #290, #267, #47 ) ;
#201 = ORIENTED_EDGE ( 'NONE', *, *, #78, .T. ) ;
#202 = DIRECTION ( 'NONE',  ( 0.000000000000000000, -1.000000000000000000, -0.000000000000000000 ) ) ;
#203 = CARTESIAN_POINT ( 'NONE',  ( 7.654042494670957853E-17, 0.000000000000000000, 0.6250000000000000000 ) ) ;
#204 = FACE_OUTER_BOUND ( 'NONE', #137, .T. ) ;
#205 = EDGE_CURVE ( 'NONE', #21, #59, #281, .T. ) ;
#206 = ORIENTED_EDGE ( 'NONE', *, *, #197, .T. ) ;
#207 = FILL_AREA_STYLE ('',( #118 ) ) ;
#208 = VECTOR ( 'NONE', #165, 39.37007874015748143 ) ;
#209 =( CONVERSION_BASED_UNIT ( 'INCH', #262 ) LENGTH_UNIT ( ) NAMED_UNIT ( #33 ) );
#210 = FACE_OUTER_BOUND ( 'NONE', #268, .T. ) ;
#211 = SURFACE_SIDE_STYLE ('',( #119 ) ) ;
#212 = PRESENTATION_STYLE_ASSIGNMENT (( #170 ) ) ;
#213 = UNCERTAINTY_MEASURE_WITH_UNIT (LENGTH_MEASURE( 1.000000000000000082E-05 ), #159, 'distance_accuracy_value', 'NONE');
#214 = DIRECTION ( 'NONE',  ( -1.000000000000000000, -2.226630543904284693E-17, 0.000000000000000000 ) ) ;
#215 = CIRCLE ( 'NONE', #12, 0.6250000000000000000 ) ;
#216 = COLOUR_RGB ( '',1.000000000000000000, 0.000000000000000000, 0.000000000000000000 ) ;
#217 = PRESENTATION_STYLE_ASSIGNMENT (( #289 ) ) ;
#218 = CARTESIAN_POINT ( 'NONE',  ( 7.654042494670957853E-17, 0.000000000000000000, 0.6250000000000000000 ) ) ;
#219 = ORIENTED_EDGE ( 'NONE', *, *, #247, .F. ) ;
#220 = EDGE_LOOP ( 'NONE', ( #245, #222, #219, #58 ) ) ;
#221 = EDGE_CURVE ( 'NONE', #282, #21, #70, .T. ) ;
#222 = ORIENTED_EDGE ( 'NONE', *, *, #57, .T. ) ;
#223 = AXIS2_PLACEMENT_3D ( 'NONE', #26, #239, #214 ) ;
#224 = CARTESIAN_POINT ( 'NONE',  ( 0.000000000000000000, 3.250000000000000000, 0.000000000000000000 ) ) ;
#225 = PRESENTATION_STYLE_ASSIGNMENT (( #250 ) ) ;
#226 = CARTESIAN_POINT ( 'NONE',  ( 0.000000000000000000, 0.000000000000000000, 0.000000000000000000 ) ) ;
#227 = CARTESIAN_POINT ( 'NONE',  ( 0.000000000000000000, 0.000000000000000000, 0.000000000000000000 ) ) ;
#228 = SURFACE_STYLE_FILL_AREA ( #105 ) ;
#229 = CLOSED_SHELL ( 'NONE', ( #172, #109, #122, #152 ) ) ;
#230 = LINE ( 'NONE', #203, #125 ) ;
#231 = ADVANCED_FACE ( 'NONE', ( #103 ), #198, .T. ) ;
#232 = ORIENTED_EDGE ( 'NONE', *, *, #78, .F. ) ;
#233 = DIRECTION ( 'NONE',  ( -2.226630543904284693E-17, 1.000000000000000000, -0.000000000000000000 ) ) ;
#234 = DIRECTION ( 'NONE',  ( -1.000000000000000000, 0.000000000000000000, 0.000000000000000000 ) ) ;
#235 =( NAMED_UNIT ( * ) PLANE_ANGLE_UNIT ( ) SI_UNIT ( $, .RADIAN. ) );
#236 = VECTOR ( 'NONE', #25, 39.37007874015748143 ) ;
#237 = FILL_AREA_STYLE ('',( #115 ) ) ;
#238 = LENGTH_MEASURE_WITH_UNIT ( LENGTH_MEASURE( 0.02539999999999999897 ), #117 );
#239 = DIRECTION ( 'NONE',  ( -2.226630543904284693E-17, 1.000000000000000000, 0.000000000000000000 ) ) ;
#240 = MANIFOLD_SOLID_BREP ( 'Revolve - Cutting Edge', #43 ) ;
#241 = CIRCLE ( 'NONE', #37, 0.6250000000000000000 ) ;
#242 =( NAMED_UNIT ( * ) SI_UNIT ( $, .STERADIAN. ) SOLID_ANGLE_UNIT ( ) );
#243 = ORIENTED_EDGE ( 'NONE', *, *, #10, .F. ) ;
#244 = AXIS2_PLACEMENT_3D ( 'NONE', #227, #18, #106 ) ;
#245 = ORIENTED_EDGE ( 'NONE', *, *, #10, .T. ) ;
#246 =( NAMED_UNIT ( * ) SI_UNIT ( $, .STERADIAN. ) SOLID_ANGLE_UNIT ( ) );
#247 = EDGE_CURVE ( 'NONE', #98, #291, #292, .T. ) ;
#248 = APPLICATION_CONTEXT ( 'automotive_design' ) ;
#249 =( GEOMETRIC_REPRESENTATION_CONTEXT ( 3 ) GLOBAL_UNCERTAINTY_ASSIGNED_CONTEXT ( ( #11 ) ) GLOBAL_UNIT_ASSIGNED_CONTEXT ( ( #141, #173, #74 ) ) REPRESENTATION_CONTEXT ( 'NONE', 'WORKASPACE' ) );
#250 = SURFACE_STYLE_USAGE ( .BOTH. , #113 ) ;
#251 = PRESENTATION_STYLE_ASSIGNMENT (( #63 ) ) ;
#252 = CARTESIAN_POINT ( 'NONE',  ( 0.6250000000000000000, 3.250000000000000000, 7.654042494670957853E-17 ) ) ;
#253 =( NAMED_UNIT ( * ) PLANE_ANGLE_UNIT ( ) SI_UNIT ( $, .RADIAN. ) );
#254 = ORIENTED_EDGE ( 'NONE', *, *, #247, .T. ) ;
#255 = DIRECTION ( 'NONE',  ( 2.226630543904284693E-17, -1.000000000000000000, 0.000000000000000000 ) ) ;
#256 = COLOUR_RGB ( '',0.7921568627450980005, 0.8196078431372548767, 0.9333333333333333481 ) ;
#257 = DIRECTION ( 'NONE',  ( -1.000000000000000000, 0.000000000000000000, 0.000000000000000000 ) ) ;
#258 = CARTESIAN_POINT ( 'NONE',  ( -6.123233995736784525E-17, 6.000000000000000888, 0.000000000000000000 ) ) ;
#259 = PRESENTATION_LAYER_ASSIGNMENT (  '', '', ( #160 ) ) ;
#260 = SURFACE_SIDE_STYLE ('',( #171 ) ) ;
#261 = PRESENTATION_LAYER_ASSIGNMENT (  '', '', ( #67 ) ) ;
#262 = LENGTH_MEASURE_WITH_UNIT ( LENGTH_MEASURE( 0.02539999999999999897 ), #97 );
#263 = LENGTH_MEASURE_WITH_UNIT ( LENGTH_MEASURE( 0.02539999999999999897 ), #189 );
#264 =( LENGTH_UNIT ( ) NAMED_UNIT ( * ) SI_UNIT ( $, .METRE. ) );
#265 =( CONVERSION_BASED_UNIT ( 'INCH', #121 ) LENGTH_UNIT ( ) NAMED_UNIT ( #2 ) );
#266 = VECTOR ( 'NONE', #41, 39.37007874015748143 ) ;
#267 = DIRECTION ( 'NONE',  ( 0.000000000000000000, 1.000000000000000000, 0.000000000000000000 ) ) ;
#268 = EDGE_LOOP ( 'NONE', ( #276, #55, #183, #298 ) ) ;
#269 = EDGE_CURVE ( 'NONE', #59, #21, #56, .T. ) ;
#270 = MECHANICAL_DESIGN_GEOMETRIC_PRESENTATION_REPRESENTATION (  '', ( #146 ), #128 ) ;
#271 = DIRECTION ( 'NONE',  ( 1.000000000000000000, 0.000000000000000000, 0.000000000000000000 ) ) ;
#272 = DIRECTION ( 'NONE',  ( 0.000000000000000000, 0.000000000000000000, -1.000000000000000000 ) ) ;
#273 = DIRECTION ( 'NONE',  ( -0.000000000000000000, -1.000000000000000000, -0.000000000000000000 ) ) ;
#274 =( NAMED_UNIT ( * ) PLANE_ANGLE_UNIT ( ) SI_UNIT ( $, .RADIAN. ) );
#275 = LENGTH_MEASURE_WITH_UNIT ( LENGTH_MEASURE( 0.02539999999999999897 ), #39 );
#276 = ORIENTED_EDGE ( 'NONE', *, *, #57, .F. ) ;
#277 = FACE_OUTER_BOUND ( 'NONE', #60, .T. ) ;
#278 = CARTESIAN_POINT ( 'NONE',  ( -0.6250000000000000000, 6.000000000000000888, 0.000000000000000000 ) ) ;
#279 = PRODUCT ( '44497', '44497', '', ( #295 ) ) ;
#280 = DIRECTION ( 'NONE',  ( 0.000000000000000000, 0.000000000000000000, -1.000000000000000000 ) ) ;
#281 = CIRCLE ( 'NONE', #19, 0.6250000000000000000 ) ;
#282 = VERTEX_POINT ( 'NONE', #27 ) ;
#283 =( NAMED_UNIT ( * ) SI_UNIT ( $, .STERADIAN. ) SOLID_ANGLE_UNIT ( ) );
#284 = DIRECTION ( 'NONE',  ( -2.226630543904284693E-17, 1.000000000000000000, -0.000000000000000000 ) ) ;
#285 = SURFACE_STYLE_FILL_AREA ( #62 ) ;
#286 = PRESENTATION_LAYER_ASSIGNMENT (  '', '', ( #195 ) ) ;
#287 = PRODUCT_DEFINITION_SHAPE ( 'NONE', 'NONE',  #293 ) ;
#288 = DIMENSIONAL_EXPONENTS ( 1.000000000000000000, 0.000000000000000000, 0.000000000000000000, 0.000000000000000000, 0.000000000000000000, 0.000000000000000000, 0.000000000000000000 ) ;
#289 = SURFACE_STYLE_USAGE ( .BOTH. , #211 ) ;
#290 = CARTESIAN_POINT ( 'NONE',  ( 0.000000000000000000, 3.250000000000000000, 0.000000000000000000 ) ) ;
#291 = VERTEX_POINT ( 'NONE', #218 ) ;
#292 = CIRCLE ( 'NONE', #156, 0.6250000000000000000 ) ;
#293 = PRODUCT_DEFINITION ( 'UNKNOWN', '', #162, #154 ) ;
#294 = SHAPE_DEFINITION_REPRESENTATION ( #287, #54 ) ;
#295 = PRODUCT_CONTEXT ( 'NONE', #16, 'mechanical' ) ;
#296 =( GEOMETRIC_REPRESENTATION_CONTEXT ( 3 ) GLOBAL_UNCERTAINTY_ASSIGNED_CONTEXT ( ( #213 ) ) GLOBAL_UNIT_ASSIGNED_CONTEXT ( ( #159, #253, #283 ) ) REPRESENTATION_CONTEXT ( 'NONE', 'WORKASPACE' ) );
#297 =( NAMED_UNIT ( * ) PLANE_ANGLE_UNIT ( ) SI_UNIT ( $, .RADIAN. ) );
#298 = ORIENTED_EDGE ( 'NONE', *, *, #197, .F. ) ;
#299 = LENGTH_MEASURE_WITH_UNIT ( LENGTH_MEASURE( 0.02539999999999999897 ), #134 );
#300 = PRESENTATION_LAYER_ASSIGNMENT (  '', '', ( #32 ) ) ;
#301 = CARTESIAN_POINT ( 'NONE',  ( 0.000000000000000000, 0.000000000000000000, -0.6250000000000000000 ) ) ;
#302 = ORIENTED_EDGE ( 'NONE', *, *, #71, .T. ) ;
#303 = CARTESIAN_POINT ( 'NONE',  ( 0.000000000000000000, 0.000000000000000000, 0.000000000000000000 ) ) ;
#304 = DIRECTION ( 'NONE',  ( -0.000000000000000000, -1.000000000000000000, -0.000000000000000000 ) ) ;
#305 = CARTESIAN_POINT ( 'NONE',  ( 0.000000000000000000, 3.250000000000000000, 0.000000000000000000 ) ) ;
#306 = EDGE_CURVE ( 'NONE', #9, #59, #75, .T. ) ;
#307 = CYLINDRICAL_SURFACE ( 'NONE', #140, 0.6250000000000000000 ) ;
#308 = DIRECTION ( 'NONE',  ( -0.000000000000000000, -1.000000000000000000, -0.000000000000000000 ) ) ;
#309 = CYLINDRICAL_SURFACE ( 'NONE', #190, 0.6250000000000000000 ) ;
ENDSEC;
END-ISO-10303-21;
