ISO-10303-21;
HEADER;
FILE_DESCRIPTION (( 'STEP AP214' ),
    '1' );
FILE_NAME ('00285.STEP',
    '2023-06-22T14:05:30',
    ( '' ),
    ( '' ),
    'SwSTEP 2.0',
    'SolidWorks 2023',
    '' );
FILE_SCHEMA (( 'AUTOMOTIVE_DESIGN' ));
ENDSEC;

DATA;
#1 = AXIS2_PLACEMENT_3D ( 'NONE', #52, #97, #137 ) ;
#2 = EDGE_CURVE ( 'NONE', #133, #155, #283, .T. ) ;
#3 = ORIENTED_EDGE ( 'NONE', *, *, #247, .F. ) ;
#4 = CARTESIAN_POINT ( 'NONE',  ( 0.000000000000000000, 1.250000000000000000, 0.000000000000000000 ) ) ;
#5 = LINE ( 'NONE', #27, #293 ) ;
#6 = PRESENTATION_STYLE_ASSIGNMENT (( #25 ) ) ;
#7 = AXIS2_PLACEMENT_3D ( 'NONE', #214, #78, #138 ) ;
#8 = VERTEX_POINT ( 'NONE', #213 ) ;
#9 = DIRECTION ( 'NONE',  ( 3.498990854706726443E-17, -1.000000000000000000, 0.000000000000000000 ) ) ;
#10 = CARTESIAN_POINT ( 'NONE',  ( -0.1562500000000001388, 3.000000000000000444, 0.000000000000000000 ) ) ;
#11 = FACE_OUTER_BOUND ( 'NONE', #26, .T. ) ;
#12 =( GEOMETRIC_REPRESENTATION_CONTEXT ( 3 ) GLOBAL_UNCERTAINTY_ASSIGNED_CONTEXT ( ( #309 ) ) GLOBAL_UNIT_ASSIGNED_CONTEXT ( ( #114, #180, #208 ) ) REPRESENTATION_CONTEXT ( 'NONE', 'WORKASPACE' ) );
#13 = DIRECTION ( 'NONE',  ( -3.498990854706726443E-17, 1.000000000000000000, -0.000000000000000000 ) ) ;
#14 = SURFACE_STYLE_FILL_AREA ( #33 ) ;
#15 = VECTOR ( 'NONE', #79, 39.37007874015748143 ) ;
#16 = SURFACE_STYLE_FILL_AREA ( #100 ) ;
#17 = ORIENTED_EDGE ( 'NONE', *, *, #291, .F. ) ;
#18 = DIMENSIONAL_EXPONENTS ( 1.000000000000000000, 0.000000000000000000, 0.000000000000000000, 0.000000000000000000, 0.000000000000000000, 0.000000000000000000, 0.000000000000000000 ) ;
#19 = PRESENTATION_STYLE_ASSIGNMENT (( #223 ) ) ;
#20 = EDGE_LOOP ( 'NONE', ( #17, #251, #241, #304 ) ) ;
#21 = CARTESIAN_POINT ( 'NONE',  ( 0.000000000000000000, 0.000000000000000000, 0.000000000000000000 ) ) ;
#22 = MANIFOLD_SOLID_BREP ( 'Revolve - Cutting Edge', #179 ) ;
#23 = AXIS2_PLACEMENT_3D ( 'NONE', #220, #13, #196 ) ;
#24 = CARTESIAN_POINT ( 'NONE',  ( -6.123233995736772199E-17, 3.000000000000000444, 0.000000000000000000 ) ) ;
#25 = SURFACE_STYLE_USAGE ( .BOTH. , #284 ) ;
#26 = EDGE_LOOP ( 'NONE', ( #176, #181 ) ) ;
#27 = CARTESIAN_POINT ( 'NONE',  ( 1.913510623667739463E-17, 0.000000000000000000, 0.1562500000000000000 ) ) ;
#28 = DIRECTION ( 'NONE',  ( 0.000000000000000000, 0.000000000000000000, -1.000000000000000000 ) ) ;
#29 = CIRCLE ( 'NONE', #292, 0.1562500000000000000 ) ;
#30 = PRODUCT_DEFINITION_FORMATION_WITH_SPECIFIED_SOURCE ( 'ANY', '', #224, .NOT_KNOWN. ) ;
#31 = ORIENTED_EDGE ( 'NONE', *, *, #154, .T. ) ;
#32 =( CONVERSION_BASED_UNIT ( 'INCH', #192 ) LENGTH_UNIT ( ) NAMED_UNIT ( #225 ) );
#33 = FILL_AREA_STYLE ('',( #269 ) ) ;
#34 = SURFACE_SIDE_STYLE ('',( #75 ) ) ;
#35 = CYLINDRICAL_SURFACE ( 'NONE', #23, 0.1562500000000000278 ) ;
#36 =( LENGTH_UNIT ( ) NAMED_UNIT ( * ) SI_UNIT ( $, .METRE. ) );
#37 = AXIS2_PLACEMENT_3D ( 'NONE', #24, #162, #116 ) ;
#38 = AXIS2_PLACEMENT_3D ( 'NONE', #124, #144, #139 ) ;
#39 = EDGE_LOOP ( 'NONE', ( #46, #280 ) ) ;
#40 = SURFACE_SIDE_STYLE ('',( #71 ) ) ;
#41 = CARTESIAN_POINT ( 'NONE',  ( -6.123233995736772199E-17, 3.000000000000000444, 0.000000000000000000 ) ) ;
#42 = UNCERTAINTY_MEASURE_WITH_UNIT (LENGTH_MEASURE( 1.000000000000000082E-05 ), #140, 'distance_accuracy_value', 'NONE');
#43 = PRESENTATION_STYLE_ASSIGNMENT (( #134 ) ) ;
#44 = CARTESIAN_POINT ( 'NONE',  ( 0.000000000000000000, 0.000000000000000000, -0.1562500000000000000 ) ) ;
#45 = DIRECTION ( 'NONE',  ( -1.000000000000000000, 0.000000000000000000, 0.000000000000000000 ) ) ;
#46 = ORIENTED_EDGE ( 'NONE', *, *, #244, .T. ) ;
#47 = COLOUR_RGB ( '',1.000000000000000000, 0.000000000000000000, 0.000000000000000000 ) ;
#48 = EDGE_CURVE ( 'NONE', #259, #94, #187, .T. ) ;
#49 =( LENGTH_UNIT ( ) NAMED_UNIT ( * ) SI_UNIT ( $, .METRE. ) );
#50 = CLOSED_SHELL ( 'NONE', ( #173, #178, #123, #268 ) ) ;
#51 = UNCERTAINTY_MEASURE_WITH_UNIT (LENGTH_MEASURE( 1.000000000000000082E-05 ), #32, 'distance_accuracy_value', 'NONE');
#52 = CARTESIAN_POINT ( 'NONE',  ( -6.123233995736772199E-17, 3.000000000000000444, 0.000000000000000000 ) ) ;
#53 = PRESENTATION_STYLE_ASSIGNMENT (( #261 ) ) ;
#54 = ORIENTED_EDGE ( 'NONE', *, *, #244, .F. ) ;
#55 = PLANE ( 'NONE',  #132 ) ;
#56 =( GEOMETRIC_REPRESENTATION_CONTEXT ( 3 ) GLOBAL_UNCERTAINTY_ASSIGNED_CONTEXT ( ( #42 ) ) GLOBAL_UNIT_ASSIGNED_CONTEXT ( ( #140, #286, #74 ) ) REPRESENTATION_CONTEXT ( 'NONE', 'WORKASPACE' ) );
#57 = MECHANICAL_DESIGN_GEOMETRIC_PRESENTATION_REPRESENTATION (  '', ( #240 ), #131 ) ;
#58 = FACE_OUTER_BOUND ( 'NONE', #20, .T. ) ;
#59 = CARTESIAN_POINT ( 'NONE',  ( 0.1562500000000000000, 1.250000000000000000, 1.913510623667739771E-17 ) ) ;
#60 = DIRECTION ( 'NONE',  ( 0.000000000000000000, -0.000000000000000000, 1.000000000000000000 ) ) ;
#61 = CIRCLE ( 'NONE', #120, 0.1562500000000000000 ) ;
#62 = CARTESIAN_POINT ( 'NONE',  ( 0.000000000000000000, 1.250000000000000000, 0.000000000000000000 ) ) ;
#63 = SURFACE_SIDE_STYLE ('',( #197 ) ) ;
#64 =( NAMED_UNIT ( * ) PLANE_ANGLE_UNIT ( ) SI_UNIT ( $, .RADIAN. ) );
#65 = PRESENTATION_LAYER_ASSIGNMENT (  '', '', ( #194 ) ) ;
#66 = ORIENTED_EDGE ( 'NONE', *, *, #2, .F. ) ;
#67 = FACE_OUTER_BOUND ( 'NONE', #288, .T. ) ;
#68 = CIRCLE ( 'NONE', #279, 0.1562500000000000000 ) ;
#69 =( GEOMETRIC_REPRESENTATION_CONTEXT ( 3 ) GLOBAL_UNCERTAINTY_ASSIGNED_CONTEXT ( ( #205 ) ) GLOBAL_UNIT_ASSIGNED_CONTEXT ( ( #145, #195, #237 ) ) REPRESENTATION_CONTEXT ( 'NONE', 'WORKASPACE' ) );
#70 = ORIENTED_EDGE ( 'NONE', *, *, #48, .F. ) ;
#71 = SURFACE_STYLE_FILL_AREA ( #281 ) ;
#72 = EDGE_CURVE ( 'NONE', #96, #155, #158, .T. ) ;
#73 = MECHANICAL_DESIGN_GEOMETRIC_PRESENTATION_REPRESENTATION (  '', ( #182 ), #56 ) ;
#74 =( NAMED_UNIT ( * ) SI_UNIT ( $, .STERADIAN. ) SOLID_ANGLE_UNIT ( ) );
#75 = SURFACE_STYLE_FILL_AREA ( #107 ) ;
#76 = SURFACE_STYLE_FILL_AREA ( #165 ) ;
#77 = DIRECTION ( 'NONE',  ( -0.000000000000000000, -1.000000000000000000, -0.000000000000000000 ) ) ;
#78 = DIRECTION ( 'NONE',  ( -0.000000000000000000, -1.000000000000000000, -0.000000000000000000 ) ) ;
#79 = DIRECTION ( 'NONE',  ( -0.000000000000000000, -1.000000000000000000, -0.000000000000000000 ) ) ;
#80 = PRESENTATION_LAYER_ASSIGNMENT (  '', '', ( #285 ) ) ;
#81 = SURFACE_STYLE_USAGE ( .BOTH. , #296 ) ;
#82 = DIRECTION ( 'NONE',  ( 0.000000000000000000, 1.000000000000000000, 0.000000000000000000 ) ) ;
#83 = FILL_AREA_STYLE ('',( #248 ) ) ;
#84 = PLANE ( 'NONE',  #270 ) ;
#85 = PRODUCT_CONTEXT ( 'NONE', #186, 'mechanical' ) ;
#86 = CIRCLE ( 'NONE', #126, 0.1562500000000000000 ) ;
#87 = CARTESIAN_POINT ( 'NONE',  ( 1.913510623667739463E-17, 0.000000000000000000, 0.1562500000000000000 ) ) ;
#88 = PRODUCT_RELATED_PRODUCT_CATEGORY ( 'part', '', ( #224 ) ) ;
#89 = FACE_OUTER_BOUND ( 'NONE', #39, .T. ) ;
#90 = PRODUCT_DEFINITION ( 'UNKNOWN', '', #30, #271 ) ;
#91 = VECTOR ( 'NONE', #106, 39.37007874015748143 ) ;
#92 = STYLED_ITEM ( 'NONE', ( #53 ), #298 ) ;
#93 = DIRECTION ( 'NONE',  ( 0.000000000000000000, 0.000000000000000000, -1.000000000000000000 ) ) ;
#94 = VERTEX_POINT ( 'NONE', #239 ) ;
#95 = COLOUR_RGB ( '',1.000000000000000000, 0.000000000000000000, 0.000000000000000000 ) ;
#96 = VERTEX_POINT ( 'NONE', #10 ) ;
#97 = DIRECTION ( 'NONE',  ( -3.498990854706726443E-17, 1.000000000000000000, -0.000000000000000000 ) ) ;
#98 =( LENGTH_UNIT ( ) NAMED_UNIT ( * ) SI_UNIT ( $, .METRE. ) );
#99 = EDGE_CURVE ( 'NONE', #8, #259, #29, .T. ) ;
#100 = FILL_AREA_STYLE ('',( #257 ) ) ;
#101 = CIRCLE ( 'NONE', #103, 0.1562500000000000833 ) ;
#102 = UNCERTAINTY_MEASURE_WITH_UNIT (LENGTH_MEASURE( 1.000000000000000082E-05 ), #163, 'distance_accuracy_value', 'NONE');
#103 = AXIS2_PLACEMENT_3D ( 'NONE', #41, #255, #45 ) ;
#104 = LENGTH_MEASURE_WITH_UNIT ( LENGTH_MEASURE( 0.02539999999999999897 ), #49 );
#105 = DIRECTION ( 'NONE',  ( 1.000000000000000000, 3.498990854706726443E-17, 0.000000000000000000 ) ) ;
#106 = DIRECTION ( 'NONE',  ( -3.498990854706726443E-17, 1.000000000000000000, -0.000000000000000000 ) ) ;
#107 = FILL_AREA_STYLE ('',( #242 ) ) ;
#108 = CARTESIAN_POINT ( 'NONE',  ( 0.000000000000000000, 1.250000000000000000, 0.000000000000000000 ) ) ;
#109 = EDGE_CURVE ( 'NONE', #191, #94, #258, .T. ) ;
#110 =( NAMED_UNIT ( * ) SI_UNIT ( $, .STERADIAN. ) SOLID_ANGLE_UNIT ( ) );
#111 = CARTESIAN_POINT ( 'NONE',  ( -0.1562500000000000000, 1.250000000000000000, 0.000000000000000000 ) ) ;
#112 = APPLICATION_PROTOCOL_DEFINITION ( 'draft international standard', 'automotive_design', 1998, #186 ) ;
#113 = LENGTH_MEASURE_WITH_UNIT ( LENGTH_MEASURE( 0.02539999999999999897 ), #98 );
#114 =( CONVERSION_BASED_UNIT ( 'INCH', #113 ) LENGTH_UNIT ( ) NAMED_UNIT ( #275 ) );
#115 = COLOUR_RGB ( '',1.000000000000000000, 0.000000000000000000, 0.000000000000000000 ) ;
#116 = DIRECTION ( 'NONE',  ( -1.000000000000000000, 0.000000000000000000, 0.000000000000000000 ) ) ;
#117 = UNCERTAINTY_MEASURE_WITH_UNIT (LENGTH_MEASURE( 1.000000000000000082E-05 ), #219, 'distance_accuracy_value', 'NONE');
#118 = CYLINDRICAL_SURFACE ( 'NONE', #37, 0.1562500000000000278 ) ;
#119 = EDGE_LOOP ( 'NONE', ( #206, #141 ) ) ;
#120 = AXIS2_PLACEMENT_3D ( 'NONE', #21, #278, #160 ) ;
#121 = PRESENTATION_LAYER_ASSIGNMENT (  '', '', ( #240 ) ) ;
#122 =( LENGTH_UNIT ( ) NAMED_UNIT ( * ) SI_UNIT ( $, .METRE. ) );
#123 = ADVANCED_FACE ( 'NONE', ( #234 ), #118, .T. ) ;
#124 = CARTESIAN_POINT ( 'NONE',  ( 0.000000000000000000, 0.000000000000000000, 0.000000000000000000 ) ) ;
#125 = LENGTH_MEASURE_WITH_UNIT ( LENGTH_MEASURE( 0.02539999999999999897 ), #149 );
#126 = AXIS2_PLACEMENT_3D ( 'NONE', #177, #252, #282 ) ;
#127 = MANIFOLD_SOLID_BREP ( 'Revolve - Tool Body (Straight Shanked)', #50 ) ;
#128 = DIMENSIONAL_EXPONENTS ( 1.000000000000000000, 0.000000000000000000, 0.000000000000000000, 0.000000000000000000, 0.000000000000000000, 0.000000000000000000, 0.000000000000000000 ) ;
#129 = DIRECTION ( 'NONE',  ( -1.000000000000000000, -3.498990854706726443E-17, 0.000000000000000000 ) ) ;
#130 =( CONVERSION_BASED_UNIT ( 'INCH', #169 ) LENGTH_UNIT ( ) NAMED_UNIT ( #18 ) );
#131 =( GEOMETRIC_REPRESENTATION_CONTEXT ( 3 ) GLOBAL_UNCERTAINTY_ASSIGNED_CONTEXT ( ( #102 ) ) GLOBAL_UNIT_ASSIGNED_CONTEXT ( ( #163, #212, #189 ) ) REPRESENTATION_CONTEXT ( 'NONE', 'WORKASPACE' ) );
#132 = AXIS2_PLACEMENT_3D ( 'NONE', #260, #9, #105 ) ;
#133 = VERTEX_POINT ( 'NONE', #59 ) ;
#134 = SURFACE_STYLE_USAGE ( .BOTH. , #40 ) ;
#135 = MECHANICAL_DESIGN_GEOMETRIC_PRESENTATION_REPRESENTATION (  '', ( #190 ), #235 ) ;
#136 = ORIENTED_EDGE ( 'NONE', *, *, #164, .T. ) ;
#137 = DIRECTION ( 'NONE',  ( -1.000000000000000000, 0.000000000000000000, 0.000000000000000000 ) ) ;
#138 = DIRECTION ( 'NONE',  ( 0.000000000000000000, 0.000000000000000000, -1.000000000000000000 ) ) ;
#139 = DIRECTION ( 'NONE',  ( 0.000000000000000000, 0.000000000000000000, -1.000000000000000000 ) ) ;
#140 =( CONVERSION_BASED_UNIT ( 'INCH', #104 ) LENGTH_UNIT ( ) NAMED_UNIT ( #204 ) );
#141 = ORIENTED_EDGE ( 'NONE', *, *, #154, .F. ) ;
#142 = EDGE_LOOP ( 'NONE', ( #66, #31, #238, #3 ) ) ;
#143 = APPLICATION_CONTEXT ( 'automotive_design' ) ;
#144 = DIRECTION ( 'NONE',  ( -0.000000000000000000, -1.000000000000000000, -0.000000000000000000 ) ) ;
#145 =( CONVERSION_BASED_UNIT ( 'INCH', #267 ) LENGTH_UNIT ( ) NAMED_UNIT ( #128 ) );
#146 = FACE_OUTER_BOUND ( 'NONE', #207, .T. ) ;
#147 = FACE_OUTER_BOUND ( 'NONE', #226, .T. ) ;
#148 = PRESENTATION_LAYER_ASSIGNMENT (  '', '', ( #190 ) ) ;
#149 =( LENGTH_UNIT ( ) NAMED_UNIT ( * ) SI_UNIT ( $, .METRE. ) );
#150 = DIRECTION ( 'NONE',  ( 1.000000000000000000, 0.000000000000000000, 0.000000000000000000 ) ) ;
#151 = DIRECTION ( 'NONE',  ( -1.000000000000000000, 0.000000000000000000, 0.000000000000000000 ) ) ;
#152 = AXIS2_PLACEMENT_3D ( 'NONE', #243, #82, #60 ) ;
#153 = ORIENTED_EDGE ( 'NONE', *, *, #72, .F. ) ;
#154 = EDGE_CURVE ( 'NONE', #133, #211, #68, .T. ) ;
#155 = VERTEX_POINT ( 'NONE', #217 ) ;
#156 = FILL_AREA_STYLE_COLOUR ( '', #183 ) ;
#157 = DIRECTION ( 'NONE',  ( -3.498990854706726443E-17, 1.000000000000000000, -0.000000000000000000 ) ) ;
#158 = CIRCLE ( 'NONE', #1, 0.1562500000000000833 ) ;
#159 = MECHANICAL_DESIGN_GEOMETRIC_PRESENTATION_REPRESENTATION (  '', ( #92 ), #272 ) ;
#160 = DIRECTION ( 'NONE',  ( 0.000000000000000000, 0.000000000000000000, -1.000000000000000000 ) ) ;
#161 = CARTESIAN_POINT ( 'NONE',  ( 0.000000000000000000, 1.250000000000000000, -0.1562500000000000000 ) ) ;
#162 = DIRECTION ( 'NONE',  ( -3.498990854706726443E-17, 1.000000000000000000, -0.000000000000000000 ) ) ;
#163 =( CONVERSION_BASED_UNIT ( 'INCH', #289 ) LENGTH_UNIT ( ) NAMED_UNIT ( #172 ) );
#164 = EDGE_CURVE ( 'NONE', #211, #133, #253, .T. ) ;
#165 = FILL_AREA_STYLE ('',( #262 ) ) ;
#166 = COLOUR_RGB ( '',0.7921568627450980005, 0.8196078431372548767, 0.9333333333333333481 ) ;
#167 = ADVANCED_FACE ( 'NONE', ( #146 ), #249, .T. ) ;
#168 = DIRECTION ( 'NONE',  ( -3.498990854706726443E-17, 1.000000000000000000, -0.000000000000000000 ) ) ;
#169 = LENGTH_MEASURE_WITH_UNIT ( LENGTH_MEASURE( 0.02539999999999999897 ), #36 );
#170 = CARTESIAN_POINT ( 'NONE',  ( 9.564794532282272738E-35, 1.250000000000000000, 0.000000000000000000 ) ) ;
#171 = APPLICATION_PROTOCOL_DEFINITION ( 'draft international standard', 'automotive_design', 1998, #143 ) ;
#172 = DIMENSIONAL_EXPONENTS ( 1.000000000000000000, 0.000000000000000000, 0.000000000000000000, 0.000000000000000000, 0.000000000000000000, 0.000000000000000000, 0.000000000000000000 ) ;
#173 = ADVANCED_FACE ( 'NONE', ( #147 ), #35, .T. ) ;
#174 = PRODUCT_DEFINITION_SHAPE ( 'NONE', 'NONE',  #90 ) ;
#175 = AXIS2_PLACEMENT_3D ( 'NONE', #185, #308, #93 ) ;
#176 = ORIENTED_EDGE ( 'NONE', *, *, #72, .T. ) ;
#177 = CARTESIAN_POINT ( 'NONE',  ( 0.000000000000000000, 1.250000000000000000, 0.000000000000000000 ) ) ;
#178 = ADVANCED_FACE ( 'NONE', ( #299 ), #84, .F. ) ;
#179 = CLOSED_SHELL ( 'NONE', ( #264, #167, #298, #221 ) ) ;
#180 =( NAMED_UNIT ( * ) PLANE_ANGLE_UNIT ( ) SI_UNIT ( $, .RADIAN. ) );
#181 = ORIENTED_EDGE ( 'NONE', *, *, #247, .T. ) ;
#182 = STYLED_ITEM ( 'NONE', ( #6 ), #22 ) ;
#183 = COLOUR_RGB ( '',1.000000000000000000, 0.000000000000000000, 0.000000000000000000 ) ;
#184 = ORIENTED_EDGE ( 'NONE', *, *, #2, .T. ) ;
#185 = CARTESIAN_POINT ( 'NONE',  ( 0.000000000000000000, 0.000000000000000000, 0.000000000000000000 ) ) ;
#186 = APPLICATION_CONTEXT ( 'automotive_design' ) ;
#187 = LINE ( 'NONE', #44, #15 ) ;
#188 = DIRECTION ( 'NONE',  ( -0.000000000000000000, -1.000000000000000000, -0.000000000000000000 ) ) ;
#189 =( NAMED_UNIT ( * ) SI_UNIT ( $, .STERADIAN. ) SOLID_ANGLE_UNIT ( ) );
#190 = STYLED_ITEM ( 'NONE', ( #245 ), #167 ) ;
#191 = VERTEX_POINT ( 'NONE', #87 ) ;
#192 = LENGTH_MEASURE_WITH_UNIT ( LENGTH_MEASURE( 0.02539999999999999897 ), #122 );
#193 = ORIENTED_EDGE ( 'NONE', *, *, #228, .F. ) ;
#194 = STYLED_ITEM ( 'NONE', ( #19 ), #221 ) ;
#195 =( NAMED_UNIT ( * ) PLANE_ANGLE_UNIT ( ) SI_UNIT ( $, .RADIAN. ) );
#196 = DIRECTION ( 'NONE',  ( -1.000000000000000000, 0.000000000000000000, 0.000000000000000000 ) ) ;
#197 = SURFACE_STYLE_FILL_AREA ( #83 ) ;
#198 = SURFACE_STYLE_USAGE ( .BOTH. , #301 ) ;
#199 = AXIS2_PLACEMENT_3D ( 'NONE', #62, #168, #303 ) ;
#200 = ORIENTED_EDGE ( 'NONE', *, *, #232, .F. ) ;
#201 = MECHANICAL_DESIGN_GEOMETRIC_PRESENTATION_REPRESENTATION (  '', ( #285 ), #265 ) ;
#202 = PRESENTATION_LAYER_ASSIGNMENT (  '', '', ( #92 ) ) ;
#203 = CARTESIAN_POINT ( 'NONE',  ( -0.1562500000000001110, 3.000000000000000444, 0.000000000000000000 ) ) ;
#204 = DIMENSIONAL_EXPONENTS ( 1.000000000000000000, 0.000000000000000000, 0.000000000000000000, 0.000000000000000000, 0.000000000000000000, 0.000000000000000000, 0.000000000000000000 ) ;
#205 = UNCERTAINTY_MEASURE_WITH_UNIT (LENGTH_MEASURE( 1.000000000000000082E-05 ), #145, 'distance_accuracy_value', 'NONE');
#206 = ORIENTED_EDGE ( 'NONE', *, *, #164, .F. ) ;
#207 = EDGE_LOOP ( 'NONE', ( #193, #233 ) ) ;
#208 =( NAMED_UNIT ( * ) SI_UNIT ( $, .STERADIAN. ) SOLID_ANGLE_UNIT ( ) );
#209 = COLOUR_RGB ( '',0.7921568627450980005, 0.8196078431372548767, 0.9333333333333333481 ) ;
#210 = CARTESIAN_POINT ( 'NONE',  ( 0.1562499999999999722, 3.000000000000000444, 1.913510623667739771E-17 ) ) ;
#211 = VERTEX_POINT ( 'NONE', #111 ) ;
#212 =( NAMED_UNIT ( * ) PLANE_ANGLE_UNIT ( ) SI_UNIT ( $, .RADIAN. ) );
#213 = CARTESIAN_POINT ( 'NONE',  ( 1.913510623667739463E-17, 1.250000000000000000, 0.1562500000000000000 ) ) ;
#214 = CARTESIAN_POINT ( 'NONE',  ( 0.000000000000000000, 0.000000000000000000, 0.000000000000000000 ) ) ;
#215 = DIRECTION ( 'NONE',  ( 0.000000000000000000, 0.000000000000000000, -1.000000000000000000 ) ) ;
#216 =( NAMED_UNIT ( * ) SI_UNIT ( $, .STERADIAN. ) SOLID_ANGLE_UNIT ( ) );
#217 = CARTESIAN_POINT ( 'NONE',  ( 0.1562500000000000000, 3.000000000000000444, 1.913510623667739771E-17 ) ) ;
#218 = DIRECTION ( 'NONE',  ( -0.000000000000000000, -1.000000000000000000, -0.000000000000000000 ) ) ;
#219 =( CONVERSION_BASED_UNIT ( 'INCH', #125 ) LENGTH_UNIT ( ) NAMED_UNIT ( #230 ) );
#220 = CARTESIAN_POINT ( 'NONE',  ( -6.123233995736772199E-17, 3.000000000000000444, 0.000000000000000000 ) ) ;
#221 = ADVANCED_FACE ( 'NONE', ( #89 ), #227, .T. ) ;
#222 = PRESENTATION_STYLE_ASSIGNMENT (( #81 ) ) ;
#223 = SURFACE_STYLE_USAGE ( .BOTH. , #63 ) ;
#224 = PRODUCT ( '00285', '00285', '', ( #85 ) ) ;
#225 = DIMENSIONAL_EXPONENTS ( 1.000000000000000000, 0.000000000000000000, 0.000000000000000000, 0.000000000000000000, 0.000000000000000000, 0.000000000000000000, 0.000000000000000000 ) ;
#226 = EDGE_LOOP ( 'NONE', ( #136, #184, #153, #200 ) ) ;
#227 = PLANE ( 'NONE',  #175 ) ;
#228 = EDGE_CURVE ( 'NONE', #259, #8, #86, .T. ) ;
#229 = ORIENTED_EDGE ( 'NONE', *, *, #228, .T. ) ;
#230 = DIMENSIONAL_EXPONENTS ( 1.000000000000000000, 0.000000000000000000, 0.000000000000000000, 0.000000000000000000, 0.000000000000000000, 0.000000000000000000, 0.000000000000000000 ) ;
#231 = CYLINDRICAL_SURFACE ( 'NONE', #236, 0.1562500000000000000 ) ;
#232 = EDGE_CURVE ( 'NONE', #211, #96, #254, .T. ) ;
#233 = ORIENTED_EDGE ( 'NONE', *, *, #99, .F. ) ;
#234 = FACE_OUTER_BOUND ( 'NONE', #142, .T. ) ;
#235 =( GEOMETRIC_REPRESENTATION_CONTEXT ( 3 ) GLOBAL_UNCERTAINTY_ASSIGNED_CONTEXT ( ( #117 ) ) GLOBAL_UNIT_ASSIGNED_CONTEXT ( ( #219, #246, #266 ) ) REPRESENTATION_CONTEXT ( 'NONE', 'WORKASPACE' ) );
#236 = AXIS2_PLACEMENT_3D ( 'NONE', #295, #218, #215 ) ;
#237 =( NAMED_UNIT ( * ) SI_UNIT ( $, .STERADIAN. ) SOLID_ANGLE_UNIT ( ) );
#238 = ORIENTED_EDGE ( 'NONE', *, *, #232, .T. ) ;
#239 = CARTESIAN_POINT ( 'NONE',  ( 0.000000000000000000, 0.000000000000000000, -0.1562500000000000000 ) ) ;
#240 = STYLED_ITEM ( 'NONE', ( #43 ), #264 ) ;
#241 = ORIENTED_EDGE ( 'NONE', *, *, #48, .T. ) ;
#242 = FILL_AREA_STYLE_COLOUR ( '', #47 ) ;
#243 = CARTESIAN_POINT ( 'NONE',  ( 0.000000000000000000, 1.250000000000000000, 0.000000000000000000 ) ) ;
#244 = EDGE_CURVE ( 'NONE', #94, #191, #61, .T. ) ;
#245 = PRESENTATION_STYLE_ASSIGNMENT (( #198 ) ) ;
#246 =( NAMED_UNIT ( * ) PLANE_ANGLE_UNIT ( ) SI_UNIT ( $, .RADIAN. ) );
#247 = EDGE_CURVE ( 'NONE', #155, #96, #101, .T. ) ;
#248 = FILL_AREA_STYLE_COLOUR ( '', #115 ) ;
#249 = PLANE ( 'NONE',  #152 ) ;
#250 = UNCERTAINTY_MEASURE_WITH_UNIT (LENGTH_MEASURE( 1.000000000000000082E-05 ), #130, 'distance_accuracy_value', 'NONE');
#251 = ORIENTED_EDGE ( 'NONE', *, *, #99, .T. ) ;
#252 = DIRECTION ( 'NONE',  ( -0.000000000000000000, -1.000000000000000000, -0.000000000000000000 ) ) ;
#253 = CIRCLE ( 'NONE', #199, 0.1562500000000000000 ) ;
#254 = LINE ( 'NONE', #203, #306 ) ;
#255 = DIRECTION ( 'NONE',  ( -3.498990854706726443E-17, 1.000000000000000000, -0.000000000000000000 ) ) ;
#256 =( LENGTH_UNIT ( ) NAMED_UNIT ( * ) SI_UNIT ( $, .METRE. ) );
#257 = FILL_AREA_STYLE_COLOUR ( '', #209 ) ;
#258 = CIRCLE ( 'NONE', #7, 0.1562500000000000000 ) ;
#259 = VERTEX_POINT ( 'NONE', #161 ) ;
#260 = CARTESIAN_POINT ( 'NONE',  ( 0.1562500000000000000, 3.000000000000000444, 0.000000000000000000 ) ) ;
#261 = SURFACE_STYLE_USAGE ( .BOTH. , #34 ) ;
#262 = FILL_AREA_STYLE_COLOUR ( '', #166 ) ;
#263 = CYLINDRICAL_SURFACE ( 'NONE', #38, 0.1562500000000000000 ) ;
#264 = ADVANCED_FACE ( 'NONE', ( #67 ), #231, .T. ) ;
#265 =( GEOMETRIC_REPRESENTATION_CONTEXT ( 3 ) GLOBAL_UNCERTAINTY_ASSIGNED_CONTEXT ( ( #250 ) ) GLOBAL_UNIT_ASSIGNED_CONTEXT ( ( #130, #64, #110 ) ) REPRESENTATION_CONTEXT ( 'NONE', 'WORKASPACE' ) );
#266 =( NAMED_UNIT ( * ) SI_UNIT ( $, .STERADIAN. ) SOLID_ANGLE_UNIT ( ) );
#267 = LENGTH_MEASURE_WITH_UNIT ( LENGTH_MEASURE( 0.02539999999999999897 ), #290 );
#268 = ADVANCED_FACE ( 'NONE', ( #11 ), #55, .F. ) ;
#269 = FILL_AREA_STYLE_COLOUR ( '', #95 ) ;
#270 = AXIS2_PLACEMENT_3D ( 'NONE', #170, #273, #129 ) ;
#271 = PRODUCT_DEFINITION_CONTEXT ( 'detailed design', #143, 'design' ) ;
#272 =( GEOMETRIC_REPRESENTATION_CONTEXT ( 3 ) GLOBAL_UNCERTAINTY_ASSIGNED_CONTEXT ( ( #51 ) ) GLOBAL_UNIT_ASSIGNED_CONTEXT ( ( #32, #287, #216 ) ) REPRESENTATION_CONTEXT ( 'NONE', 'WORKASPACE' ) );
#273 = DIRECTION ( 'NONE',  ( -3.498990854706726443E-17, 1.000000000000000000, 0.000000000000000000 ) ) ;
#274 = DIRECTION ( 'NONE',  ( 0.000000000000000000, 0.000000000000000000, 1.000000000000000000 ) ) ;
#275 = DIMENSIONAL_EXPONENTS ( 1.000000000000000000, 0.000000000000000000, 0.000000000000000000, 0.000000000000000000, 0.000000000000000000, 0.000000000000000000, 0.000000000000000000 ) ;
#276 = MECHANICAL_DESIGN_GEOMETRIC_PRESENTATION_REPRESENTATION (  '', ( #194 ), #12 ) ;
#277 = ORIENTED_EDGE ( 'NONE', *, *, #291, .T. ) ;
#278 = DIRECTION ( 'NONE',  ( -0.000000000000000000, -1.000000000000000000, -0.000000000000000000 ) ) ;
#279 = AXIS2_PLACEMENT_3D ( 'NONE', #4, #294, #151 ) ;
#280 = ORIENTED_EDGE ( 'NONE', *, *, #109, .T. ) ;
#281 = FILL_AREA_STYLE ('',( #156 ) ) ;
#282 = DIRECTION ( 'NONE',  ( 0.000000000000000000, 0.000000000000000000, -1.000000000000000000 ) ) ;
#283 = LINE ( 'NONE', #210, #91 ) ;
#284 = SURFACE_SIDE_STYLE ('',( #76 ) ) ;
#285 = STYLED_ITEM ( 'NONE', ( #222 ), #127 ) ;
#286 =( NAMED_UNIT ( * ) PLANE_ANGLE_UNIT ( ) SI_UNIT ( $, .RADIAN. ) );
#287 =( NAMED_UNIT ( * ) PLANE_ANGLE_UNIT ( ) SI_UNIT ( $, .RADIAN. ) );
#288 = EDGE_LOOP ( 'NONE', ( #229, #277, #54, #70 ) ) ;
#289 = LENGTH_MEASURE_WITH_UNIT ( LENGTH_MEASURE( 0.02539999999999999897 ), #256 );
#290 =( LENGTH_UNIT ( ) NAMED_UNIT ( * ) SI_UNIT ( $, .METRE. ) );
#291 = EDGE_CURVE ( 'NONE', #8, #191, #5, .T. ) ;
#292 = AXIS2_PLACEMENT_3D ( 'NONE', #108, #188, #28 ) ;
#293 = VECTOR ( 'NONE', #77, 39.37007874015748143 ) ;
#294 = DIRECTION ( 'NONE',  ( -3.498990854706726443E-17, 1.000000000000000000, -0.000000000000000000 ) ) ;
#295 = CARTESIAN_POINT ( 'NONE',  ( 0.000000000000000000, 0.000000000000000000, 0.000000000000000000 ) ) ;
#296 = SURFACE_SIDE_STYLE ('',( #16 ) ) ;
#297 = CARTESIAN_POINT ( 'NONE',  ( 0.000000000000000000, 0.000000000000000000, 0.000000000000000000 ) ) ;
#298 = ADVANCED_FACE ( 'NONE', ( #58 ), #263, .T. ) ;
#299 = FACE_OUTER_BOUND ( 'NONE', #119, .T. ) ;
#300 = PRESENTATION_LAYER_ASSIGNMENT (  '', '', ( #182 ) ) ;
#301 = SURFACE_SIDE_STYLE ('',( #14 ) ) ;
#302 = SHAPE_DEFINITION_REPRESENTATION ( #174, #305 ) ;
#303 = DIRECTION ( 'NONE',  ( -1.000000000000000000, 0.000000000000000000, 0.000000000000000000 ) ) ;
#304 = ORIENTED_EDGE ( 'NONE', *, *, #109, .F. ) ;
#305 = ADVANCED_BREP_SHAPE_REPRESENTATION ( '00285', ( #22, #127, #307 ), #69 ) ;
#306 = VECTOR ( 'NONE', #157, 39.37007874015748143 ) ;
#307 = AXIS2_PLACEMENT_3D ( 'NONE', #297, #274, #150 ) ;
#308 = DIRECTION ( 'NONE',  ( 0.000000000000000000, -1.000000000000000000, -0.000000000000000000 ) ) ;
#309 = UNCERTAINTY_MEASURE_WITH_UNIT (LENGTH_MEASURE( 1.000000000000000082E-05 ), #114, 'distance_accuracy_value', 'NONE');
ENDSEC;
END-ISO-10303-21;
