ISO-10303-21;
HEADER;
FILE_DESCRIPTION (( 'STEP AP214' ),
    '1' );
FILE_NAME ('82262W.STEP',
    '2023-06-23T04:34:38',
    ( '' ),
    ( '' ),
    'SwSTEP 2.0',
    'SolidWorks 2023',
    '' );
FILE_SCHEMA (( 'AUTOMOTIVE_DESIGN' ));
ENDSEC;

DATA;
#1 =( LENGTH_UNIT ( ) NAMED_UNIT ( * ) SI_UNIT ( $, .METRE. ) );
#2 = PRESENTATION_LAYER_ASSIGNMENT (  '', '', ( #161 ) ) ;
#3 = ADVANCED_FACE ( 'NONE', ( #150 ), #291, .T. ) ;
#4 =( NAMED_UNIT ( * ) SI_UNIT ( $, .STERADIAN. ) SOLID_ANGLE_UNIT ( ) );
#5 = CARTESIAN_POINT ( 'NONE',  ( 5.510910596163089556E-16, 2.000000000000000000, 0.000000000000000000 ) ) ;
#6 = MANIFOLD_SOLID_BREP ( 'Revolve - Tool Body (Straight Shanked)', #308 ) ;
#7 = CARTESIAN_POINT ( 'NONE',  ( 0.000000000000000000, 0.000000000000000000, 0.000000000000000000 ) ) ;
#8 =( GEOMETRIC_REPRESENTATION_CONTEXT ( 3 ) GLOBAL_UNCERTAINTY_ASSIGNED_CONTEXT ( ( #68 ) ) GLOBAL_UNIT_ASSIGNED_CONTEXT ( ( #55, #106, #178 ) ) REPRESENTATION_CONTEXT ( 'NONE', 'WORKASPACE' ) );
#9 = PRESENTATION_STYLE_ASSIGNMENT (( #225 ) ) ;
#10 = DIRECTION ( 'NONE',  ( -0.000000000000000000, -1.000000000000000000, -0.000000000000000000 ) ) ;
#11 = ADVANCED_FACE ( 'NONE', ( #274 ), #250, .T. ) ;
#12 = CARTESIAN_POINT ( 'NONE',  ( 0.000000000000000000, 0.3750000000000002220, 0.000000000000000000 ) ) ;
#13 = FACE_OUTER_BOUND ( 'NONE', #288, .T. ) ;
#14 = FACE_OUTER_BOUND ( 'NONE', #76, .T. ) ;
#15 =( GEOMETRIC_REPRESENTATION_CONTEXT ( 3 ) GLOBAL_UNCERTAINTY_ASSIGNED_CONTEXT ( ( #187 ) ) GLOBAL_UNIT_ASSIGNED_CONTEXT ( ( #220, #32, #4 ) ) REPRESENTATION_CONTEXT ( 'NONE', 'WORKASPACE' ) );
#16 = ADVANCED_FACE ( 'NONE', ( #222 ), #37, .T. ) ;
#17 = AXIS2_PLACEMENT_3D ( 'NONE', #253, #10, #107 ) ;
#18 = SURFACE_STYLE_FILL_AREA ( #112 ) ;
#19 = DIRECTION ( 'NONE',  ( -0.000000000000000000, -1.000000000000000000, -0.000000000000000000 ) ) ;
#20 = FILL_AREA_STYLE_COLOUR ( '', #100 ) ;
#21 = SURFACE_STYLE_FILL_AREA ( #238 ) ;
#22 = ORIENTED_EDGE ( 'NONE', *, *, #148, .T. ) ;
#23 = APPLICATION_CONTEXT ( 'automotive_design' ) ;
#24 = EDGE_LOOP ( 'NONE', ( #172, #240 ) ) ;
#25 = CARTESIAN_POINT ( 'NONE',  ( 0.000000000000000000, 0.000000000000000000, 0.000000000000000000 ) ) ;
#26 = PRESENTATION_STYLE_ASSIGNMENT (( #53 ) ) ;
#27 = VECTOR ( 'NONE', #88, 39.37007874015748143 ) ;
#28 = LENGTH_MEASURE_WITH_UNIT ( LENGTH_MEASURE( 0.02539999999999999897 ), #1 );
#29 = FILL_AREA_STYLE_COLOUR ( '', #243 ) ;
#30 = CIRCLE ( 'NONE', #231, 0.1249999999999994865 ) ;
#31 = DIRECTION ( 'NONE',  ( -1.000000000000000000, 0.000000000000000000, 0.000000000000000000 ) ) ;
#32 =( NAMED_UNIT ( * ) PLANE_ANGLE_UNIT ( ) SI_UNIT ( $, .RADIAN. ) );
#33 = EDGE_CURVE ( 'NONE', #239, #118, #205, .T. ) ;
#34 = DIRECTION ( 'NONE',  ( -1.000000000000000000, 5.463695987328526437E-16, 0.000000000000000000 ) ) ;
#35 = SURFACE_SIDE_STYLE ('',( #18 ) ) ;
#36 = MECHANICAL_DESIGN_GEOMETRIC_PRESENTATION_REPRESENTATION (  '', ( #216 ), #149 ) ;
#37 = PLANE ( 'NONE',  #247 ) ;
#38 = CARTESIAN_POINT ( 'NONE',  ( 0.1250000000000000278, 2.000000000000000000, 1.530808498934189968E-17 ) ) ;
#39 =( LENGTH_UNIT ( ) NAMED_UNIT ( * ) SI_UNIT ( $, .METRE. ) );
#40 =( NAMED_UNIT ( * ) SI_UNIT ( $, .STERADIAN. ) SOLID_ANGLE_UNIT ( ) );
#41 = EDGE_CURVE ( 'NONE', #171, #196, #157, .T. ) ;
#42 = SURFACE_STYLE_USAGE ( .BOTH. , #35 ) ;
#43 = CARTESIAN_POINT ( 'NONE',  ( 0.000000000000000000, 0.000000000000000000, -0.1250000000000000000 ) ) ;
#44 = CARTESIAN_POINT ( 'NONE',  ( 0.000000000000000000, 0.000000000000000000, -0.1250000000000000000 ) ) ;
#45 = FACE_OUTER_BOUND ( 'NONE', #144, .T. ) ;
#46 =( CONVERSION_BASED_UNIT ( 'INCH', #141 ) LENGTH_UNIT ( ) NAMED_UNIT ( #64 ) );
#47 = COLOUR_RGB ( '',1.000000000000000000, 0.000000000000000000, 0.000000000000000000 ) ;
#48 = ORIENTED_EDGE ( 'NONE', *, *, #49, .F. ) ;
#49 = EDGE_CURVE ( 'NONE', #97, #118, #86, .T. ) ;
#50 = ORIENTED_EDGE ( 'NONE', *, *, #251, .F. ) ;
#51 = ORIENTED_EDGE ( 'NONE', *, *, #148, .F. ) ;
#52 = MECHANICAL_DESIGN_GEOMETRIC_PRESENTATION_REPRESENTATION (  '', ( #152 ), #176 ) ;
#53 = SURFACE_STYLE_USAGE ( .BOTH. , #218 ) ;
#54 = AXIS2_PLACEMENT_3D ( 'NONE', #189, #111, #181 ) ;
#55 =( CONVERSION_BASED_UNIT ( 'INCH', #125 ) LENGTH_UNIT ( ) NAMED_UNIT ( #234 ) );
#56 = DIRECTION ( 'NONE',  ( 3.391329597638825025E-16, 1.000000000000000000, -0.000000000000000000 ) ) ;
#57 = UNCERTAINTY_MEASURE_WITH_UNIT (LENGTH_MEASURE( 1.000000000000000082E-05 ), #115, 'distance_accuracy_value', 'NONE');
#58 = LENGTH_MEASURE_WITH_UNIT ( LENGTH_MEASURE( 0.02539999999999999897 ), #297 );
#59 = PRODUCT_RELATED_PRODUCT_CATEGORY ( 'part', '', ( #154 ) ) ;
#60 = DIRECTION ( 'NONE',  ( -0.000000000000000000, -1.000000000000000000, -0.000000000000000000 ) ) ;
#61 = CIRCLE ( 'NONE', #17, 0.1250000000000000000 ) ;
#62 = EDGE_CURVE ( 'NONE', #145, #122, #81, .T. ) ;
#63 = CARTESIAN_POINT ( 'NONE',  ( 0.000000000000000000, 0.3750000000000002220, 0.000000000000000000 ) ) ;
#64 = DIMENSIONAL_EXPONENTS ( 1.000000000000000000, 0.000000000000000000, 0.000000000000000000, 0.000000000000000000, 0.000000000000000000, 0.000000000000000000, 0.000000000000000000 ) ;
#65 = LINE ( 'NONE', #158, #109 ) ;
#66 = AXIS2_PLACEMENT_3D ( 'NONE', #165, #210, #283 ) ;
#67 = EDGE_CURVE ( 'NONE', #171, #145, #65, .T. ) ;
#68 = UNCERTAINTY_MEASURE_WITH_UNIT (LENGTH_MEASURE( 1.000000000000000082E-05 ), #55, 'distance_accuracy_value', 'NONE');
#69 =( CONVERSION_BASED_UNIT ( 'INCH', #304 ) LENGTH_UNIT ( ) NAMED_UNIT ( #276 ) );
#70 = LINE ( 'NONE', #138, #27 ) ;
#71 = AXIS2_PLACEMENT_3D ( 'NONE', #7, #105, #104 ) ;
#72 = ORIENTED_EDGE ( 'NONE', *, *, #268, .F. ) ;
#73 = AXIS2_PLACEMENT_3D ( 'NONE', #25, #117, #212 ) ;
#74 = DIRECTION ( 'NONE',  ( -1.000000000000000000, 0.000000000000000000, 0.000000000000000000 ) ) ;
#75 = ORIENTED_EDGE ( 'NONE', *, *, #67, .T. ) ;
#76 = EDGE_LOOP ( 'NONE', ( #289, #75, #50, #267 ) ) ;
#77 =( GEOMETRIC_REPRESENTATION_CONTEXT ( 3 ) GLOBAL_UNCERTAINTY_ASSIGNED_CONTEXT ( ( #91 ) ) GLOBAL_UNIT_ASSIGNED_CONTEXT ( ( #155, #226, #233 ) ) REPRESENTATION_CONTEXT ( 'NONE', 'WORKASPACE' ) );
#78 = SURFACE_SIDE_STYLE ('',( #292 ) ) ;
#79 = DIRECTION ( 'NONE',  ( -0.000000000000000000, -1.000000000000000000, -0.000000000000000000 ) ) ;
#80 = CLOSED_SHELL ( 'NONE', ( #101, #16, #3, #156 ) ) ;
#81 = CIRCLE ( 'NONE', #124, 0.1250000000000000000 ) ;
#82 = SURFACE_STYLE_FILL_AREA ( #294 ) ;
#83 = CARTESIAN_POINT ( 'NONE',  ( -0.1249999999999989453, 2.000000000000000000, 0.000000000000000000 ) ) ;
#84 = CARTESIAN_POINT ( 'NONE',  ( 0.000000000000000000, 0.3750000000000002220, 0.000000000000000000 ) ) ;
#85 = CYLINDRICAL_SURFACE ( 'NONE', #271, 0.1250000000000000000 ) ;
#86 = LINE ( 'NONE', #160, #198 ) ;
#87 = STYLED_ITEM ( 'NONE', ( #175 ), #6 ) ;
#88 = DIRECTION ( 'NONE',  ( 3.391329597638825025E-16, 1.000000000000000000, -0.000000000000000000 ) ) ;
#89 = PRODUCT_DEFINITION ( 'UNKNOWN', '', #272, #263 ) ;
#90 =( LENGTH_UNIT ( ) NAMED_UNIT ( * ) SI_UNIT ( $, .METRE. ) );
#91 = UNCERTAINTY_MEASURE_WITH_UNIT (LENGTH_MEASURE( 1.000000000000000082E-05 ), #155, 'distance_accuracy_value', 'NONE');
#92 = SURFACE_SIDE_STYLE ('',( #21 ) ) ;
#93 = EDGE_LOOP ( 'NONE', ( #166, #197 ) ) ;
#94 = VECTOR ( 'NONE', #19, 39.37007874015748143 ) ;
#95 = FILL_AREA_STYLE ('',( #242 ) ) ;
#96 = AXIS2_PLACEMENT_3D ( 'NONE', #5, #102, #74 ) ;
#97 = VERTEX_POINT ( 'NONE', #133 ) ;
#98 = ORIENTED_EDGE ( 'NONE', *, *, #33, .F. ) ;
#99 = EDGE_CURVE ( 'NONE', #196, #122, #255, .T. ) ;
#100 = COLOUR_RGB ( '',1.000000000000000000, 0.000000000000000000, 0.000000000000000000 ) ;
#101 = ADVANCED_FACE ( 'NONE', ( #14 ), #85, .T. ) ;
#102 = DIRECTION ( 'NONE',  ( 3.391329597638825025E-16, 1.000000000000000000, -0.000000000000000000 ) ) ;
#103 = UNCERTAINTY_MEASURE_WITH_UNIT (LENGTH_MEASURE( 1.000000000000000082E-05 ), #69, 'distance_accuracy_value', 'NONE');
#104 = DIRECTION ( 'NONE',  ( 0.000000000000000000, 0.000000000000000000, -1.000000000000000000 ) ) ;
#105 = DIRECTION ( 'NONE',  ( -0.000000000000000000, -1.000000000000000000, -0.000000000000000000 ) ) ;
#106 =( NAMED_UNIT ( * ) PLANE_ANGLE_UNIT ( ) SI_UNIT ( $, .RADIAN. ) );
#107 = DIRECTION ( 'NONE',  ( 0.000000000000000000, 0.000000000000000000, -1.000000000000000000 ) ) ;
#108 =( CONVERSION_BASED_UNIT ( 'INCH', #135 ) LENGTH_UNIT ( ) NAMED_UNIT ( #131 ) );
#109 = VECTOR ( 'NONE', #232, 39.37007874015748143 ) ;
#110 = MECHANICAL_DESIGN_GEOMETRIC_PRESENTATION_REPRESENTATION (  '', ( #142 ), #136 ) ;
#111 = DIRECTION ( 'NONE',  ( 0.000000000000000000, 0.000000000000000000, 1.000000000000000000 ) ) ;
#112 = FILL_AREA_STYLE ('',( #256 ) ) ;
#113 = SURFACE_STYLE_USAGE ( .BOTH. , #92 ) ;
#114 = ADVANCED_FACE ( 'NONE', ( #257 ), #235, .F. ) ;
#115 =( CONVERSION_BASED_UNIT ( 'INCH', #28 ) LENGTH_UNIT ( ) NAMED_UNIT ( #182 ) );
#116 = UNCERTAINTY_MEASURE_WITH_UNIT (LENGTH_MEASURE( 1.000000000000000082E-05 ), #46, 'distance_accuracy_value', 'NONE');
#117 = DIRECTION ( 'NONE',  ( 0.000000000000000000, -1.000000000000000000, -0.000000000000000000 ) ) ;
#118 = VERTEX_POINT ( 'NONE', #83 ) ;
#119 = CYLINDRICAL_SURFACE ( 'NONE', #96, 0.1249999999999997363 ) ;
#120 = AXIS2_PLACEMENT_3D ( 'NONE', #186, #282, #298 ) ;
#121 = ORIENTED_EDGE ( 'NONE', *, *, #305, .T. ) ;
#122 = VERTEX_POINT ( 'NONE', #44 ) ;
#123 = SURFACE_STYLE_USAGE ( .BOTH. , #78 ) ;
#124 = AXIS2_PLACEMENT_3D ( 'NONE', #137, #60, #278 ) ;
#125 = LENGTH_MEASURE_WITH_UNIT ( LENGTH_MEASURE( 0.02539999999999999897 ), #249 );
#126 = CARTESIAN_POINT ( 'NONE',  ( 5.510910596163089556E-16, 2.000000000000000000, 0.000000000000000000 ) ) ;
#127 = SURFACE_SIDE_STYLE ('',( #82 ) ) ;
#128 = PRESENTATION_STYLE_ASSIGNMENT (( #42 ) ) ;
#129 = CARTESIAN_POINT ( 'NONE',  ( 5.510910596163089556E-16, 2.000000000000000000, 0.000000000000000000 ) ) ;
#130 = EDGE_CURVE ( 'NONE', #169, #239, #70, .T. ) ;
#131 = DIMENSIONAL_EXPONENTS ( 1.000000000000000000, 0.000000000000000000, 0.000000000000000000, 0.000000000000000000, 0.000000000000000000, 0.000000000000000000, 0.000000000000000000 ) ;
#132 = DIRECTION ( 'NONE',  ( 0.000000000000000000, -0.000000000000000000, 1.000000000000000000 ) ) ;
#133 = CARTESIAN_POINT ( 'NONE',  ( -0.1250000000000000000, 0.3750000000000002776, 0.000000000000000000 ) ) ;
#134 = PRESENTATION_LAYER_ASSIGNMENT (  '', '', ( #152 ) ) ;
#135 = LENGTH_MEASURE_WITH_UNIT ( LENGTH_MEASURE( 0.02539999999999999897 ), #39 );
#136 =( GEOMETRIC_REPRESENTATION_CONTEXT ( 3 ) GLOBAL_UNCERTAINTY_ASSIGNED_CONTEXT ( ( #103 ) ) GLOBAL_UNIT_ASSIGNED_CONTEXT ( ( #69, #295, #258 ) ) REPRESENTATION_CONTEXT ( 'NONE', 'WORKASPACE' ) );
#137 = CARTESIAN_POINT ( 'NONE',  ( 0.000000000000000000, 0.000000000000000000, 0.000000000000000000 ) ) ;
#138 = CARTESIAN_POINT ( 'NONE',  ( 0.1250000000000002776, 2.000000000000000000, 1.530808498934188427E-17 ) ) ;
#139 = SURFACE_STYLE_USAGE ( .BOTH. , #200 ) ;
#140 = APPLICATION_PROTOCOL_DEFINITION ( 'draft international standard', 'automotive_design', 1998, #143 ) ;
#141 = LENGTH_MEASURE_WITH_UNIT ( LENGTH_MEASURE( 0.02539999999999999897 ), #90 );
#142 = STYLED_ITEM ( 'NONE', ( #259 ), #156 ) ;
#143 = APPLICATION_CONTEXT ( 'automotive_design' ) ;
#144 = EDGE_LOOP ( 'NONE', ( #285, #22, #199, #98 ) ) ;
#145 = VERTEX_POINT ( 'NONE', #236 ) ;
#146 = STYLED_ITEM ( 'NONE', ( #9 ), #16 ) ;
#147 = ORIENTED_EDGE ( 'NONE', *, *, #62, .F. ) ;
#148 = EDGE_CURVE ( 'NONE', #169, #97, #237, .T. ) ;
#149 =( GEOMETRIC_REPRESENTATION_CONTEXT ( 3 ) GLOBAL_UNCERTAINTY_ASSIGNED_CONTEXT ( ( #116 ) ) GLOBAL_UNIT_ASSIGNED_CONTEXT ( ( #46, #191, #261 ) ) REPRESENTATION_CONTEXT ( 'NONE', 'WORKASPACE' ) );
#150 = FACE_OUTER_BOUND ( 'NONE', #307, .T. ) ;
#151 = LENGTH_MEASURE_WITH_UNIT ( LENGTH_MEASURE( 0.02539999999999999897 ), #269 );
#152 = STYLED_ITEM ( 'NONE', ( #26 ), #3 ) ;
#153 = CIRCLE ( 'NONE', #281, 0.1250000000000000000 ) ;
#154 = PRODUCT ( '82262W', '82262W', '', ( #277 ) ) ;
#155 =( CONVERSION_BASED_UNIT ( 'INCH', #58 ) LENGTH_UNIT ( ) NAMED_UNIT ( #229 ) );
#156 = ADVANCED_FACE ( 'NONE', ( #190 ), #303, .T. ) ;
#157 = CIRCLE ( 'NONE', #252, 0.1250000000000000000 ) ;
#158 = CARTESIAN_POINT ( 'NONE',  ( 1.530808498934191509E-17, 0.000000000000000000, 0.1250000000000000000 ) ) ;
#159 = CARTESIAN_POINT ( 'NONE',  ( 0.000000000000000000, 0.000000000000000000, 0.000000000000000000 ) ) ;
#160 = CARTESIAN_POINT ( 'NONE',  ( -0.1249999999999991951, 2.000000000000000000, 0.000000000000000000 ) ) ;
#161 = STYLED_ITEM ( 'NONE', ( #128 ), #101 ) ;
#162 = CARTESIAN_POINT ( 'NONE',  ( 5.510910596163089556E-16, 2.000000000000000000, 0.000000000000000000 ) ) ;
#163 = APPLICATION_PROTOCOL_DEFINITION ( 'draft international standard', 'automotive_design', 1998, #23 ) ;
#164 = CARTESIAN_POINT ( 'NONE',  ( 1.530808498934191509E-17, 0.3750000000000002220, 0.1250000000000000000 ) ) ;
#165 = CARTESIAN_POINT ( 'NONE',  ( 0.000000000000000000, 0.3750000000000002220, 0.000000000000000000 ) ) ;
#166 = ORIENTED_EDGE ( 'NONE', *, *, #268, .T. ) ;
#167 = MECHANICAL_DESIGN_GEOMETRIC_PRESENTATION_REPRESENTATION (  '', ( #161 ), #286 ) ;
#168 = PRESENTATION_LAYER_ASSIGNMENT (  '', '', ( #216 ) ) ;
#169 = VERTEX_POINT ( 'NONE', #241 ) ;
#170 = ORIENTED_EDGE ( 'NONE', *, *, #305, .F. ) ;
#171 = VERTEX_POINT ( 'NONE', #164 ) ;
#172 = ORIENTED_EDGE ( 'NONE', *, *, #251, .T. ) ;
#173 = DIRECTION ( 'NONE',  ( -1.000000000000000000, 0.000000000000000000, 0.000000000000000000 ) ) ;
#174 = UNCERTAINTY_MEASURE_WITH_UNIT (LENGTH_MEASURE( 1.000000000000000082E-05 ), #108, 'distance_accuracy_value', 'NONE');
#175 = PRESENTATION_STYLE_ASSIGNMENT (( #123 ) ) ;
#176 =( GEOMETRIC_REPRESENTATION_CONTEXT ( 3 ) GLOBAL_UNCERTAINTY_ASSIGNED_CONTEXT ( ( #57 ) ) GLOBAL_UNIT_ASSIGNED_CONTEXT ( ( #115, #219, #245 ) ) REPRESENTATION_CONTEXT ( 'NONE', 'WORKASPACE' ) );
#177 = FILL_AREA_STYLE ('',( #29 ) ) ;
#178 =( NAMED_UNIT ( * ) SI_UNIT ( $, .STERADIAN. ) SOLID_ANGLE_UNIT ( ) );
#179 = DIRECTION ( 'NONE',  ( 3.391329597638825025E-16, 1.000000000000000000, -0.000000000000000000 ) ) ;
#180 = CIRCLE ( 'NONE', #202, 0.1250000000000000000 ) ;
#181 = DIRECTION ( 'NONE',  ( 1.000000000000000000, 0.000000000000000000, 0.000000000000000000 ) ) ;
#182 = DIMENSIONAL_EXPONENTS ( 1.000000000000000000, 0.000000000000000000, 0.000000000000000000, 0.000000000000000000, 0.000000000000000000, 0.000000000000000000, 0.000000000000000000 ) ;
#183 = DIRECTION ( 'NONE',  ( 3.391329597638825025E-16, 1.000000000000000000, -0.000000000000000000 ) ) ;
#184 =( NAMED_UNIT ( * ) PLANE_ANGLE_UNIT ( ) SI_UNIT ( $, .RADIAN. ) );
#185 = ADVANCED_BREP_SHAPE_REPRESENTATION ( '82262W', ( #223, #6, #54 ), #8 ) ;
#186 = CARTESIAN_POINT ( 'NONE',  ( 0.1250000000000000278, 2.000000000000000000, 0.000000000000000000 ) ) ;
#187 = UNCERTAINTY_MEASURE_WITH_UNIT (LENGTH_MEASURE( 1.000000000000000082E-05 ), #220, 'distance_accuracy_value', 'NONE');
#188 =( LENGTH_UNIT ( ) NAMED_UNIT ( * ) SI_UNIT ( $, .METRE. ) );
#189 = CARTESIAN_POINT ( 'NONE',  ( 0.000000000000000000, 0.000000000000000000, 0.000000000000000000 ) ) ;
#190 = FACE_OUTER_BOUND ( 'NONE', #24, .T. ) ;
#191 =( NAMED_UNIT ( * ) PLANE_ANGLE_UNIT ( ) SI_UNIT ( $, .RADIAN. ) );
#192 = ORIENTED_EDGE ( 'NONE', *, *, #67, .F. ) ;
#193 = COLOUR_RGB ( '',1.000000000000000000, 0.000000000000000000, 0.000000000000000000 ) ;
#194 = SURFACE_STYLE_FILL_AREA ( #95 ) ;
#195 = FILL_AREA_STYLE ('',( #215 ) ) ;
#196 = VERTEX_POINT ( 'NONE', #306 ) ;
#197 = ORIENTED_EDGE ( 'NONE', *, *, #33, .T. ) ;
#198 = VECTOR ( 'NONE', #183, 39.37007874015748143 ) ;
#199 = ORIENTED_EDGE ( 'NONE', *, *, #49, .T. ) ;
#200 = SURFACE_SIDE_STYLE ('',( #246 ) ) ;
#201 = FILL_AREA_STYLE_COLOUR ( '', #193 ) ;
#202 = AXIS2_PLACEMENT_3D ( 'NONE', #12, #270, #34 ) ;
#203 = CARTESIAN_POINT ( 'NONE',  ( 7.188197774888196297E-33, 0.3750000000000002220, 0.000000000000000000 ) ) ;
#204 = PLANE ( 'NONE',  #221 ) ;
#205 = CIRCLE ( 'NONE', #260, 0.1249999999999994865 ) ;
#206 = PRESENTATION_LAYER_ASSIGNMENT (  '', '', ( #142 ) ) ;
#207 = DIRECTION ( 'NONE',  ( 0.000000000000000000, 0.000000000000000000, -1.000000000000000000 ) ) ;
#208 = DIRECTION ( 'NONE',  ( -0.000000000000000000, -1.000000000000000000, -0.000000000000000000 ) ) ;
#209 = PRESENTATION_LAYER_ASSIGNMENT (  '', '', ( #146 ) ) ;
#210 = DIRECTION ( 'NONE',  ( 3.391329597638825025E-16, 1.000000000000000000, -0.000000000000000000 ) ) ;
#211 = ADVANCED_FACE ( 'NONE', ( #45 ), #119, .T. ) ;
#212 = DIRECTION ( 'NONE',  ( 0.000000000000000000, 0.000000000000000000, -1.000000000000000000 ) ) ;
#213 = ORIENTED_EDGE ( 'NONE', *, *, #130, .T. ) ;
#214 = AXIS2_PLACEMENT_3D ( 'NONE', #126, #56, #31 ) ;
#215 = FILL_AREA_STYLE_COLOUR ( '', #248 ) ;
#216 = STYLED_ITEM ( 'NONE', ( #284 ), #223 ) ;
#217 = EDGE_LOOP ( 'NONE', ( #309, #265 ) ) ;
#218 = SURFACE_SIDE_STYLE ('',( #194 ) ) ;
#219 =( NAMED_UNIT ( * ) PLANE_ANGLE_UNIT ( ) SI_UNIT ( $, .RADIAN. ) );
#220 =( CONVERSION_BASED_UNIT ( 'INCH', #151 ) LENGTH_UNIT ( ) NAMED_UNIT ( #296 ) );
#221 = AXIS2_PLACEMENT_3D ( 'NONE', #203, #227, #224 ) ;
#222 = FACE_OUTER_BOUND ( 'NONE', #217, .T. ) ;
#223 = MANIFOLD_SOLID_BREP ( 'Revolve - Cutting Edge', #80 ) ;
#224 = DIRECTION ( 'NONE',  ( -1.000000000000000000, 3.391329597638825025E-16, 0.000000000000000000 ) ) ;
#225 = SURFACE_STYLE_USAGE ( .BOTH. , #127 ) ;
#226 =( NAMED_UNIT ( * ) PLANE_ANGLE_UNIT ( ) SI_UNIT ( $, .RADIAN. ) );
#227 = DIRECTION ( 'NONE',  ( 3.391329597638825025E-16, 1.000000000000000000, -0.000000000000000000 ) ) ;
#228 = EDGE_CURVE ( 'NONE', #196, #171, #153, .T. ) ;
#229 = DIMENSIONAL_EXPONENTS ( 1.000000000000000000, 0.000000000000000000, 0.000000000000000000, 0.000000000000000000, 0.000000000000000000, 0.000000000000000000, 0.000000000000000000 ) ;
#230 = DIRECTION ( 'NONE',  ( 3.391329597638825025E-16, 1.000000000000000000, -0.000000000000000000 ) ) ;
#231 = AXIS2_PLACEMENT_3D ( 'NONE', #129, #230, #173 ) ;
#232 = DIRECTION ( 'NONE',  ( -0.000000000000000000, -1.000000000000000000, -0.000000000000000000 ) ) ;
#233 =( NAMED_UNIT ( * ) SI_UNIT ( $, .STERADIAN. ) SOLID_ANGLE_UNIT ( ) );
#234 = DIMENSIONAL_EXPONENTS ( 1.000000000000000000, 0.000000000000000000, 0.000000000000000000, 0.000000000000000000, 0.000000000000000000, 0.000000000000000000, 0.000000000000000000 ) ;
#235 = PLANE ( 'NONE',  #120 ) ;
#236 = CARTESIAN_POINT ( 'NONE',  ( 1.530808498934191509E-17, 0.000000000000000000, 0.1250000000000000000 ) ) ;
#237 = CIRCLE ( 'NONE', #66, 0.1250000000000000000 ) ;
#238 = FILL_AREA_STYLE ('',( #20 ) ) ;
#239 = VERTEX_POINT ( 'NONE', #38 ) ;
#240 = ORIENTED_EDGE ( 'NONE', *, *, #62, .T. ) ;
#241 = CARTESIAN_POINT ( 'NONE',  ( 0.1250000000000000000, 0.3750000000000001665, 1.530808498934189968E-17 ) ) ;
#242 = FILL_AREA_STYLE_COLOUR ( '', #47 ) ;
#243 = COLOUR_RGB ( '',0.7921568627450980005, 0.8196078431372548767, 0.9333333333333333481 ) ;
#244 = ORIENTED_EDGE ( 'NONE', *, *, #41, .T. ) ;
#245 =( NAMED_UNIT ( * ) SI_UNIT ( $, .STERADIAN. ) SOLID_ANGLE_UNIT ( ) );
#246 = SURFACE_STYLE_FILL_AREA ( #195 ) ;
#247 = AXIS2_PLACEMENT_3D ( 'NONE', #63, #299, #132 ) ;
#248 = COLOUR_RGB ( '',0.7921568627450980005, 0.8196078431372548767, 0.9333333333333333481 ) ;
#249 =( LENGTH_UNIT ( ) NAMED_UNIT ( * ) SI_UNIT ( $, .METRE. ) );
#250 = CYLINDRICAL_SURFACE ( 'NONE', #214, 0.1249999999999997363 ) ;
#251 = EDGE_CURVE ( 'NONE', #122, #145, #61, .T. ) ;
#252 = AXIS2_PLACEMENT_3D ( 'NONE', #84, #302, #207 ) ;
#253 = CARTESIAN_POINT ( 'NONE',  ( 0.000000000000000000, 0.000000000000000000, 0.000000000000000000 ) ) ;
#254 = DIRECTION ( 'NONE',  ( -1.000000000000000000, 0.000000000000000000, 0.000000000000000000 ) ) ;
#255 = LINE ( 'NONE', #43, #94 ) ;
#256 = FILL_AREA_STYLE_COLOUR ( '', #300 ) ;
#257 = FACE_OUTER_BOUND ( 'NONE', #93, .T. ) ;
#258 =( NAMED_UNIT ( * ) SI_UNIT ( $, .STERADIAN. ) SOLID_ANGLE_UNIT ( ) );
#259 = PRESENTATION_STYLE_ASSIGNMENT (( #113 ) ) ;
#260 = AXIS2_PLACEMENT_3D ( 'NONE', #162, #179, #254 ) ;
#261 =( NAMED_UNIT ( * ) SI_UNIT ( $, .STERADIAN. ) SOLID_ANGLE_UNIT ( ) );
#262 = EDGE_LOOP ( 'NONE', ( #121, #213, #72, #48 ) ) ;
#263 = PRODUCT_DEFINITION_CONTEXT ( 'detailed design', #23, 'design' ) ;
#264 = CARTESIAN_POINT ( 'NONE',  ( 0.000000000000000000, 0.3750000000000002220, 0.000000000000000000 ) ) ;
#265 = ORIENTED_EDGE ( 'NONE', *, *, #41, .F. ) ;
#266 = PRODUCT_DEFINITION_SHAPE ( 'NONE', 'NONE',  #89 ) ;
#267 = ORIENTED_EDGE ( 'NONE', *, *, #99, .F. ) ;
#268 = EDGE_CURVE ( 'NONE', #118, #239, #30, .T. ) ;
#269 =( LENGTH_UNIT ( ) NAMED_UNIT ( * ) SI_UNIT ( $, .METRE. ) );
#270 = DIRECTION ( 'NONE',  ( 3.391329597638825025E-16, 1.000000000000000000, -0.000000000000000000 ) ) ;
#271 = AXIS2_PLACEMENT_3D ( 'NONE', #159, #208, #279 ) ;
#272 = PRODUCT_DEFINITION_FORMATION_WITH_SPECIFIED_SOURCE ( 'ANY', '', #154, .NOT_KNOWN. ) ;
#273 = DIRECTION ( 'NONE',  ( 0.000000000000000000, 0.000000000000000000, -1.000000000000000000 ) ) ;
#274 = FACE_OUTER_BOUND ( 'NONE', #262, .T. ) ;
#275 = PRESENTATION_LAYER_ASSIGNMENT (  '', '', ( #87 ) ) ;
#276 = DIMENSIONAL_EXPONENTS ( 1.000000000000000000, 0.000000000000000000, 0.000000000000000000, 0.000000000000000000, 0.000000000000000000, 0.000000000000000000, 0.000000000000000000 ) ;
#277 = PRODUCT_CONTEXT ( 'NONE', #143, 'mechanical' ) ;
#278 = DIRECTION ( 'NONE',  ( 0.000000000000000000, 0.000000000000000000, -1.000000000000000000 ) ) ;
#279 = DIRECTION ( 'NONE',  ( 0.000000000000000000, 0.000000000000000000, -1.000000000000000000 ) ) ;
#280 = MECHANICAL_DESIGN_GEOMETRIC_PRESENTATION_REPRESENTATION (  '', ( #87 ), #15 ) ;
#281 = AXIS2_PLACEMENT_3D ( 'NONE', #264, #79, #273 ) ;
#282 = DIRECTION ( 'NONE',  ( -3.391329597638825025E-16, -1.000000000000000000, 0.000000000000000000 ) ) ;
#283 = DIRECTION ( 'NONE',  ( -1.000000000000000000, 5.463695987328526437E-16, 0.000000000000000000 ) ) ;
#284 = PRESENTATION_STYLE_ASSIGNMENT (( #139 ) ) ;
#285 = ORIENTED_EDGE ( 'NONE', *, *, #130, .F. ) ;
#286 =( GEOMETRIC_REPRESENTATION_CONTEXT ( 3 ) GLOBAL_UNCERTAINTY_ASSIGNED_CONTEXT ( ( #174 ) ) GLOBAL_UNIT_ASSIGNED_CONTEXT ( ( #108, #184, #40 ) ) REPRESENTATION_CONTEXT ( 'NONE', 'WORKASPACE' ) );
#287 = ORIENTED_EDGE ( 'NONE', *, *, #99, .T. ) ;
#288 = EDGE_LOOP ( 'NONE', ( #170, #51 ) ) ;
#289 = ORIENTED_EDGE ( 'NONE', *, *, #228, .T. ) ;
#290 = MECHANICAL_DESIGN_GEOMETRIC_PRESENTATION_REPRESENTATION (  '', ( #146 ), #77 ) ;
#291 = CYLINDRICAL_SURFACE ( 'NONE', #71, 0.1250000000000000000 ) ;
#292 = SURFACE_STYLE_FILL_AREA ( #177 ) ;
#293 = ADVANCED_FACE ( 'NONE', ( #13 ), #204, .F. ) ;
#294 = FILL_AREA_STYLE ('',( #201 ) ) ;
#295 =( NAMED_UNIT ( * ) PLANE_ANGLE_UNIT ( ) SI_UNIT ( $, .RADIAN. ) );
#296 = DIMENSIONAL_EXPONENTS ( 1.000000000000000000, 0.000000000000000000, 0.000000000000000000, 0.000000000000000000, 0.000000000000000000, 0.000000000000000000, 0.000000000000000000 ) ;
#297 =( LENGTH_UNIT ( ) NAMED_UNIT ( * ) SI_UNIT ( $, .METRE. ) );
#298 = DIRECTION ( 'NONE',  ( 1.000000000000000000, -3.391329597638825025E-16, 0.000000000000000000 ) ) ;
#299 = DIRECTION ( 'NONE',  ( 0.000000000000000000, 1.000000000000000000, 0.000000000000000000 ) ) ;
#300 = COLOUR_RGB ( '',1.000000000000000000, 0.000000000000000000, 0.000000000000000000 ) ;
#301 = SHAPE_DEFINITION_REPRESENTATION ( #266, #185 ) ;
#302 = DIRECTION ( 'NONE',  ( -0.000000000000000000, -1.000000000000000000, -0.000000000000000000 ) ) ;
#303 = PLANE ( 'NONE',  #73 ) ;
#304 = LENGTH_MEASURE_WITH_UNIT ( LENGTH_MEASURE( 0.02539999999999999897 ), #188 );
#305 = EDGE_CURVE ( 'NONE', #97, #169, #180, .T. ) ;
#306 = CARTESIAN_POINT ( 'NONE',  ( 0.000000000000000000, 0.3750000000000002220, -0.1250000000000000000 ) ) ;
#307 = EDGE_LOOP ( 'NONE', ( #192, #244, #287, #147 ) ) ;
#308 = CLOSED_SHELL ( 'NONE', ( #11, #293, #211, #114 ) ) ;
#309 = ORIENTED_EDGE ( 'NONE', *, *, #228, .F. ) ;
ENDSEC;
END-ISO-10303-21;
