ISO-10303-21;
HEADER;
FILE_DESCRIPTION (( 'STEP AP214' ),
    '1' );
FILE_NAME ('59679.STEP',
    '2023-07-24T15:52:49',
    ( '' ),
    ( '' ),
    'SwSTEP 2.0',
    'SolidWorks 2023',
    '' );
FILE_SCHEMA (( 'AUTOMOTIVE_DESIGN' ));
ENDSEC;

DATA;
#1 =( NAMED_UNIT ( * ) PLANE_ANGLE_UNIT ( ) SI_UNIT ( $, .RADIAN. ) );
#2 = ADVANCED_FACE ( 'NONE', ( #121 ), #25, .F. ) ;
#3 = CARTESIAN_POINT ( 'NONE',  ( 10.00000000000000000, 124.9999999999999858, 1.224646799147353651E-15 ) ) ;
#4 = COLOUR_RGB ( '',1.000000000000000000, 0.000000000000000000, 0.000000000000000000 ) ;
#5 = DIRECTION ( 'NONE',  ( 0.000000000000000000, 0.000000000000000000, -1.000000000000000000 ) ) ;
#6 = FILL_AREA_STYLE_COLOUR ( '', #4 ) ;
#7 = VERTEX_POINT ( 'NONE', #80 ) ;
#8 = EDGE_LOOP ( 'NONE', ( #41, #34 ) ) ;
#9 = DIRECTION ( 'NONE',  ( -5.878304635907293472E-17, 1.000000000000000000, 0.000000000000000000 ) ) ;
#10 = ORIENTED_EDGE ( 'NONE', *, *, #81, .F. ) ;
#11 = CIRCLE ( 'NONE', #269, 10.00000000000000000 ) ;
#12 = CARTESIAN_POINT ( 'NONE',  ( 0.000000000000000000, 50.00000000000000000, 0.000000000000000000 ) ) ;
#13 = CYLINDRICAL_SURFACE ( 'NONE', #68, 10.00000000000000178 ) ;
#14 = ADVANCED_FACE ( 'NONE', ( #170 ), #171, .F. ) ;
#15 = AXIS2_PLACEMENT_3D ( 'NONE', #118, #95, #156 ) ;
#16 = CARTESIAN_POINT ( 'NONE',  ( -10.00000000000000000, 50.00000000000000000, 0.000000000000000000 ) ) ;
#17 = ADVANCED_FACE ( 'NONE', ( #243 ), #188, .T. ) ;
#18 = CIRCLE ( 'NONE', #184, 10.00000000000000000 ) ;
#19 = CARTESIAN_POINT ( 'NONE',  ( 1.224646799147353256E-15, 0.000000000000000000, 10.00000000000000000 ) ) ;
#20 = FILL_AREA_STYLE_COLOUR ( '', #201 ) ;
#21 = AXIS2_PLACEMENT_3D ( 'NONE', #98, #253, #162 ) ;
#22 =( LENGTH_UNIT ( ) NAMED_UNIT ( * ) SI_UNIT ( .MILLI., .METRE. ) );
#23 = EDGE_LOOP ( 'NONE', ( #242, #28 ) ) ;
#24 = EDGE_CURVE ( 'NONE', #60, #39, #200, .T. ) ;
#25 = PLANE ( 'NONE',  #42 ) ;
#26 = EDGE_LOOP ( 'NONE', ( #65, #141, #198, #85 ) ) ;
#27 = VECTOR ( 'NONE', #217, 1000.000000000000000 ) ;
#28 = ORIENTED_EDGE ( 'NONE', *, *, #172, .T. ) ;
#29 = CARTESIAN_POINT ( 'NONE',  ( 0.000000000000000000, 0.000000000000000000, 0.000000000000000000 ) ) ;
#30 = FACE_OUTER_BOUND ( 'NONE', #221, .T. ) ;
#31 = SURFACE_STYLE_FILL_AREA ( #44 ) ;
#32 = DIRECTION ( 'NONE',  ( -0.000000000000000000, -1.000000000000000000, -0.000000000000000000 ) ) ;
#33 = PLANE ( 'NONE',  #120 ) ;
#34 = ORIENTED_EDGE ( 'NONE', *, *, #246, .F. ) ;
#35 = PRESENTATION_STYLE_ASSIGNMENT (( #50 ) ) ;
#36 = CARTESIAN_POINT ( 'NONE',  ( 0.000000000000000000, 50.00000000000000000, -10.00000000000000000 ) ) ;
#37 = FACE_OUTER_BOUND ( 'NONE', #23, .T. ) ;
#38 =( NAMED_UNIT ( * ) SI_UNIT ( $, .STERADIAN. ) SOLID_ANGLE_UNIT ( ) );
#39 = VERTEX_POINT ( 'NONE', #279 ) ;
#40 = APPLICATION_CONTEXT ( 'automotive_design' ) ;
#41 = ORIENTED_EDGE ( 'NONE', *, *, #124, .F. ) ;
#42 = AXIS2_PLACEMENT_3D ( 'NONE', #222, #9, #195 ) ;
#43 = ORIENTED_EDGE ( 'NONE', *, *, #24, .F. ) ;
#44 = FILL_AREA_STYLE ('',( #179 ) ) ;
#45 = MANIFOLD_SOLID_BREP ( 'Revolve - Cutting Edge', #146 ) ;
#46 = DIRECTION ( 'NONE',  ( -5.878304635907293472E-17, 1.000000000000000000, -0.000000000000000000 ) ) ;
#47 = CIRCLE ( 'NONE', #56, 10.00000000000000000 ) ;
#48 = CIRCLE ( 'NONE', #211, 10.00000000000000000 ) ;
#49 = DIRECTION ( 'NONE',  ( -1.000000000000000000, 0.000000000000000000, 0.000000000000000000 ) ) ;
#50 = SURFACE_STYLE_USAGE ( .BOTH. , #153 ) ;
#51 = DIRECTION ( 'NONE',  ( -0.000000000000000000, -1.000000000000000000, -0.000000000000000000 ) ) ;
#52 = PRESENTATION_LAYER_ASSIGNMENT (  '', '', ( #102 ) ) ;
#53 =( GEOMETRIC_REPRESENTATION_CONTEXT ( 3 ) GLOBAL_UNCERTAINTY_ASSIGNED_CONTEXT ( ( #270 ) ) GLOBAL_UNIT_ASSIGNED_CONTEXT ( ( #22, #1, #75 ) ) REPRESENTATION_CONTEXT ( 'NONE', 'WORKASPACE' ) );
#54 = SURFACE_STYLE_USAGE ( .BOTH. , #119 ) ;
#55 = CYLINDRICAL_SURFACE ( 'NONE', #196, 10.00000000000000178 ) ;
#56 = AXIS2_PLACEMENT_3D ( 'NONE', #155, #51, #154 ) ;
#57 = PRESENTATION_STYLE_ASSIGNMENT (( #191 ) ) ;
#58 = CARTESIAN_POINT ( 'NONE',  ( 9.999999999999996447, 124.9999999999999858, 1.224646799147353454E-15 ) ) ;
#59 = CARTESIAN_POINT ( 'NONE',  ( 0.000000000000000000, 0.000000000000000000, 0.000000000000000000 ) ) ;
#60 = VERTEX_POINT ( 'NONE', #16 ) ;
#61 =( GEOMETRIC_REPRESENTATION_CONTEXT ( 3 ) GLOBAL_UNCERTAINTY_ASSIGNED_CONTEXT ( ( #88 ) ) GLOBAL_UNIT_ASSIGNED_CONTEXT ( ( #278, #84, #207 ) ) REPRESENTATION_CONTEXT ( 'NONE', 'WORKASPACE' ) );
#62 = STYLED_ITEM ( 'NONE', ( #203 ), #157 ) ;
#63 = ORIENTED_EDGE ( 'NONE', *, *, #247, .T. ) ;
#64 = EDGE_CURVE ( 'NONE', #148, #239, #47, .T. ) ;
#65 = ORIENTED_EDGE ( 'NONE', *, *, #24, .T. ) ;
#66 = FACE_OUTER_BOUND ( 'NONE', #26, .T. ) ;
#67 = UNCERTAINTY_MEASURE_WITH_UNIT (LENGTH_MEASURE( 1.000000000000000082E-05 ), #114, 'distance_accuracy_value', 'NONE');
#68 = AXIS2_PLACEMENT_3D ( 'NONE', #149, #46, #126 ) ;
#69 = APPLICATION_PROTOCOL_DEFINITION ( 'draft international standard', 'automotive_design', 1998, #143 ) ;
#70 = CARTESIAN_POINT ( 'NONE',  ( -4.408728476930469278E-15, 124.9999999999999858, 0.000000000000000000 ) ) ;
#71 = STYLED_ITEM ( 'NONE', ( #285 ), #135 ) ;
#72 = DIRECTION ( 'NONE',  ( -5.878304635907293472E-17, 1.000000000000000000, -0.000000000000000000 ) ) ;
#73 = LINE ( 'NONE', #215, #103 ) ;
#74 = EDGE_CURVE ( 'NONE', #39, #60, #11, .T. ) ;
#75 =( NAMED_UNIT ( * ) SI_UNIT ( $, .STERADIAN. ) SOLID_ANGLE_UNIT ( ) );
#76 = STYLED_ITEM ( 'NONE', ( #165 ), #45 ) ;
#77 = MECHANICAL_DESIGN_GEOMETRIC_PRESENTATION_REPRESENTATION (  '', ( #71 ), #96 ) ;
#78 = SURFACE_STYLE_FILL_AREA ( #187 ) ;
#79 = SURFACE_STYLE_FILL_AREA ( #265 ) ;
#80 = CARTESIAN_POINT ( 'NONE',  ( 1.224646799147353256E-15, 50.00000000000000000, 10.00000000000000000 ) ) ;
#81 = EDGE_CURVE ( 'NONE', #260, #148, #107, .T. ) ;
#82 = PRODUCT_DEFINITION_SHAPE ( 'NONE', 'NONE',  #235 ) ;
#83 = EDGE_LOOP ( 'NONE', ( #112, #63 ) ) ;
#84 =( NAMED_UNIT ( * ) PLANE_ANGLE_UNIT ( ) SI_UNIT ( $, .RADIAN. ) );
#85 = ORIENTED_EDGE ( 'NONE', *, *, #220, .F. ) ;
#86 = PRESENTATION_LAYER_ASSIGNMENT (  '', '', ( #106 ) ) ;
#87 = ORIENTED_EDGE ( 'NONE', *, *, #246, .T. ) ;
#88 = UNCERTAINTY_MEASURE_WITH_UNIT (LENGTH_MEASURE( 1.000000000000000082E-05 ), #278, 'distance_accuracy_value', 'NONE');
#89 =( LENGTH_UNIT ( ) NAMED_UNIT ( * ) SI_UNIT ( .MILLI., .METRE. ) );
#90 = DIRECTION ( 'NONE',  ( -5.878304635907293472E-17, 1.000000000000000000, -0.000000000000000000 ) ) ;
#91 = AXIS2_PLACEMENT_3D ( 'NONE', #132, #163, #137 ) ;
#92 = CARTESIAN_POINT ( 'NONE',  ( 0.000000000000000000, 50.00000000000000000, 0.000000000000000000 ) ) ;
#93 = DIRECTION ( 'NONE',  ( -0.000000000000000000, -1.000000000000000000, -0.000000000000000000 ) ) ;
#94 = EDGE_CURVE ( 'NONE', #194, #199, #271, .T. ) ;
#95 = DIRECTION ( 'NONE',  ( -5.878304635907293472E-17, 1.000000000000000000, -0.000000000000000000 ) ) ;
#96 =( GEOMETRIC_REPRESENTATION_CONTEXT ( 3 ) GLOBAL_UNCERTAINTY_ASSIGNED_CONTEXT ( ( #227 ) ) GLOBAL_UNIT_ASSIGNED_CONTEXT ( ( #210, #159, #224 ) ) REPRESENTATION_CONTEXT ( 'NONE', 'WORKASPACE' ) );
#97 = SURFACE_STYLE_FILL_AREA ( #288 ) ;
#98 = CARTESIAN_POINT ( 'NONE',  ( 0.000000000000000000, 0.000000000000000000, 0.000000000000000000 ) ) ;
#99 = ORIENTED_EDGE ( 'NONE', *, *, #74, .T. ) ;
#100 = EDGE_LOOP ( 'NONE', ( #43, #160 ) ) ;
#101 = ORIENTED_EDGE ( 'NONE', *, *, #247, .F. ) ;
#102 = STYLED_ITEM ( 'NONE', ( #35 ), #17 ) ;
#103 = VECTOR ( 'NONE', #284, 1000.000000000000000 ) ;
#104 = ADVANCED_FACE ( 'NONE', ( #37 ), #33, .T. ) ;
#105 = COLOUR_RGB ( '',0.7921568627450980005, 0.8196078431372548767, 0.9333333333333333481 ) ;
#106 = STYLED_ITEM ( 'NONE', ( #57 ), #104 ) ;
#107 = LINE ( 'NONE', #109, #178 ) ;
#108 = SURFACE_SIDE_STYLE ('',( #31 ) ) ;
#109 = CARTESIAN_POINT ( 'NONE',  ( 0.000000000000000000, 0.000000000000000000, -10.00000000000000000 ) ) ;
#110 = FILL_AREA_STYLE ('',( #129 ) ) ;
#111 = CARTESIAN_POINT ( 'NONE',  ( 0.000000000000000000, 50.00000000000000000, 0.000000000000000000 ) ) ;
#112 = ORIENTED_EDGE ( 'NONE', *, *, #94, .T. ) ;
#113 = ADVANCED_FACE ( 'NONE', ( #259 ), #237, .T. ) ;
#114 =( LENGTH_UNIT ( ) NAMED_UNIT ( * ) SI_UNIT ( .MILLI., .METRE. ) );
#115 = ORIENTED_EDGE ( 'NONE', *, *, #228, .T. ) ;
#116 =( GEOMETRIC_REPRESENTATION_CONTEXT ( 3 ) GLOBAL_UNCERTAINTY_ASSIGNED_CONTEXT ( ( #272 ) ) GLOBAL_UNIT_ASSIGNED_CONTEXT ( ( #256, #216, #38 ) ) REPRESENTATION_CONTEXT ( 'NONE', 'WORKASPACE' ) );
#117 = CARTESIAN_POINT ( 'NONE',  ( 0.000000000000000000, 0.000000000000000000, 0.000000000000000000 ) ) ;
#118 = CARTESIAN_POINT ( 'NONE',  ( -4.408728476930469278E-15, 124.9999999999999858, 0.000000000000000000 ) ) ;
#119 = SURFACE_SIDE_STYLE ('',( #78 ) ) ;
#120 = AXIS2_PLACEMENT_3D ( 'NONE', #59, #212, #5 ) ;
#121 = FACE_OUTER_BOUND ( 'NONE', #100, .T. ) ;
#122 = ORIENTED_EDGE ( 'NONE', *, *, #172, .F. ) ;
#123 = AXIS2_PLACEMENT_3D ( 'NONE', #287, #93, #264 ) ;
#124 = EDGE_CURVE ( 'NONE', #260, #7, #18, .T. ) ;
#125 = COLOUR_RGB ( '',1.000000000000000000, 0.000000000000000000, 0.000000000000000000 ) ;
#126 = DIRECTION ( 'NONE',  ( -1.000000000000000000, 0.000000000000000000, 0.000000000000000000 ) ) ;
#127 = PRODUCT_DEFINITION_CONTEXT ( 'detailed design', #143, 'design' ) ;
#128 = DIRECTION ( 'NONE',  ( -5.878304635907293472E-17, 1.000000000000000000, -0.000000000000000000 ) ) ;
#129 = FILL_AREA_STYLE_COLOUR ( '', #105 ) ;
#130 = DIRECTION ( 'NONE',  ( 1.000000000000000000, 5.878304635907293472E-17, 0.000000000000000000 ) ) ;
#131 = CARTESIAN_POINT ( 'NONE',  ( 1.224646799147353256E-15, 0.000000000000000000, 10.00000000000000000 ) ) ;
#132 = CARTESIAN_POINT ( 'NONE',  ( 0.000000000000000000, 0.000000000000000000, 0.000000000000000000 ) ) ;
#133 = PRODUCT_RELATED_PRODUCT_CATEGORY ( 'part', '', ( #145 ) ) ;
#134 = ORIENTED_EDGE ( 'NONE', *, *, #64, .F. ) ;
#135 = MANIFOLD_SOLID_BREP ( 'Revolve - Tool Body (Straight Shanked)', #173 ) ;
#136 = AXIS2_PLACEMENT_3D ( 'NONE', #12, #175, #225 ) ;
#137 = DIRECTION ( 'NONE',  ( 0.000000000000000000, 0.000000000000000000, -1.000000000000000000 ) ) ;
#138 = SURFACE_SIDE_STYLE ('',( #79 ) ) ;
#139 = MECHANICAL_DESIGN_GEOMETRIC_PRESENTATION_REPRESENTATION (  '', ( #76 ), #61 ) ;
#140 = PRESENTATION_LAYER_ASSIGNMENT (  '', '', ( #62 ) ) ;
#141 = ORIENTED_EDGE ( 'NONE', *, *, #257, .T. ) ;
#142 = CARTESIAN_POINT ( 'NONE',  ( 10.00000000000000000, 124.9999999999999858, 0.000000000000000000 ) ) ;
#143 = APPLICATION_CONTEXT ( 'automotive_design' ) ;
#144 = ORIENTED_EDGE ( 'NONE', *, *, #220, .T. ) ;
#145 = PRODUCT ( '59679', '59679', '', ( #166 ) ) ;
#146 = CLOSED_SHELL ( 'NONE', ( #113, #157, #17, #104 ) ) ;
#147 = COLOUR_RGB ( '',1.000000000000000000, 0.000000000000000000, 0.000000000000000000 ) ;
#148 = VERTEX_POINT ( 'NONE', #177 ) ;
#149 = CARTESIAN_POINT ( 'NONE',  ( -4.408728476930469278E-15, 124.9999999999999858, 0.000000000000000000 ) ) ;
#150 =( GEOMETRIC_REPRESENTATION_CONTEXT ( 3 ) GLOBAL_UNCERTAINTY_ASSIGNED_CONTEXT ( ( #255 ) ) GLOBAL_UNIT_ASSIGNED_CONTEXT ( ( #251, #236, #208 ) ) REPRESENTATION_CONTEXT ( 'NONE', 'WORKASPACE' ) );
#151 = CARTESIAN_POINT ( 'NONE',  ( 0.000000000000000000, 50.00000000000000000, 0.000000000000000000 ) ) ;
#152 = DIRECTION ( 'NONE',  ( -0.000000000000000000, -1.000000000000000000, -0.000000000000000000 ) ) ;
#153 = SURFACE_SIDE_STYLE ('',( #161 ) ) ;
#154 = DIRECTION ( 'NONE',  ( 0.000000000000000000, 0.000000000000000000, -1.000000000000000000 ) ) ;
#155 = CARTESIAN_POINT ( 'NONE',  ( 0.000000000000000000, 0.000000000000000000, 0.000000000000000000 ) ) ;
#156 = DIRECTION ( 'NONE',  ( -1.000000000000000000, 0.000000000000000000, 0.000000000000000000 ) ) ;
#157 = ADVANCED_FACE ( 'NONE', ( #205 ), #231, .T. ) ;
#158 = SURFACE_STYLE_FILL_AREA ( #110 ) ;
#159 =( NAMED_UNIT ( * ) PLANE_ANGLE_UNIT ( ) SI_UNIT ( $, .RADIAN. ) );
#160 = ORIENTED_EDGE ( 'NONE', *, *, #74, .F. ) ;
#161 = SURFACE_STYLE_FILL_AREA ( #286 ) ;
#162 = DIRECTION ( 'NONE',  ( 1.000000000000000000, 0.000000000000000000, 0.000000000000000000 ) ) ;
#163 = DIRECTION ( 'NONE',  ( -0.000000000000000000, -1.000000000000000000, -0.000000000000000000 ) ) ;
#164 = VECTOR ( 'NONE', #186, 1000.000000000000000 ) ;
#165 = PRESENTATION_STYLE_ASSIGNMENT (( #266 ) ) ;
#166 = PRODUCT_CONTEXT ( 'NONE', #40, 'mechanical' ) ;
#167 = DIRECTION ( 'NONE',  ( 0.000000000000000000, 0.000000000000000000, -1.000000000000000000 ) ) ;
#168 = SURFACE_SIDE_STYLE ('',( #158 ) ) ;
#169 = MECHANICAL_DESIGN_GEOMETRIC_PRESENTATION_REPRESENTATION (  '', ( #102 ), #150 ) ;
#170 = FACE_OUTER_BOUND ( 'NONE', #83, .T. ) ;
#171 = PLANE ( 'NONE',  #267 ) ;
#172 = EDGE_CURVE ( 'NONE', #239, #148, #48, .T. ) ;
#173 = CLOSED_SHELL ( 'NONE', ( #189, #2, #193, #14 ) ) ;
#174 = PRODUCT_DEFINITION_FORMATION_WITH_SPECIFIED_SOURCE ( 'ANY', '', #145, .NOT_KNOWN. ) ;
#175 = DIRECTION ( 'NONE',  ( 0.000000000000000000, 1.000000000000000000, 0.000000000000000000 ) ) ;
#176 = UNCERTAINTY_MEASURE_WITH_UNIT (LENGTH_MEASURE( 1.000000000000000082E-05 ), #89, 'distance_accuracy_value', 'NONE');
#177 = CARTESIAN_POINT ( 'NONE',  ( 0.000000000000000000, 0.000000000000000000, -10.00000000000000000 ) ) ;
#178 = VECTOR ( 'NONE', #152, 1000.000000000000000 ) ;
#179 = FILL_AREA_STYLE_COLOUR ( '', #147 ) ;
#180 = DIRECTION ( 'NONE',  ( -1.000000000000000000, 0.000000000000000000, 0.000000000000000000 ) ) ;
#181 = APPLICATION_PROTOCOL_DEFINITION ( 'draft international standard', 'automotive_design', 1998, #40 ) ;
#182 = DIRECTION ( 'NONE',  ( 0.000000000000000000, 0.000000000000000000, -1.000000000000000000 ) ) ;
#183 = CARTESIAN_POINT ( 'NONE',  ( -10.00000000000001066, 124.9999999999999858, 0.000000000000000000 ) ) ;
#184 = AXIS2_PLACEMENT_3D ( 'NONE', #111, #214, #167 ) ;
#185 = ORIENTED_EDGE ( 'NONE', *, *, #81, .T. ) ;
#186 = DIRECTION ( 'NONE',  ( -5.878304635907293472E-17, 1.000000000000000000, -0.000000000000000000 ) ) ;
#187 = FILL_AREA_STYLE ('',( #20 ) ) ;
#188 = CYLINDRICAL_SURFACE ( 'NONE', #204, 10.00000000000000000 ) ;
#189 = ADVANCED_FACE ( 'NONE', ( #66 ), #13, .T. ) ;
#190 = CARTESIAN_POINT ( 'NONE',  ( -4.408728476930469278E-15, 124.9999999999999858, 0.000000000000000000 ) ) ;
#191 = SURFACE_STYLE_USAGE ( .BOTH. , #263 ) ;
#192 = CIRCLE ( 'NONE', #15, 10.00000000000000533 ) ;
#193 = ADVANCED_FACE ( 'NONE', ( #30 ), #55, .T. ) ;
#194 = VERTEX_POINT ( 'NONE', #183 ) ;
#195 = DIRECTION ( 'NONE',  ( -1.000000000000000000, -5.878304635907293472E-17, 0.000000000000000000 ) ) ;
#196 = AXIS2_PLACEMENT_3D ( 'NONE', #190, #261, #280 ) ;
#197 = EDGE_LOOP ( 'NONE', ( #268, #115, #134, #10 ) ) ;
#198 = ORIENTED_EDGE ( 'NONE', *, *, #94, .F. ) ;
#199 = VERTEX_POINT ( 'NONE', #3 ) ;
#200 = CIRCLE ( 'NONE', #240, 10.00000000000000000 ) ;
#201 = COLOUR_RGB ( '',0.7921568627450980005, 0.8196078431372548767, 0.9333333333333333481 ) ;
#202 = DIRECTION ( 'NONE',  ( -0.000000000000000000, -1.000000000000000000, -0.000000000000000000 ) ) ;
#203 = PRESENTATION_STYLE_ASSIGNMENT (( #277 ) ) ;
#204 = AXIS2_PLACEMENT_3D ( 'NONE', #117, #32, #182 ) ;
#205 = FACE_OUTER_BOUND ( 'NONE', #8, .T. ) ;
#206 =( GEOMETRIC_REPRESENTATION_CONTEXT ( 3 ) GLOBAL_UNCERTAINTY_ASSIGNED_CONTEXT ( ( #67 ) ) GLOBAL_UNIT_ASSIGNED_CONTEXT ( ( #114, #213, #209 ) ) REPRESENTATION_CONTEXT ( 'NONE', 'WORKASPACE' ) );
#207 =( NAMED_UNIT ( * ) SI_UNIT ( $, .STERADIAN. ) SOLID_ANGLE_UNIT ( ) );
#208 =( NAMED_UNIT ( * ) SI_UNIT ( $, .STERADIAN. ) SOLID_ANGLE_UNIT ( ) );
#209 =( NAMED_UNIT ( * ) SI_UNIT ( $, .STERADIAN. ) SOLID_ANGLE_UNIT ( ) );
#210 =( LENGTH_UNIT ( ) NAMED_UNIT ( * ) SI_UNIT ( .MILLI., .METRE. ) );
#211 = AXIS2_PLACEMENT_3D ( 'NONE', #29, #202, #273 ) ;
#212 = DIRECTION ( 'NONE',  ( 0.000000000000000000, -1.000000000000000000, -0.000000000000000000 ) ) ;
#213 =( NAMED_UNIT ( * ) PLANE_ANGLE_UNIT ( ) SI_UNIT ( $, .RADIAN. ) );
#214 = DIRECTION ( 'NONE',  ( -0.000000000000000000, -1.000000000000000000, -0.000000000000000000 ) ) ;
#215 = CARTESIAN_POINT ( 'NONE',  ( -10.00000000000000711, 124.9999999999999858, 0.000000000000000000 ) ) ;
#216 =( NAMED_UNIT ( * ) PLANE_ANGLE_UNIT ( ) SI_UNIT ( $, .RADIAN. ) );
#217 = DIRECTION ( 'NONE',  ( -0.000000000000000000, -1.000000000000000000, -0.000000000000000000 ) ) ;
#218 = FILL_AREA_STYLE_COLOUR ( '', #223 ) ;
#219 = PRESENTATION_LAYER_ASSIGNMENT (  '', '', ( #275 ) ) ;
#220 = EDGE_CURVE ( 'NONE', #60, #194, #73, .T. ) ;
#221 = EDGE_LOOP ( 'NONE', ( #244, #99, #144, #101 ) ) ;
#222 = CARTESIAN_POINT ( 'NONE',  ( 1.727723269626458946E-32, 50.00000000000000000, 0.000000000000000000 ) ) ;
#223 = COLOUR_RGB ( '',1.000000000000000000, 0.000000000000000000, 0.000000000000000000 ) ;
#224 =( NAMED_UNIT ( * ) SI_UNIT ( $, .STERADIAN. ) SOLID_ANGLE_UNIT ( ) );
#225 = DIRECTION ( 'NONE',  ( 0.000000000000000000, -0.000000000000000000, 1.000000000000000000 ) ) ;
#226 = MECHANICAL_DESIGN_GEOMETRIC_PRESENTATION_REPRESENTATION (  '', ( #62 ), #233 ) ;
#227 = UNCERTAINTY_MEASURE_WITH_UNIT (LENGTH_MEASURE( 1.000000000000000082E-05 ), #210, 'distance_accuracy_value', 'NONE');
#228 = EDGE_CURVE ( 'NONE', #7, #239, #232, .T. ) ;
#229 = SHAPE_DEFINITION_REPRESENTATION ( #82, #250 ) ;
#230 = FILL_AREA_STYLE_COLOUR ( '', #125 ) ;
#231 = PLANE ( 'NONE',  #136 ) ;
#232 = LINE ( 'NONE', #131, #27 ) ;
#233 =( GEOMETRIC_REPRESENTATION_CONTEXT ( 3 ) GLOBAL_UNCERTAINTY_ASSIGNED_CONTEXT ( ( #176 ) ) GLOBAL_UNIT_ASSIGNED_CONTEXT ( ( #89, #252, #248 ) ) REPRESENTATION_CONTEXT ( 'NONE', 'WORKASPACE' ) );
#234 = PRESENTATION_STYLE_ASSIGNMENT (( #238 ) ) ;
#235 = PRODUCT_DEFINITION ( 'UNKNOWN', '', #174, #127 ) ;
#236 =( NAMED_UNIT ( * ) PLANE_ANGLE_UNIT ( ) SI_UNIT ( $, .RADIAN. ) );
#237 = CYLINDRICAL_SURFACE ( 'NONE', #91, 10.00000000000000000 ) ;
#238 = SURFACE_STYLE_USAGE ( .BOTH. , #138 ) ;
#239 = VERTEX_POINT ( 'NONE', #19 ) ;
#240 = AXIS2_PLACEMENT_3D ( 'NONE', #92, #72, #180 ) ;
#241 = EDGE_LOOP ( 'NONE', ( #276, #87, #185, #122 ) ) ;
#242 = ORIENTED_EDGE ( 'NONE', *, *, #64, .T. ) ;
#243 = FACE_OUTER_BOUND ( 'NONE', #241, .T. ) ;
#244 = ORIENTED_EDGE ( 'NONE', *, *, #257, .F. ) ;
#245 = MECHANICAL_DESIGN_GEOMETRIC_PRESENTATION_REPRESENTATION (  '', ( #106 ), #53 ) ;
#246 = EDGE_CURVE ( 'NONE', #7, #260, #262, .T. ) ;
#247 = EDGE_CURVE ( 'NONE', #199, #194, #192, .T. ) ;
#248 =( NAMED_UNIT ( * ) SI_UNIT ( $, .STERADIAN. ) SOLID_ANGLE_UNIT ( ) );
#249 = MECHANICAL_DESIGN_GEOMETRIC_PRESENTATION_REPRESENTATION (  '', ( #275 ), #116 ) ;
#250 = ADVANCED_BREP_SHAPE_REPRESENTATION ( '59679', ( #45, #135, #21 ), #206 ) ;
#251 =( LENGTH_UNIT ( ) NAMED_UNIT ( * ) SI_UNIT ( .MILLI., .METRE. ) );
#252 =( NAMED_UNIT ( * ) PLANE_ANGLE_UNIT ( ) SI_UNIT ( $, .RADIAN. ) );
#253 = DIRECTION ( 'NONE',  ( 0.000000000000000000, 0.000000000000000000, 1.000000000000000000 ) ) ;
#254 = AXIS2_PLACEMENT_3D ( 'NONE', #70, #90, #281 ) ;
#255 = UNCERTAINTY_MEASURE_WITH_UNIT (LENGTH_MEASURE( 1.000000000000000082E-05 ), #251, 'distance_accuracy_value', 'NONE');
#256 =( LENGTH_UNIT ( ) NAMED_UNIT ( * ) SI_UNIT ( .MILLI., .METRE. ) );
#257 = EDGE_CURVE ( 'NONE', #39, #199, #258, .T. ) ;
#258 = LINE ( 'NONE', #58, #164 ) ;
#259 = FACE_OUTER_BOUND ( 'NONE', #197, .T. ) ;
#260 = VERTEX_POINT ( 'NONE', #36 ) ;
#261 = DIRECTION ( 'NONE',  ( -5.878304635907293472E-17, 1.000000000000000000, -0.000000000000000000 ) ) ;
#262 = CIRCLE ( 'NONE', #123, 10.00000000000000000 ) ;
#263 = SURFACE_SIDE_STYLE ('',( #97 ) ) ;
#264 = DIRECTION ( 'NONE',  ( 0.000000000000000000, 0.000000000000000000, -1.000000000000000000 ) ) ;
#265 = FILL_AREA_STYLE ('',( #6 ) ) ;
#266 = SURFACE_STYLE_USAGE ( .BOTH. , #168 ) ;
#267 = AXIS2_PLACEMENT_3D ( 'NONE', #142, #282, #130 ) ;
#268 = ORIENTED_EDGE ( 'NONE', *, *, #124, .T. ) ;
#269 = AXIS2_PLACEMENT_3D ( 'NONE', #151, #128, #49 ) ;
#270 = UNCERTAINTY_MEASURE_WITH_UNIT (LENGTH_MEASURE( 1.000000000000000082E-05 ), #22, 'distance_accuracy_value', 'NONE');
#271 = CIRCLE ( 'NONE', #254, 10.00000000000000533 ) ;
#272 = UNCERTAINTY_MEASURE_WITH_UNIT (LENGTH_MEASURE( 1.000000000000000082E-05 ), #256, 'distance_accuracy_value', 'NONE');
#273 = DIRECTION ( 'NONE',  ( 0.000000000000000000, 0.000000000000000000, -1.000000000000000000 ) ) ;
#274 = PRESENTATION_LAYER_ASSIGNMENT (  '', '', ( #76 ) ) ;
#275 = STYLED_ITEM ( 'NONE', ( #234 ), #113 ) ;
#276 = ORIENTED_EDGE ( 'NONE', *, *, #228, .F. ) ;
#277 = SURFACE_STYLE_USAGE ( .BOTH. , #108 ) ;
#278 =( LENGTH_UNIT ( ) NAMED_UNIT ( * ) SI_UNIT ( .MILLI., .METRE. ) );
#279 = CARTESIAN_POINT ( 'NONE',  ( 10.00000000000000000, 50.00000000000000000, 1.224646799147353651E-15 ) ) ;
#280 = DIRECTION ( 'NONE',  ( -1.000000000000000000, 0.000000000000000000, 0.000000000000000000 ) ) ;
#281 = DIRECTION ( 'NONE',  ( -1.000000000000000000, 0.000000000000000000, 0.000000000000000000 ) ) ;
#282 = DIRECTION ( 'NONE',  ( 5.878304635907293472E-17, -1.000000000000000000, 0.000000000000000000 ) ) ;
#283 = PRESENTATION_LAYER_ASSIGNMENT (  '', '', ( #71 ) ) ;
#284 = DIRECTION ( 'NONE',  ( -5.878304635907293472E-17, 1.000000000000000000, -0.000000000000000000 ) ) ;
#285 = PRESENTATION_STYLE_ASSIGNMENT (( #54 ) ) ;
#286 = FILL_AREA_STYLE ('',( #230 ) ) ;
#287 = CARTESIAN_POINT ( 'NONE',  ( 0.000000000000000000, 50.00000000000000000, 0.000000000000000000 ) ) ;
#288 = FILL_AREA_STYLE ('',( #218 ) ) ;
ENDSEC;
END-ISO-10303-21;
