ISO-10303-21;
HEADER;
FILE_DESCRIPTION (( 'STEP AP214' ),
    '1' );
FILE_NAME ('Micro_GEM-062-2.STEP',
    '2021-09-01T18:57:56',
    ( '' ),
    ( '' ),
    'SwSTEP 2.0',
    'SolidWorks 2020',
    '' );
FILE_SCHEMA (( 'AUTOMOTIVE_DESIGN' ));
ENDSEC;

DATA;
#1 = VECTOR ( 'NONE', #39, 39.37007874015748143 ) ;
#2 = AXIS2_PLACEMENT_3D ( 'NONE', #74, #121, #196 ) ;
#3 = EDGE_CURVE ( 'NONE', #138, #100, #134, .T. ) ;
#4 = SURFACE_STYLE_USAGE ( .BOTH. , #27 ) ;
#5 = PRODUCT ( 'Micro_GEM-062-2', 'Micro_GEM-062-2', '', ( #170 ) ) ;
#6 = ORIENTED_EDGE ( 'NONE', *, *, #75, .T. ) ;
#7 = FACE_OUTER_BOUND ( 'NONE', #66, .T. ) ;
#8 = AXIS2_PLACEMENT_3D ( 'NONE', #185, #248, #108 ) ;
#9 = STYLED_ITEM ( 'NONE', ( #25 ), #26 ) ;
#10 = LINE ( 'NONE', #285, #80 ) ;
#11 = CARTESIAN_POINT ( 'NONE',  ( 2.302335982397025094E-17, 0.0000000000000000000, 0.1880000000000000282 ) ) ;
#12 =( CONVERSION_BASED_UNIT ( 'INCH', #216 ) LENGTH_UNIT ( ) NAMED_UNIT ( #116 ) );
#13 = AXIS2_PLACEMENT_3D ( 'NONE', #205, #152, #296 ) ;
#14 = CARTESIAN_POINT ( 'NONE',  ( 0.03121875000000002426, 0.0000000000000000000, 0.1880000000000000282 ) ) ;
#15 = MANIFOLD_SOLID_BREP ( 'Cut-Revolve1', #163 ) ;
#16 = DIRECTION ( 'NONE',  ( -1.224646799147353700E-16, -0.0000000000000000000, -1.000000000000000000 ) ) ;
#17 = EDGE_CURVE ( 'NONE', #100, #273, #188, .T. ) ;
#18 =( GEOMETRIC_REPRESENTATION_CONTEXT ( 3 ) GLOBAL_UNCERTAINTY_ASSIGNED_CONTEXT ( ( #263 ) ) GLOBAL_UNIT_ASSIGNED_CONTEXT ( ( #12, #268, #194 ) ) REPRESENTATION_CONTEXT ( 'NONE', 'WORKASPACE' ) );
#19 = CARTESIAN_POINT ( 'NONE',  ( 0.06250000000000002776, 7.654042494670959086E-18, 1.500000000000000222 ) ) ;
#20 = PRODUCT_DEFINITION ( 'UNKNOWN', '', #96, #97 ) ;
#21 = CARTESIAN_POINT ( 'NONE',  ( 0.04750000000000064587, 6.735557395310483192E-18, 1.500000000000000222 ) ) ;
#22 = LINE ( 'NONE', #252, #153 ) ;
#23 = VECTOR ( 'NONE', #60, 39.37007874015748854 ) ;
#24 = ORIENTED_EDGE ( 'NONE', *, *, #228, .T. ) ;
#25 = PRESENTATION_STYLE_ASSIGNMENT (( #65 ) ) ;
#26 = ADVANCED_BREP_SHAPE_REPRESENTATION ( 'Micro_GEM-062-2', ( #15, #50 ), #236 ) ;
#27 = SURFACE_SIDE_STYLE ('',( #46 ) ) ;
#28 = ORIENTED_EDGE ( 'NONE', *, *, #17, .T. ) ;
#29 = AXIS2_PLACEMENT_3D ( 'NONE', #198, #35, #123 ) ;
#30 = VECTOR ( 'NONE', #299, 39.37007874015748143 ) ;
#31 = DIRECTION ( 'NONE',  ( -1.000000000000000000, 0.0000000000000000000, 0.0000000000000000000 ) ) ;
#32 = DIRECTION ( 'NONE',  ( 0.0000000000000000000, 0.0000000000000000000, 1.000000000000000000 ) ) ;
#33 = DIRECTION ( 'NONE',  ( 1.000000000000000000, 0.0000000000000000000, 0.0000000000000000000 ) ) ;
#34 = LINE ( 'NONE', #122, #247 ) ;
#35 = DIRECTION ( 'NONE',  ( 0.0000000000000000000, 0.0000000000000000000, 1.000000000000000000 ) ) ;
#36 = VECTOR ( 'NONE', #150, 39.37007874015747433 ) ;
#37 = FACE_OUTER_BOUND ( 'NONE', #103, .T. ) ;
#38 = VERTEX_POINT ( 'NONE', #55 ) ;
#39 = DIRECTION ( 'NONE',  ( -1.224646799147353700E-16, -0.0000000000000000000, -1.000000000000000000 ) ) ;
#40 = ORIENTED_EDGE ( 'NONE', *, *, #171, .F. ) ;
#41 = CIRCLE ( 'NONE', #85, 0.06250000000000002776 ) ;
#42 = CARTESIAN_POINT ( 'NONE',  ( 2.302335982397025094E-17, 0.0000000000000000000, 0.1880000000000000282 ) ) ;
#43 = FACE_OUTER_BOUND ( 'NONE', #267, .T. ) ;
#44 = APPLICATION_PROTOCOL_DEFINITION ( 'draft international standard', 'automotive_design', 1998, #204 ) ;
#45 = EDGE_CURVE ( 'NONE', #166, #273, #90, .T. ) ;
#46 = SURFACE_STYLE_FILL_AREA ( #165 ) ;
#47 = ORIENTED_EDGE ( 'NONE', *, *, #171, .T. ) ;
#48 =( NAMED_UNIT ( * ) SI_UNIT ( $, .STERADIAN. ) SOLID_ANGLE_UNIT ( ) );
#49 = CONICAL_SURFACE ( 'NONE', #206, 0.03121874999999999997, 0.1745329251994338915 ) ;
#50 = AXIS2_PLACEMENT_3D ( 'NONE', #238, #164, #112 ) ;
#51 = VERTEX_POINT ( 'NONE', #288 ) ;
#52 = DIRECTION ( 'NONE',  ( 1.000000000000000000, 0.0000000000000000000, 0.0000000000000000000 ) ) ;
#53 = CARTESIAN_POINT ( 'NONE',  ( -0.03121874999999997916, 5.738618360379552157E-18, 0.1880000000000000282 ) ) ;
#54 = CIRCLE ( 'NONE', #124, 0.04750000000000064587 ) ;
#55 = CARTESIAN_POINT ( 'NONE',  ( 0.06250000000000002776, 7.654042494670959086E-18, 1.485000000000000764 ) ) ;
#56 = DIRECTION ( 'NONE',  ( 1.000000000000000000, 0.0000000000000000000, 0.0000000000000000000 ) ) ;
#57 = CYLINDRICAL_SURFACE ( 'NONE', #139, 0.03121874999999999997 ) ;
#58 = CARTESIAN_POINT ( 'NONE',  ( -0.06249999999999997918, 0.0000000000000000000, 0.3654047844199156403 ) ) ;
#59 = ORIENTED_EDGE ( 'NONE', *, *, #106, .T. ) ;
#60 = DIRECTION ( 'NONE',  ( 0.7071067811865462405, 8.659560562354916834E-17, -0.7071067811865486830 ) ) ;
#61 = ORIENTED_EDGE ( 'NONE', *, *, #17, .F. ) ;
#62 = CIRCLE ( 'NONE', #8, 0.03121874999999999997 ) ;
#63 = CARTESIAN_POINT ( 'NONE',  ( -0.03121874999999999997, 0.0000000000000000000, 3.823194226088145228E-18 ) ) ;
#64 = FILL_AREA_STYLE_COLOUR ( '', #219 ) ;
#65 = SURFACE_STYLE_USAGE ( .BOTH. , #87 ) ;
#66 = EDGE_LOOP ( 'NONE', ( #47, #140, #209, #234 ) ) ;
#67 = ADVANCED_FACE ( 'NONE', ( #174 ), #68, .T. ) ;
#68 = CONICAL_SURFACE ( 'NONE', #270, 0.04750000000000064587, 0.7853981633974466137 ) ;
#69 = EDGE_CURVE ( 'NONE', #213, #51, #135, .T. ) ;
#70 = EDGE_LOOP ( 'NONE', ( #249, #278, #24, #82 ) ) ;
#71 =( NAMED_UNIT ( * ) PLANE_ANGLE_UNIT ( ) SI_UNIT ( $, .RADIAN. ) );
#72 = AXIS2_PLACEMENT_3D ( 'NONE', #11, #245, #215 ) ;
#73 = DIRECTION ( 'NONE',  ( -1.224646799147353700E-16, -0.0000000000000000000, -1.000000000000000000 ) ) ;
#74 = CARTESIAN_POINT ( 'NONE',  ( 0.0000000000000000000, 0.0000000000000000000, 1.485000000000000764 ) ) ;
#75 = EDGE_CURVE ( 'NONE', #192, #148, #167, .T. ) ;
#76 = DIRECTION ( 'NONE',  ( 0.0000000000000000000, 0.0000000000000000000, -1.000000000000000000 ) ) ;
#77 = UNCERTAINTY_MEASURE_WITH_UNIT (LENGTH_MEASURE( 1.000000000000000082E-05 ), #259, 'distance_accuracy_value', 'NONE');
#78 = CYLINDRICAL_SURFACE ( 'NONE', #160, 0.06250000000000002776 ) ;
#79 = CARTESIAN_POINT ( 'NONE',  ( 0.0000000000000000000, 0.0000000000000000000, 0.0000000000000000000 ) ) ;
#80 = VECTOR ( 'NONE', #73, 39.37007874015748143 ) ;
#81 = DIRECTION ( 'NONE',  ( -0.0000000000000000000, -0.0000000000000000000, -1.000000000000000000 ) ) ;
#82 = ORIENTED_EDGE ( 'NONE', *, *, #3, .F. ) ;
#83 = ORIENTED_EDGE ( 'NONE', *, *, #217, .F. ) ;
#84 = DIRECTION ( 'NONE',  ( 1.000000000000000000, 0.0000000000000000000, -0.0000000000000000000 ) ) ;
#85 = AXIS2_PLACEMENT_3D ( 'NONE', #101, #16, #229 ) ;
#86 = PRODUCT_DEFINITION_SHAPE ( 'NONE', 'NONE',  #20 ) ;
#87 = SURFACE_SIDE_STYLE ('',( #281 ) ) ;
#88 =( LENGTH_UNIT ( ) NAMED_UNIT ( * ) SI_UNIT ( $, .METRE. ) );
#89 = STYLED_ITEM ( 'NONE', ( #195 ), #15 ) ;
#90 = LINE ( 'NONE', #243, #36 ) ;
#91 = CARTESIAN_POINT ( 'NONE',  ( -0.06250000000000002776, 0.0000000000000000000, 1.485000000000000764 ) ) ;
#92 = ORIENTED_EDGE ( 'NONE', *, *, #295, .T. ) ;
#93 = ORIENTED_EDGE ( 'NONE', *, *, #183, .T. ) ;
#94 = DIRECTION ( 'NONE',  ( -1.224646799147353700E-16, -0.0000000000000000000, -1.000000000000000000 ) ) ;
#95 = CARTESIAN_POINT ( 'NONE',  ( 0.0000000000000000000, 0.0000000000000000000, 1.500000000000000222 ) ) ;
#96 = PRODUCT_DEFINITION_FORMATION_WITH_SPECIFIED_SOURCE ( 'ANY', '', #5, .NOT_KNOWN. ) ;
#97 = PRODUCT_DEFINITION_CONTEXT ( 'detailed design', #204, 'design' ) ;
#98 = FACE_OUTER_BOUND ( 'NONE', #191, .T. ) ;
#99 = FACE_OUTER_BOUND ( 'NONE', #128, .T. ) ;
#100 = VERTEX_POINT ( 'NONE', #291 ) ;
#101 = CARTESIAN_POINT ( 'NONE',  ( 4.474917996329785777E-17, 0.0000000000000000000, 0.3654047844199156403 ) ) ;
#102 = LINE ( 'NONE', #292, #23 ) ;
#103 = EDGE_LOOP ( 'NONE', ( #239, #237, #93, #61 ) ) ;
#104 = ORIENTED_EDGE ( 'NONE', *, *, #275, .F. ) ;
#105 =( LENGTH_UNIT ( ) NAMED_UNIT ( * ) SI_UNIT ( $, .METRE. ) );
#106 = EDGE_CURVE ( 'NONE', #148, #192, #54, .T. ) ;
#107 = DIRECTION ( 'NONE',  ( 0.0000000000000000000, 0.0000000000000000000, 1.000000000000000000 ) ) ;
#108 = DIRECTION ( 'NONE',  ( -1.000000000000000000, 0.0000000000000000000, 0.0000000000000000000 ) ) ;
#109 = ORIENTED_EDGE ( 'NONE', *, *, #211, .T. ) ;
#110 = CIRCLE ( 'NONE', #176, 0.03121874999999999997 ) ;
#111 = EDGE_LOOP ( 'NONE', ( #114, #92, #40, #104 ) ) ;
#112 = DIRECTION ( 'NONE',  ( 1.000000000000000000, 0.0000000000000000000, 0.0000000000000000000 ) ) ;
#113 = ADVANCED_FACE ( 'NONE', ( #175 ), #284, .T. ) ;
#114 = ORIENTED_EDGE ( 'NONE', *, *, #75, .F. ) ;
#115 = ORIENTED_EDGE ( 'NONE', *, *, #275, .T. ) ;
#116 = DIMENSIONAL_EXPONENTS ( 1.000000000000000000, 0.0000000000000000000, 0.0000000000000000000, 0.0000000000000000000, 0.0000000000000000000, 0.0000000000000000000, 0.0000000000000000000 ) ;
#117 = DIRECTION ( 'NONE',  ( 0.0000000000000000000, 0.0000000000000000000, 1.000000000000000000 ) ) ;
#118 = AXIS2_PLACEMENT_3D ( 'NONE', #147, #240, #31 ) ;
#119 = EDGE_CURVE ( 'NONE', #38, #157, #258, .T. ) ;
#120 = DIMENSIONAL_EXPONENTS ( 1.000000000000000000, 0.0000000000000000000, 0.0000000000000000000, 0.0000000000000000000, 0.0000000000000000000, 0.0000000000000000000, 0.0000000000000000000 ) ;
#121 = DIRECTION ( 'NONE',  ( 0.0000000000000000000, 0.0000000000000000000, -1.000000000000000000 ) ) ;
#122 = CARTESIAN_POINT ( 'NONE',  ( -0.06250000000000002776, 0.0000000000000000000, 1.500000000000000222 ) ) ;
#123 = DIRECTION ( 'NONE',  ( 1.000000000000000000, 0.0000000000000000000, -0.0000000000000000000 ) ) ;
#124 = AXIS2_PLACEMENT_3D ( 'NONE', #95, #117, #52 ) ;
#125 = LENGTH_MEASURE_WITH_UNIT ( LENGTH_MEASURE( 0.02539999999999999897 ), #126 );
#126 =( LENGTH_UNIT ( ) NAMED_UNIT ( * ) SI_UNIT ( $, .METRE. ) );
#127 = ORIENTED_EDGE ( 'NONE', *, *, #69, .F. ) ;
#128 = EDGE_LOOP ( 'NONE', ( #144, #83, #159, #28 ) ) ;
#129 = DIRECTION ( 'NONE',  ( -1.000000000000000000, 0.0000000000000000000, 0.0000000000000000000 ) ) ;
#130 = EDGE_CURVE ( 'NONE', #138, #51, #10, .T. ) ;
#131 = PRESENTATION_LAYER_ASSIGNMENT (  '', '', ( #9 ) ) ;
#132 = DIRECTION ( 'NONE',  ( -1.224646799147353700E-16, -0.0000000000000000000, -1.000000000000000000 ) ) ;
#133 = FACE_OUTER_BOUND ( 'NONE', #262, .T. ) ;
#134 = LINE ( 'NONE', #208, #30 ) ;
#135 = CIRCLE ( 'NONE', #261, 0.03121874999999999997 ) ;
#136 = ORIENTED_EDGE ( 'NONE', *, *, #119, .F. ) ;
#137 = PRODUCT_RELATED_PRODUCT_CATEGORY ( 'part', '', ( #5 ) ) ;
#138 = VERTEX_POINT ( 'NONE', #14 ) ;
#139 = AXIS2_PLACEMENT_3D ( 'NONE', #184, #132, #162 ) ;
#140 = ORIENTED_EDGE ( 'NONE', *, *, #250, .T. ) ;
#141 =( NAMED_UNIT ( * ) SI_UNIT ( $, .STERADIAN. ) SOLID_ANGLE_UNIT ( ) );
#142 = CARTESIAN_POINT ( 'NONE',  ( 0.0000000000000000000, 0.0000000000000000000, 1.500000000000000222 ) ) ;
#143 = CARTESIAN_POINT ( 'NONE',  ( 4.474917996329785777E-17, 0.0000000000000000000, 0.3654047844199156403 ) ) ;
#144 = ORIENTED_EDGE ( 'NONE', *, *, #45, .F. ) ;
#145 = CARTESIAN_POINT ( 'NONE',  ( 0.0000000000000000000, 0.0000000000000000000, 1.485000000000000764 ) ) ;
#146 = MECHANICAL_DESIGN_GEOMETRIC_PRESENTATION_REPRESENTATION (  '', ( #89 ), #18 ) ;
#147 = CARTESIAN_POINT ( 'NONE',  ( 0.0000000000000000000, 0.0000000000000000000, 1.500000000000000222 ) ) ;
#148 = VERTEX_POINT ( 'NONE', #177 ) ;
#149 = ADVANCED_FACE ( 'NONE', ( #98 ), #290, .T. ) ;
#150 = DIRECTION ( 'NONE',  ( -0.1736481776669311916, 2.126576849575783316E-17, 0.9848077530122080203 ) ) ;
#151 = ORIENTED_EDGE ( 'NONE', *, *, #130, .F. ) ;
#152 = DIRECTION ( 'NONE',  ( -1.224646799147353700E-16, -0.0000000000000000000, -1.000000000000000000 ) ) ;
#153 = VECTOR ( 'NONE', #223, 39.37007874015748854 ) ;
#154 = FACE_OUTER_BOUND ( 'NONE', #225, .T. ) ;
#155 = DIRECTION ( 'NONE',  ( 1.000000000000000000, 0.0000000000000000000, 0.0000000000000000000 ) ) ;
#156 = ADVANCED_FACE ( 'NONE', ( #7 ), #199, .T. ) ;
#157 = VERTEX_POINT ( 'NONE', #91 ) ;
#158 =( CONVERSION_BASED_UNIT ( 'INCH', #125 ) LENGTH_UNIT ( ) NAMED_UNIT ( #120 ) );
#159 = ORIENTED_EDGE ( 'NONE', *, *, #3, .T. ) ;
#160 = AXIS2_PLACEMENT_3D ( 'NONE', #271, #269, #222 ) ;
#161 = COLOUR_RGB ( '',0.7921568627450980005, 0.8196078431372548767, 0.9333333333333333481 ) ;
#162 = DIRECTION ( 'NONE',  ( -1.000000000000000000, 0.0000000000000000000, 1.224646799147353947E-16 ) ) ;
#163 = CLOSED_SHELL ( 'NONE', ( #264, #113, #67, #156, #242, #149, #226, #298, #189, #255 ) ) ;
#164 = DIRECTION ( 'NONE',  ( 0.0000000000000000000, 0.0000000000000000000, 1.000000000000000000 ) ) ;
#165 = FILL_AREA_STYLE ('',( #64 ) ) ;
#166 = VERTEX_POINT ( 'NONE', #53 ) ;
#167 = CIRCLE ( 'NONE', #265, 0.04750000000000064587 ) ;
#168 =( NAMED_UNIT ( * ) PLANE_ANGLE_UNIT ( ) SI_UNIT ( $, .RADIAN. ) );
#169 = ORIENTED_EDGE ( 'NONE', *, *, #106, .F. ) ;
#170 = PRODUCT_CONTEXT ( 'NONE', #210, 'mechanical' ) ;
#171 = EDGE_CURVE ( 'NONE', #157, #38, #178, .T. ) ;
#172 = ORIENTED_EDGE ( 'NONE', *, *, #217, .T. ) ;
#173 = DIRECTION ( 'NONE',  ( -1.000000000000000000, 0.0000000000000000000, 0.0000000000000000000 ) ) ;
#174 = FACE_OUTER_BOUND ( 'NONE', #111, .T. ) ;
#175 = FACE_OUTER_BOUND ( 'NONE', #70, .T. ) ;
#176 = AXIS2_PLACEMENT_3D ( 'NONE', #42, #294, #129 ) ;
#177 = CARTESIAN_POINT ( 'NONE',  ( -0.04750000000000064587, 0.0000000000000000000, 1.500000000000000222 ) ) ;
#178 = CIRCLE ( 'NONE', #293, 0.06250000000000002776 ) ;
#179 = CARTESIAN_POINT ( 'NONE',  ( 0.0000000000000000000, 0.0000000000000000000, 1.500000000000000222 ) ) ;
#180 = CARTESIAN_POINT ( 'NONE',  ( 2.302335982397025094E-17, 0.0000000000000000000, 0.1880000000000000282 ) ) ;
#181 = DIRECTION ( 'NONE',  ( -1.000000000000000000, 0.0000000000000000000, 0.0000000000000000000 ) ) ;
#182 = MECHANICAL_DESIGN_GEOMETRIC_PRESENTATION_REPRESENTATION (  '', ( #9 ), #272 ) ;
#183 = EDGE_CURVE ( 'NONE', #157, #273, #34, .T. ) ;
#184 = CARTESIAN_POINT ( 'NONE',  ( 0.0000000000000000000, 0.0000000000000000000, 0.0000000000000000000 ) ) ;
#185 = CARTESIAN_POINT ( 'NONE',  ( 2.302335982397025094E-17, 0.0000000000000000000, 0.1880000000000000282 ) ) ;
#186 = DIRECTION ( 'NONE',  ( -1.224646799147353700E-16, -0.0000000000000000000, -1.000000000000000000 ) ) ;
#187 = ORIENTED_EDGE ( 'NONE', *, *, #130, .T. ) ;
#188 = CIRCLE ( 'NONE', #214, 0.06250000000000002776 ) ;
#189 = ADVANCED_FACE ( 'NONE', ( #133 ), #201, .T. ) ;
#190 = ORIENTED_EDGE ( 'NONE', *, *, #287, .F. ) ;
#191 = EDGE_LOOP ( 'NONE', ( #59, #6 ) ) ;
#192 = VERTEX_POINT ( 'NONE', #21 ) ;
#193 = CARTESIAN_POINT ( 'NONE',  ( 4.682062571497491304E-34, 0.0000000000000000000, 3.823194226088145228E-18 ) ) ;
#194 =( NAMED_UNIT ( * ) SI_UNIT ( $, .STERADIAN. ) SOLID_ANGLE_UNIT ( ) );
#195 = PRESENTATION_STYLE_ASSIGNMENT (( #4 ) ) ;
#196 = DIRECTION ( 'NONE',  ( 1.000000000000000000, 0.0000000000000000000, 0.0000000000000000000 ) ) ;
#197 = EDGE_CURVE ( 'NONE', #166, #213, #253, .T. ) ;
#198 = CARTESIAN_POINT ( 'NONE',  ( 0.0000000000000000000, 0.0000000000000000000, 1.500000000000000222 ) ) ;
#199 = CYLINDRICAL_SURFACE ( 'NONE', #118, 0.06250000000000002776 ) ;
#200 = DIRECTION ( 'NONE',  ( 1.224646799147353700E-16, 0.0000000000000000000, 1.000000000000000000 ) ) ;
#201 = CYLINDRICAL_SURFACE ( 'NONE', #231, 0.03121874999999999997 ) ;
#202 = CARTESIAN_POINT ( 'NONE',  ( -0.03121874999999999997, 0.0000000000000000000, 7.646388452176290456E-18 ) ) ;
#203 = CARTESIAN_POINT ( 'NONE',  ( 0.0000000000000000000, 0.0000000000000000000, 0.0000000000000000000 ) ) ;
#204 = APPLICATION_CONTEXT ( 'automotive_design' ) ;
#205 = CARTESIAN_POINT ( 'NONE',  ( 4.682062571497491304E-34, 0.0000000000000000000, 3.823194226088145228E-18 ) ) ;
#206 = AXIS2_PLACEMENT_3D ( 'NONE', #180, #200, #155 ) ;
#207 = ORIENTED_EDGE ( 'NONE', *, *, #69, .T. ) ;
#208 = CARTESIAN_POINT ( 'NONE',  ( 0.03121875000000002426, 0.0000000000000000000, 0.1880000000000000282 ) ) ;
#209 = ORIENTED_EDGE ( 'NONE', *, *, #228, .F. ) ;
#210 = APPLICATION_CONTEXT ( 'automotive_design' ) ;
#211 = EDGE_CURVE ( 'NONE', #166, #138, #62, .T. ) ;
#212 = AXIS2_PLACEMENT_3D ( 'NONE', #224, #297, #181 ) ;
#213 = VERTEX_POINT ( 'NONE', #202 ) ;
#214 = AXIS2_PLACEMENT_3D ( 'NONE', #143, #286, #221 ) ;
#215 = DIRECTION ( 'NONE',  ( 1.000000000000000000, 0.0000000000000000000, 0.0000000000000000000 ) ) ;
#216 = LENGTH_MEASURE_WITH_UNIT ( LENGTH_MEASURE( 0.02539999999999999897 ), #105 );
#217 = EDGE_CURVE ( 'NONE', #138, #166, #110, .T. ) ;
#218 = DIRECTION ( 'NONE',  ( -0.0000000000000000000, -0.0000000000000000000, -1.000000000000000000 ) ) ;
#219 = COLOUR_RGB ( '',0.7921568627450980005, 0.8196078431372548767, 0.9333333333333333481 ) ;
#220 = UNCERTAINTY_MEASURE_WITH_UNIT (LENGTH_MEASURE( 1.000000000000000082E-05 ), #158, 'distance_accuracy_value', 'NONE');
#221 = DIRECTION ( 'NONE',  ( 1.000000000000000000, 0.0000000000000000000, 0.0000000000000000000 ) ) ;
#222 = DIRECTION ( 'NONE',  ( -1.000000000000000000, 0.0000000000000000000, 0.0000000000000000000 ) ) ;
#223 = DIRECTION ( 'NONE',  ( -0.7071067811865462405, 0.0000000000000000000, -0.7071067811865486830 ) ) ;
#224 = CARTESIAN_POINT ( 'NONE',  ( 0.0000000000000000000, 0.0000000000000000000, 1.500000000000000222 ) ) ;
#225 = EDGE_LOOP ( 'NONE', ( #232, #169, #115, #136 ) ) ;
#226 = ADVANCED_FACE ( 'NONE', ( #154 ), #289, .T. ) ;
#227 = EDGE_LOOP ( 'NONE', ( #109, #187, #127, #283 ) ) ;
#228 = EDGE_CURVE ( 'NONE', #273, #100, #41, .T. ) ;
#229 = DIRECTION ( 'NONE',  ( 1.000000000000000000, 0.0000000000000000000, 0.0000000000000000000 ) ) ;
#230 = ORIENTED_EDGE ( 'NONE', *, *, #287, .T. ) ;
#231 = AXIS2_PLACEMENT_3D ( 'NONE', #79, #186, #251 ) ;
#232 = ORIENTED_EDGE ( 'NONE', *, *, #295, .F. ) ;
#233 = APPLICATION_PROTOCOL_DEFINITION ( 'draft international standard', 'automotive_design', 1998, #210 ) ;
#234 = ORIENTED_EDGE ( 'NONE', *, *, #183, .F. ) ;
#235 = AXIS2_PLACEMENT_3D ( 'NONE', #203, #107, #84 ) ;
#236 =( GEOMETRIC_REPRESENTATION_CONTEXT ( 3 ) GLOBAL_UNCERTAINTY_ASSIGNED_CONTEXT ( ( #220 ) ) GLOBAL_UNIT_ASSIGNED_CONTEXT ( ( #158, #168, #141 ) ) REPRESENTATION_CONTEXT ( 'NONE', 'WORKASPACE' ) );
#237 = ORIENTED_EDGE ( 'NONE', *, *, #119, .T. ) ;
#238 = CARTESIAN_POINT ( 'NONE',  ( 0.0000000000000000000, 0.0000000000000000000, 0.0000000000000000000 ) ) ;
#239 = ORIENTED_EDGE ( 'NONE', *, *, #250, .F. ) ;
#240 = DIRECTION ( 'NONE',  ( -0.0000000000000000000, -0.0000000000000000000, -1.000000000000000000 ) ) ;
#241 = DIRECTION ( 'NONE',  ( 0.0000000000000000000, 0.0000000000000000000, -1.000000000000000000 ) ) ;
#242 = ADVANCED_FACE ( 'NONE', ( #37 ), #78, .T. ) ;
#243 = CARTESIAN_POINT ( 'NONE',  ( -0.03121874999999997916, 3.823194226088143687E-18, 0.1880000000000000282 ) ) ;
#244 = DIMENSIONAL_EXPONENTS ( 1.000000000000000000, 0.0000000000000000000, 0.0000000000000000000, 0.0000000000000000000, 0.0000000000000000000, 0.0000000000000000000, 0.0000000000000000000 ) ;
#245 = DIRECTION ( 'NONE',  ( 1.224646799147353700E-16, 0.0000000000000000000, 1.000000000000000000 ) ) ;
#246 = ORIENTED_EDGE ( 'NONE', *, *, #197, .T. ) ;
#247 = VECTOR ( 'NONE', #218, 39.37007874015748143 ) ;
#248 = DIRECTION ( 'NONE',  ( -1.224646799147353700E-16, -0.0000000000000000000, -1.000000000000000000 ) ) ;
#249 = ORIENTED_EDGE ( 'NONE', *, *, #211, .F. ) ;
#250 = EDGE_CURVE ( 'NONE', #38, #100, #256, .T. ) ;
#251 = DIRECTION ( 'NONE',  ( -1.000000000000000000, 0.0000000000000000000, 1.224646799147353947E-16 ) ) ;
#252 = CARTESIAN_POINT ( 'NONE',  ( -0.04750000000000064587, 0.0000000000000000000, 1.500000000000000222 ) ) ;
#253 = LINE ( 'NONE', #63, #1 ) ;
#254 = VECTOR ( 'NONE', #81, 39.37007874015748143 ) ;
#255 = ADVANCED_FACE ( 'NONE', ( #43 ), #274, .F. ) ;
#256 = LINE ( 'NONE', #19, #254 ) ;
#257 = FILL_AREA_STYLE_COLOUR ( '', #161 ) ;
#258 = CIRCLE ( 'NONE', #2, 0.06250000000000002776 ) ;
#259 =( CONVERSION_BASED_UNIT ( 'INCH', #279 ) LENGTH_UNIT ( ) NAMED_UNIT ( #244 ) );
#260 = SHAPE_DEFINITION_REPRESENTATION ( #86, #26 ) ;
#261 = AXIS2_PLACEMENT_3D ( 'NONE', #193, #94, #266 ) ;
#262 = EDGE_LOOP ( 'NONE', ( #151, #172, #246, #190 ) ) ;
#263 = UNCERTAINTY_MEASURE_WITH_UNIT (LENGTH_MEASURE( 1.000000000000000082E-05 ), #12, 'distance_accuracy_value', 'NONE');
#264 = ADVANCED_FACE ( 'NONE', ( #276 ), #57, .T. ) ;
#265 = AXIS2_PLACEMENT_3D ( 'NONE', #179, #32, #56 ) ;
#266 = DIRECTION ( 'NONE',  ( -1.000000000000000000, 0.0000000000000000000, 1.224646799147353947E-16 ) ) ;
#267 = EDGE_LOOP ( 'NONE', ( #207, #230 ) ) ;
#268 =( NAMED_UNIT ( * ) PLANE_ANGLE_UNIT ( ) SI_UNIT ( $, .RADIAN. ) );
#269 = DIRECTION ( 'NONE',  ( -0.0000000000000000000, -0.0000000000000000000, -1.000000000000000000 ) ) ;
#270 = AXIS2_PLACEMENT_3D ( 'NONE', #142, #76, #173 ) ;
#271 = CARTESIAN_POINT ( 'NONE',  ( 0.0000000000000000000, 0.0000000000000000000, 1.500000000000000222 ) ) ;
#272 =( GEOMETRIC_REPRESENTATION_CONTEXT ( 3 ) GLOBAL_UNCERTAINTY_ASSIGNED_CONTEXT ( ( #77 ) ) GLOBAL_UNIT_ASSIGNED_CONTEXT ( ( #259, #71, #48 ) ) REPRESENTATION_CONTEXT ( 'NONE', 'WORKASPACE' ) );
#273 = VERTEX_POINT ( 'NONE', #58 ) ;
#274 = PLANE ( 'NONE',  #235 ) ;
#275 = EDGE_CURVE ( 'NONE', #148, #157, #22, .T. ) ;
#276 = FACE_OUTER_BOUND ( 'NONE', #227, .T. ) ;
#277 = CIRCLE ( 'NONE', #13, 0.03121874999999999997 ) ;
#278 = ORIENTED_EDGE ( 'NONE', *, *, #45, .T. ) ;
#279 = LENGTH_MEASURE_WITH_UNIT ( LENGTH_MEASURE( 0.02539999999999999897 ), #88 );
#280 = PRESENTATION_LAYER_ASSIGNMENT (  '', '', ( #89 ) ) ;
#281 = SURFACE_STYLE_FILL_AREA ( #282 ) ;
#282 = FILL_AREA_STYLE ('',( #257 ) ) ;
#283 = ORIENTED_EDGE ( 'NONE', *, *, #197, .F. ) ;
#284 = CONICAL_SURFACE ( 'NONE', #72, 0.03121874999999999997, 0.1745329251994338915 ) ;
#285 = CARTESIAN_POINT ( 'NONE',  ( 0.03121874999999999997, 3.823194226088143687E-18, -3.823194226088145228E-18 ) ) ;
#286 = DIRECTION ( 'NONE',  ( -1.224646799147353700E-16, -0.0000000000000000000, -1.000000000000000000 ) ) ;
#287 = EDGE_CURVE ( 'NONE', #51, #213, #277, .T. ) ;
#288 = CARTESIAN_POINT ( 'NONE',  ( 0.03121874999999999997, 3.823194226088143687E-18, 0.0000000000000000000 ) ) ;
#289 = CONICAL_SURFACE ( 'NONE', #212, 0.04750000000000064587, 0.7853981633974466137 ) ;
#290 = PLANE ( 'NONE',  #29 ) ;
#291 = CARTESIAN_POINT ( 'NONE',  ( 0.06250000000000006939, 7.654042494670963708E-18, 0.3654047844199156403 ) ) ;
#292 = CARTESIAN_POINT ( 'NONE',  ( 0.04750000000000064587, 5.817072295950006528E-18, 1.500000000000000222 ) ) ;
#293 = AXIS2_PLACEMENT_3D ( 'NONE', #145, #241, #33 ) ;
#294 = DIRECTION ( 'NONE',  ( -1.224646799147353700E-16, -0.0000000000000000000, -1.000000000000000000 ) ) ;
#295 = EDGE_CURVE ( 'NONE', #192, #38, #102, .T. ) ;
#296 = DIRECTION ( 'NONE',  ( -1.000000000000000000, 0.0000000000000000000, 1.224646799147353947E-16 ) ) ;
#297 = DIRECTION ( 'NONE',  ( 0.0000000000000000000, 0.0000000000000000000, -1.000000000000000000 ) ) ;
#298 = ADVANCED_FACE ( 'NONE', ( #99 ), #49, .T. ) ;
#299 = DIRECTION ( 'NONE',  ( 0.1736481776669313859, 0.0000000000000000000, 0.9848077530122077983 ) ) ;
ENDSEC;
END-ISO-10303-21;
