ISO-10303-21;
HEADER;
FILE_DESCRIPTION (( 'STEP AP214' ),
    '1' );
FILE_NAME ('84994.STEP',
    '2023-06-23T15:31:04',
    ( '' ),
    ( '' ),
    'SwSTEP 2.0',
    'SolidWorks 2023',
    '' );
FILE_SCHEMA (( 'AUTOMOTIVE_DESIGN' ));
ENDSEC;

DATA;
#1 = UNCERTAINTY_MEASURE_WITH_UNIT (LENGTH_MEASURE( 1.000000000000000082E-05 ), #148, 'distance_accuracy_value', 'NONE');
#2 = CARTESIAN_POINT ( 'NONE',  ( 0.5000000000000000000, 6.000000000000000888, 0.000000000000000000 ) ) ;
#3 = DIRECTION ( 'NONE',  ( -0.000000000000000000, -1.000000000000000000, -0.000000000000000000 ) ) ;
#4 =( CONVERSION_BASED_UNIT ( 'INCH', #220 ) LENGTH_UNIT ( ) NAMED_UNIT ( #77 ) );
#5 = ADVANCED_FACE ( 'NONE', ( #71 ), #57, .F. ) ;
#6 = PRESENTATION_LAYER_ASSIGNMENT (  '', '', ( #23 ) ) ;
#7 =( GEOMETRIC_REPRESENTATION_CONTEXT ( 3 ) GLOBAL_UNCERTAINTY_ASSIGNED_CONTEXT ( ( #290 ) ) GLOBAL_UNIT_ASSIGNED_CONTEXT ( ( #208, #135, #41 ) ) REPRESENTATION_CONTEXT ( 'NONE', 'WORKASPACE' ) );
#8 = CARTESIAN_POINT ( 'NONE',  ( 0.000000000000000000, 3.250000000000000000, 0.000000000000000000 ) ) ;
#9 = DIRECTION ( 'NONE',  ( -1.000000000000000000, 0.000000000000000000, 0.000000000000000000 ) ) ;
#10 = ORIENTED_EDGE ( 'NONE', *, *, #63, .T. ) ;
#11 = DIRECTION ( 'NONE',  ( 0.000000000000000000, 0.000000000000000000, -1.000000000000000000 ) ) ;
#12 = ORIENTED_EDGE ( 'NONE', *, *, #305, .F. ) ;
#13 = ADVANCED_FACE ( 'NONE', ( #156 ), #188, .T. ) ;
#14 =( NAMED_UNIT ( * ) SI_UNIT ( $, .STERADIAN. ) SOLID_ANGLE_UNIT ( ) );
#15 = COLOUR_RGB ( '',1.000000000000000000, 0.000000000000000000, 0.000000000000000000 ) ;
#16 = ORIENTED_EDGE ( 'NONE', *, *, #30, .T. ) ;
#17 = VERTEX_POINT ( 'NONE', #19 ) ;
#18 = EDGE_CURVE ( 'NONE', #109, #226, #181, .T. ) ;
#19 = CARTESIAN_POINT ( 'NONE',  ( 6.123233995736766036E-17, 3.250000000000000000, 0.5000000000000000000 ) ) ;
#20 = STYLED_ITEM ( 'NONE', ( #237 ), #58 ) ;
#21 =( LENGTH_UNIT ( ) NAMED_UNIT ( * ) SI_UNIT ( $, .METRE. ) );
#22 = CARTESIAN_POINT ( 'NONE',  ( 0.000000000000000000, 0.000000000000000000, 0.000000000000000000 ) ) ;
#23 = STYLED_ITEM ( 'NONE', ( #295 ), #66 ) ;
#24 =( NAMED_UNIT ( * ) PLANE_ANGLE_UNIT ( ) SI_UNIT ( $, .RADIAN. ) );
#25 =( NAMED_UNIT ( * ) PLANE_ANGLE_UNIT ( ) SI_UNIT ( $, .RADIAN. ) );
#26 = PRODUCT_RELATED_PRODUCT_CATEGORY ( 'part', '', ( #32 ) ) ;
#27 = DIRECTION ( 'NONE',  ( 0.000000000000000000, 0.000000000000000000, -1.000000000000000000 ) ) ;
#28 = CIRCLE ( 'NONE', #241, 0.5000000000000001110 ) ;
#29 = SURFACE_STYLE_FILL_AREA ( #51 ) ;
#30 = EDGE_CURVE ( 'NONE', #134, #299, #119, .T. ) ;
#31 = PLANE ( 'NONE',  #149 ) ;
#32 = PRODUCT ( '84994', '84994', '', ( #267 ) ) ;
#33 = ORIENTED_EDGE ( 'NONE', *, *, #18, .F. ) ;
#34 = APPLICATION_CONTEXT ( 'automotive_design' ) ;
#35 = CIRCLE ( 'NONE', #248, 0.5000000000000001110 ) ;
#36 = DIRECTION ( 'NONE',  ( -4.453261087808560759E-17, 1.000000000000000000, -0.000000000000000000 ) ) ;
#37 = ORIENTED_EDGE ( 'NONE', *, *, #198, .T. ) ;
#38 = FILL_AREA_STYLE ('',( #293 ) ) ;
#39 = EDGE_LOOP ( 'NONE', ( #165, #253 ) ) ;
#40 = VERTEX_POINT ( 'NONE', #288 ) ;
#41 =( NAMED_UNIT ( * ) SI_UNIT ( $, .STERADIAN. ) SOLID_ANGLE_UNIT ( ) );
#42 = PRESENTATION_LAYER_ASSIGNMENT (  '', '', ( #20 ) ) ;
#43 = ADVANCED_FACE ( 'NONE', ( #44 ), #215, .F. ) ;
#44 = FACE_OUTER_BOUND ( 'NONE', #39, .T. ) ;
#45 = FILL_AREA_STYLE ('',( #263 ) ) ;
#46 = AXIS2_PLACEMENT_3D ( 'NONE', #142, #302, #95 ) ;
#47 = APPLICATION_PROTOCOL_DEFINITION ( 'draft international standard', 'automotive_design', 1998, #120 ) ;
#48 = DIRECTION ( 'NONE',  ( -1.000000000000000000, 0.000000000000000000, 0.000000000000000000 ) ) ;
#49 = CARTESIAN_POINT ( 'NONE',  ( 0.5000000000000000000, 3.250000000000000000, 6.123233995736767268E-17 ) ) ;
#50 = AXIS2_PLACEMENT_3D ( 'NONE', #108, #36, #9 ) ;
#51 = FILL_AREA_STYLE ('',( #179 ) ) ;
#52 = UNCERTAINTY_MEASURE_WITH_UNIT (LENGTH_MEASURE( 1.000000000000000082E-05 ), #194, 'distance_accuracy_value', 'NONE');
#53 =( NAMED_UNIT ( * ) PLANE_ANGLE_UNIT ( ) SI_UNIT ( $, .RADIAN. ) );
#54 = DIRECTION ( 'NONE',  ( -4.453261087808560759E-17, 1.000000000000000000, -0.000000000000000000 ) ) ;
#55 = MECHANICAL_DESIGN_GEOMETRIC_PRESENTATION_REPRESENTATION (  '', ( #23 ), #259 ) ;
#56 = DIRECTION ( 'NONE',  ( 0.000000000000000000, 1.000000000000000000, 0.000000000000000000 ) ) ;
#57 = PLANE ( 'NONE',  #285 ) ;
#58 = ADVANCED_FACE ( 'NONE', ( #146 ), #190, .T. ) ;
#59 = VECTOR ( 'NONE', #54, 39.37007874015748143 ) ;
#60 = DIRECTION ( 'NONE',  ( 0.000000000000000000, 0.000000000000000000, -1.000000000000000000 ) ) ;
#61 = DIRECTION ( 'NONE',  ( 0.000000000000000000, -0.000000000000000000, 1.000000000000000000 ) ) ;
#62 = PRESENTATION_STYLE_ASSIGNMENT (( #280 ) ) ;
#63 = EDGE_CURVE ( 'NONE', #40, #109, #217, .T. ) ;
#64 =( LENGTH_UNIT ( ) NAMED_UNIT ( * ) SI_UNIT ( $, .METRE. ) );
#65 = ORIENTED_EDGE ( 'NONE', *, *, #245, .T. ) ;
#66 = MANIFOLD_SOLID_BREP ( 'Revolve - Cutting Edge', #233 ) ;
#67 =( CONVERSION_BASED_UNIT ( 'INCH', #90 ) LENGTH_UNIT ( ) NAMED_UNIT ( #150 ) );
#68 = ORIENTED_EDGE ( 'NONE', *, *, #30, .F. ) ;
#69 = PRESENTATION_STYLE_ASSIGNMENT (( #205 ) ) ;
#70 = COLOUR_RGB ( '',1.000000000000000000, 0.000000000000000000, 0.000000000000000000 ) ;
#71 = FACE_OUTER_BOUND ( 'NONE', #91, .T. ) ;
#72 = ADVANCED_BREP_SHAPE_REPRESENTATION ( '84994', ( #66, #139, #145 ), #107 ) ;
#73 = DIRECTION ( 'NONE',  ( -0.000000000000000000, -1.000000000000000000, -0.000000000000000000 ) ) ;
#74 = EDGE_CURVE ( 'NONE', #112, #203, #200, .T. ) ;
#75 = CYLINDRICAL_SURFACE ( 'NONE', #177, 0.5000000000000001110 ) ;
#76 = PRESENTATION_LAYER_ASSIGNMENT (  '', '', ( #207 ) ) ;
#77 = DIMENSIONAL_EXPONENTS ( 1.000000000000000000, 0.000000000000000000, 0.000000000000000000, 0.000000000000000000, 0.000000000000000000, 0.000000000000000000, 0.000000000000000000 ) ;
#78 = DIRECTION ( 'NONE',  ( -0.000000000000000000, -1.000000000000000000, -0.000000000000000000 ) ) ;
#79 = EDGE_CURVE ( 'NONE', #17, #226, #272, .T. ) ;
#80 = CARTESIAN_POINT ( 'NONE',  ( 0.000000000000000000, 3.250000000000000000, 0.000000000000000000 ) ) ;
#81 = SURFACE_STYLE_USAGE ( .BOTH. , #244 ) ;
#82 = CARTESIAN_POINT ( 'NONE',  ( 0.000000000000000000, 0.000000000000000000, -0.5000000000000000000 ) ) ;
#83 =( CONVERSION_BASED_UNIT ( 'INCH', #182 ) LENGTH_UNIT ( ) NAMED_UNIT ( #152 ) );
#84 = ADVANCED_FACE ( 'NONE', ( #273 ), #125, .T. ) ;
#85 = CARTESIAN_POINT ( 'NONE',  ( 0.000000000000000000, 0.000000000000000000, 0.000000000000000000 ) ) ;
#86 = FILL_AREA_STYLE ('',( #130 ) ) ;
#87 = CIRCLE ( 'NONE', #264, 0.5000000000000000000 ) ;
#88 = CIRCLE ( 'NONE', #99, 0.5000000000000000000 ) ;
#89 = ORIENTED_EDGE ( 'NONE', *, *, #254, .F. ) ;
#90 = LENGTH_MEASURE_WITH_UNIT ( LENGTH_MEASURE( 0.02539999999999999897 ), #228 );
#91 = EDGE_LOOP ( 'NONE', ( #187, #258 ) ) ;
#92 = CARTESIAN_POINT ( 'NONE',  ( 0.000000000000000000, 3.250000000000000000, 0.000000000000000000 ) ) ;
#93 = DIRECTION ( 'NONE',  ( -4.453261087808560759E-17, 1.000000000000000000, 0.000000000000000000 ) ) ;
#94 = MECHANICAL_DESIGN_GEOMETRIC_PRESENTATION_REPRESENTATION (  '', ( #20 ), #144 ) ;
#95 = DIRECTION ( 'NONE',  ( 0.000000000000000000, 0.000000000000000000, -1.000000000000000000 ) ) ;
#96 = DIRECTION ( 'NONE',  ( 0.000000000000000000, 0.000000000000000000, -1.000000000000000000 ) ) ;
#97 =( GEOMETRIC_REPRESENTATION_CONTEXT ( 3 ) GLOBAL_UNCERTAINTY_ASSIGNED_CONTEXT ( ( #158 ) ) GLOBAL_UNIT_ASSIGNED_CONTEXT ( ( #83, #129, #14 ) ) REPRESENTATION_CONTEXT ( 'NONE', 'WORKASPACE' ) );
#98 = LENGTH_MEASURE_WITH_UNIT ( LENGTH_MEASURE( 0.02539999999999999897 ), #21 );
#99 = AXIS2_PLACEMENT_3D ( 'NONE', #80, #3, #170 ) ;
#100 = DIMENSIONAL_EXPONENTS ( 1.000000000000000000, 0.000000000000000000, 0.000000000000000000, 0.000000000000000000, 0.000000000000000000, 0.000000000000000000, 0.000000000000000000 ) ;
#101 = SURFACE_SIDE_STYLE ('',( #238 ) ) ;
#102 = FACE_OUTER_BOUND ( 'NONE', #281, .T. ) ;
#103 = UNCERTAINTY_MEASURE_WITH_UNIT (LENGTH_MEASURE( 1.000000000000000082E-05 ), #4, 'distance_accuracy_value', 'NONE');
#104 = COLOUR_RGB ( '',1.000000000000000000, 0.000000000000000000, 0.000000000000000000 ) ;
#105 =( NAMED_UNIT ( * ) SI_UNIT ( $, .STERADIAN. ) SOLID_ANGLE_UNIT ( ) );
#106 = CARTESIAN_POINT ( 'NONE',  ( 0.000000000000000000, 0.000000000000000000, -0.5000000000000000000 ) ) ;
#107 =( GEOMETRIC_REPRESENTATION_CONTEXT ( 3 ) GLOBAL_UNCERTAINTY_ASSIGNED_CONTEXT ( ( #1 ) ) GLOBAL_UNIT_ASSIGNED_CONTEXT ( ( #148, #24, #271 ) ) REPRESENTATION_CONTEXT ( 'NONE', 'WORKASPACE' ) );
#108 = CARTESIAN_POINT ( 'NONE',  ( 0.000000000000000000, 3.250000000000000000, 0.000000000000000000 ) ) ;
#109 = VERTEX_POINT ( 'NONE', #106 ) ;
#110 = ORIENTED_EDGE ( 'NONE', *, *, #204, .T. ) ;
#111 = CARTESIAN_POINT ( 'NONE',  ( 0.5000000000000000000, 6.000000000000000888, 6.123233995736767268E-17 ) ) ;
#112 = VERTEX_POINT ( 'NONE', #49 ) ;
#113 = CIRCLE ( 'NONE', #221, 0.5000000000000000000 ) ;
#114 = SURFACE_SIDE_STYLE ('',( #286 ) ) ;
#115 = EDGE_LOOP ( 'NONE', ( #65, #211, #33, #304 ) ) ;
#116 = CYLINDRICAL_SURFACE ( 'NONE', #46, 0.5000000000000000000 ) ;
#117 = EDGE_LOOP ( 'NONE', ( #256, #303 ) ) ;
#118 = CARTESIAN_POINT ( 'NONE',  ( 6.123233995736766036E-17, 0.000000000000000000, 0.5000000000000000000 ) ) ;
#119 = LINE ( 'NONE', #169, #246 ) ;
#120 = APPLICATION_CONTEXT ( 'automotive_design' ) ;
#121 =( GEOMETRIC_REPRESENTATION_CONTEXT ( 3 ) GLOBAL_UNCERTAINTY_ASSIGNED_CONTEXT ( ( #52 ) ) GLOBAL_UNIT_ASSIGNED_CONTEXT ( ( #194, #193, #124 ) ) REPRESENTATION_CONTEXT ( 'NONE', 'WORKASPACE' ) );
#122 = DIRECTION ( 'NONE',  ( -4.453261087808560759E-17, 1.000000000000000000, -0.000000000000000000 ) ) ;
#123 = DIMENSIONAL_EXPONENTS ( 1.000000000000000000, 0.000000000000000000, 0.000000000000000000, 0.000000000000000000, 0.000000000000000000, 0.000000000000000000, 0.000000000000000000 ) ;
#124 =( NAMED_UNIT ( * ) SI_UNIT ( $, .STERADIAN. ) SOLID_ANGLE_UNIT ( ) );
#125 = CYLINDRICAL_SURFACE ( 'NONE', #296, 0.5000000000000001110 ) ;
#126 = UNCERTAINTY_MEASURE_WITH_UNIT (LENGTH_MEASURE( 1.000000000000000082E-05 ), #67, 'distance_accuracy_value', 'NONE');
#127 = DIRECTION ( 'NONE',  ( -0.000000000000000000, -1.000000000000000000, -0.000000000000000000 ) ) ;
#128 = DIMENSIONAL_EXPONENTS ( 1.000000000000000000, 0.000000000000000000, 0.000000000000000000, 0.000000000000000000, 0.000000000000000000, 0.000000000000000000, 0.000000000000000000 ) ;
#129 =( NAMED_UNIT ( * ) PLANE_ANGLE_UNIT ( ) SI_UNIT ( $, .RADIAN. ) );
#130 = FILL_AREA_STYLE_COLOUR ( '', #15 ) ;
#131 = COLOUR_RGB ( '',0.7921568627450980005, 0.8196078431372548767, 0.9333333333333333481 ) ;
#132 = UNCERTAINTY_MEASURE_WITH_UNIT (LENGTH_MEASURE( 1.000000000000000082E-05 ), #180, 'distance_accuracy_value', 'NONE');
#133 = SURFACE_SIDE_STYLE ('',( #255 ) ) ;
#134 = VERTEX_POINT ( 'NONE', #292 ) ;
#135 =( NAMED_UNIT ( * ) PLANE_ANGLE_UNIT ( ) SI_UNIT ( $, .RADIAN. ) );
#136 =( LENGTH_UNIT ( ) NAMED_UNIT ( * ) SI_UNIT ( $, .METRE. ) );
#137 = ORIENTED_EDGE ( 'NONE', *, *, #74, .T. ) ;
#138 = MECHANICAL_DESIGN_GEOMETRIC_PRESENTATION_REPRESENTATION (  '', ( #207 ), #121 ) ;
#139 = MANIFOLD_SOLID_BREP ( 'Revolve - Tool Body (Straight Shanked)', #270 ) ;
#140 = DIRECTION ( 'NONE',  ( 4.453261087808560759E-17, -1.000000000000000000, 0.000000000000000000 ) ) ;
#141 = ADVANCED_FACE ( 'NONE', ( #209 ), #31, .T. ) ;
#142 = CARTESIAN_POINT ( 'NONE',  ( 0.000000000000000000, 0.000000000000000000, 0.000000000000000000 ) ) ;
#143 = DIRECTION ( 'NONE',  ( 0.000000000000000000, 0.000000000000000000, -1.000000000000000000 ) ) ;
#144 =( GEOMETRIC_REPRESENTATION_CONTEXT ( 3 ) GLOBAL_UNCERTAINTY_ASSIGNED_CONTEXT ( ( #132 ) ) GLOBAL_UNIT_ASSIGNED_CONTEXT ( ( #180, #53, #105 ) ) REPRESENTATION_CONTEXT ( 'NONE', 'WORKASPACE' ) );
#145 = AXIS2_PLACEMENT_3D ( 'NONE', #309, #173, #195 ) ;
#146 = FACE_OUTER_BOUND ( 'NONE', #115, .T. ) ;
#147 = LENGTH_MEASURE_WITH_UNIT ( LENGTH_MEASURE( 0.02539999999999999897 ), #308 );
#148 =( CONVERSION_BASED_UNIT ( 'INCH', #236 ) LENGTH_UNIT ( ) NAMED_UNIT ( #123 ) );
#149 = AXIS2_PLACEMENT_3D ( 'NONE', #8, #56, #61 ) ;
#150 = DIMENSIONAL_EXPONENTS ( 1.000000000000000000, 0.000000000000000000, 0.000000000000000000, 0.000000000000000000, 0.000000000000000000, 0.000000000000000000, 0.000000000000000000 ) ;
#151 = CARTESIAN_POINT ( 'NONE',  ( -1.224646799147354440E-16, 6.000000000000000888, 0.000000000000000000 ) ) ;
#152 = DIMENSIONAL_EXPONENTS ( 1.000000000000000000, 0.000000000000000000, 0.000000000000000000, 0.000000000000000000, 0.000000000000000000, 0.000000000000000000, 0.000000000000000000 ) ;
#153 = COLOUR_RGB ( '',0.7921568627450980005, 0.8196078431372548767, 0.9333333333333333481 ) ;
#154 = PRESENTATION_STYLE_ASSIGNMENT (( #276 ) ) ;
#155 = SURFACE_SIDE_STYLE ('',( #251 ) ) ;
#156 = FACE_OUTER_BOUND ( 'NONE', #164, .T. ) ;
#157 = COLOUR_RGB ( '',1.000000000000000000, 0.000000000000000000, 0.000000000000000000 ) ;
#158 = UNCERTAINTY_MEASURE_WITH_UNIT (LENGTH_MEASURE( 1.000000000000000082E-05 ), #83, 'distance_accuracy_value', 'NONE');
#159 = DIRECTION ( 'NONE',  ( -1.000000000000000000, 0.000000000000000000, 0.000000000000000000 ) ) ;
#160 = DIRECTION ( 'NONE',  ( -0.000000000000000000, -1.000000000000000000, -0.000000000000000000 ) ) ;
#161 = CARTESIAN_POINT ( 'NONE',  ( 4.957883579047472087E-34, 3.250000000000000000, 0.000000000000000000 ) ) ;
#162 = FILL_AREA_STYLE ('',( #227 ) ) ;
#163 = PRESENTATION_STYLE_ASSIGNMENT (( #282 ) ) ;
#164 = EDGE_LOOP ( 'NONE', ( #297, #37 ) ) ;
#165 = ORIENTED_EDGE ( 'NONE', *, *, #305, .T. ) ;
#166 =( GEOMETRIC_REPRESENTATION_CONTEXT ( 3 ) GLOBAL_UNCERTAINTY_ASSIGNED_CONTEXT ( ( #126 ) ) GLOBAL_UNIT_ASSIGNED_CONTEXT ( ( #67, #298, #250 ) ) REPRESENTATION_CONTEXT ( 'NONE', 'WORKASPACE' ) );
#167 = CARTESIAN_POINT ( 'NONE',  ( -1.224646799147354440E-16, 6.000000000000000888, 0.000000000000000000 ) ) ;
#168 = DIRECTION ( 'NONE',  ( 1.000000000000000000, 4.453261087808560759E-17, 0.000000000000000000 ) ) ;
#169 = CARTESIAN_POINT ( 'NONE',  ( -0.5000000000000002220, 6.000000000000000888, 0.000000000000000000 ) ) ;
#170 = DIRECTION ( 'NONE',  ( 0.000000000000000000, 0.000000000000000000, -1.000000000000000000 ) ) ;
#171 = AXIS2_PLACEMENT_3D ( 'NONE', #242, #294, #27 ) ;
#172 = PRESENTATION_LAYER_ASSIGNMENT (  '', '', ( #307 ) ) ;
#173 = DIRECTION ( 'NONE',  ( 0.000000000000000000, 0.000000000000000000, 1.000000000000000000 ) ) ;
#174 = EDGE_CURVE ( 'NONE', #134, #112, #219, .T. ) ;
#175 = CARTESIAN_POINT ( 'NONE',  ( -1.224646799147354440E-16, 6.000000000000000888, 0.000000000000000000 ) ) ;
#176 = STYLED_ITEM ( 'NONE', ( #154 ), #141 ) ;
#177 = AXIS2_PLACEMENT_3D ( 'NONE', #151, #218, #243 ) ;
#178 =( LENGTH_UNIT ( ) NAMED_UNIT ( * ) SI_UNIT ( $, .METRE. ) );
#179 = FILL_AREA_STYLE_COLOUR ( '', #131 ) ;
#180 =( CONVERSION_BASED_UNIT ( 'INCH', #147 ) LENGTH_UNIT ( ) NAMED_UNIT ( #223 ) );
#181 = CIRCLE ( 'NONE', #232, 0.5000000000000000000 ) ;
#182 = LENGTH_MEASURE_WITH_UNIT ( LENGTH_MEASURE( 0.02539999999999999897 ), #136 );
#183 = DIRECTION ( 'NONE',  ( -1.000000000000000000, -4.453261087808560759E-17, 0.000000000000000000 ) ) ;
#184 = SURFACE_SIDE_STYLE ('',( #225 ) ) ;
#185 = VECTOR ( 'NONE', #78, 39.37007874015748143 ) ;
#186 = DIRECTION ( 'NONE',  ( -1.000000000000000000, 0.000000000000000000, 0.000000000000000000 ) ) ;
#187 = ORIENTED_EDGE ( 'NONE', *, *, #174, .F. ) ;
#188 = PLANE ( 'NONE',  #301 ) ;
#189 = PRESENTATION_LAYER_ASSIGNMENT (  '', '', ( #176 ) ) ;
#190 = CYLINDRICAL_SURFACE ( 'NONE', #171, 0.5000000000000000000 ) ;
#191 = DIRECTION ( 'NONE',  ( 0.000000000000000000, -1.000000000000000000, -0.000000000000000000 ) ) ;
#192 = MECHANICAL_DESIGN_GEOMETRIC_PRESENTATION_REPRESENTATION (  '', ( #306 ), #97 ) ;
#193 =( NAMED_UNIT ( * ) PLANE_ANGLE_UNIT ( ) SI_UNIT ( $, .RADIAN. ) );
#194 =( CONVERSION_BASED_UNIT ( 'INCH', #98 ) LENGTH_UNIT ( ) NAMED_UNIT ( #128 ) );
#195 = DIRECTION ( 'NONE',  ( 1.000000000000000000, 0.000000000000000000, 0.000000000000000000 ) ) ;
#196 =( NAMED_UNIT ( * ) SI_UNIT ( $, .STERADIAN. ) SOLID_ANGLE_UNIT ( ) );
#197 = DIRECTION ( 'NONE',  ( -1.000000000000000000, 0.000000000000000000, 0.000000000000000000 ) ) ;
#198 = EDGE_CURVE ( 'NONE', #226, #109, #224, .T. ) ;
#199 = FILL_AREA_STYLE ('',( #222 ) ) ;
#200 = LINE ( 'NONE', #249, #59 ) ;
#201 = VECTOR ( 'NONE', #127, 39.37007874015748143 ) ;
#202 = ORIENTED_EDGE ( 'NONE', *, *, #274, .T. ) ;
#203 = VERTEX_POINT ( 'NONE', #111 ) ;
#204 = EDGE_CURVE ( 'NONE', #112, #134, #87, .T. ) ;
#205 = SURFACE_STYLE_USAGE ( .BOTH. , #114 ) ;
#206 = CARTESIAN_POINT ( 'NONE',  ( 0.000000000000000000, 3.250000000000000000, 0.000000000000000000 ) ) ;
#207 = STYLED_ITEM ( 'NONE', ( #62 ), #13 ) ;
#208 =( CONVERSION_BASED_UNIT ( 'INCH', #213 ) LENGTH_UNIT ( ) NAMED_UNIT ( #100 ) );
#209 = FACE_OUTER_BOUND ( 'NONE', #117, .T. ) ;
#210 = ORIENTED_EDGE ( 'NONE', *, *, #174, .T. ) ;
#211 = ORIENTED_EDGE ( 'NONE', *, *, #79, .T. ) ;
#212 = AXIS2_PLACEMENT_3D ( 'NONE', #85, #160, #11 ) ;
#213 = LENGTH_MEASURE_WITH_UNIT ( LENGTH_MEASURE( 0.02539999999999999897 ), #64 );
#214 = PRODUCT_DEFINITION_FORMATION_WITH_SPECIFIED_SOURCE ( 'ANY', '', #32, .NOT_KNOWN. ) ;
#215 = PLANE ( 'NONE',  #252 ) ;
#216 = ADVANCED_FACE ( 'NONE', ( #230 ), #116, .T. ) ;
#217 = LINE ( 'NONE', #82, #201 ) ;
#218 = DIRECTION ( 'NONE',  ( -4.453261087808560759E-17, 1.000000000000000000, -0.000000000000000000 ) ) ;
#219 = CIRCLE ( 'NONE', #50, 0.5000000000000000000 ) ;
#220 = LENGTH_MEASURE_WITH_UNIT ( LENGTH_MEASURE( 0.02539999999999999897 ), #178 );
#221 = AXIS2_PLACEMENT_3D ( 'NONE', #92, #278, #60 ) ;
#222 = FILL_AREA_STYLE_COLOUR ( '', #153 ) ;
#223 = DIMENSIONAL_EXPONENTS ( 1.000000000000000000, 0.000000000000000000, 0.000000000000000000, 0.000000000000000000, 0.000000000000000000, 0.000000000000000000, 0.000000000000000000 ) ;
#224 = CIRCLE ( 'NONE', #212, 0.5000000000000000000 ) ;
#225 = SURFACE_STYLE_FILL_AREA ( #86 ) ;
#226 = VERTEX_POINT ( 'NONE', #118 ) ;
#227 = FILL_AREA_STYLE_COLOUR ( '', #70 ) ;
#228 =( LENGTH_UNIT ( ) NAMED_UNIT ( * ) SI_UNIT ( $, .METRE. ) );
#229 = ORIENTED_EDGE ( 'NONE', *, *, #74, .F. ) ;
#230 = FACE_OUTER_BOUND ( 'NONE', #283, .T. ) ;
#231 = EDGE_LOOP ( 'NONE', ( #229, #110, #16, #89 ) ) ;
#232 = AXIS2_PLACEMENT_3D ( 'NONE', #22, #73, #143 ) ;
#233 = CLOSED_SHELL ( 'NONE', ( #58, #141, #216, #13 ) ) ;
#234 = PRESENTATION_LAYER_ASSIGNMENT (  '', '', ( #306 ) ) ;
#235 = MECHANICAL_DESIGN_GEOMETRIC_PRESENTATION_REPRESENTATION (  '', ( #307 ), #7 ) ;
#236 = LENGTH_MEASURE_WITH_UNIT ( LENGTH_MEASURE( 0.02539999999999999897 ), #265 );
#237 = PRESENTATION_STYLE_ASSIGNMENT (( #261 ) ) ;
#238 = SURFACE_STYLE_FILL_AREA ( #45 ) ;
#239 = CARTESIAN_POINT ( 'NONE',  ( 0.000000000000000000, 0.000000000000000000, 0.000000000000000000 ) ) ;
#240 = APPLICATION_PROTOCOL_DEFINITION ( 'draft international standard', 'automotive_design', 1998, #34 ) ;
#241 = AXIS2_PLACEMENT_3D ( 'NONE', #167, #260, #159 ) ;
#242 = CARTESIAN_POINT ( 'NONE',  ( 0.000000000000000000, 0.000000000000000000, 0.000000000000000000 ) ) ;
#243 = DIRECTION ( 'NONE',  ( -1.000000000000000000, 0.000000000000000000, 0.000000000000000000 ) ) ;
#244 = SURFACE_SIDE_STYLE ('',( #29 ) ) ;
#245 = EDGE_CURVE ( 'NONE', #40, #17, #113, .T. ) ;
#246 = VECTOR ( 'NONE', #122, 39.37007874015748143 ) ;
#247 = CARTESIAN_POINT ( 'NONE',  ( 6.123233995736766036E-17, 0.000000000000000000, 0.5000000000000000000 ) ) ;
#248 = AXIS2_PLACEMENT_3D ( 'NONE', #289, #266, #48 ) ;
#249 = CARTESIAN_POINT ( 'NONE',  ( 0.4999999999999999445, 6.000000000000000888, 6.123233995736767268E-17 ) ) ;
#250 =( NAMED_UNIT ( * ) SI_UNIT ( $, .STERADIAN. ) SOLID_ANGLE_UNIT ( ) );
#251 = SURFACE_STYLE_FILL_AREA ( #199 ) ;
#252 = AXIS2_PLACEMENT_3D ( 'NONE', #2, #140, #168 ) ;
#253 = ORIENTED_EDGE ( 'NONE', *, *, #254, .T. ) ;
#254 = EDGE_CURVE ( 'NONE', #203, #299, #28, .T. ) ;
#255 = SURFACE_STYLE_FILL_AREA ( #38 ) ;
#256 = ORIENTED_EDGE ( 'NONE', *, *, #245, .F. ) ;
#257 = ORIENTED_EDGE ( 'NONE', *, *, #198, .F. ) ;
#258 = ORIENTED_EDGE ( 'NONE', *, *, #204, .F. ) ;
#259 =( GEOMETRIC_REPRESENTATION_CONTEXT ( 3 ) GLOBAL_UNCERTAINTY_ASSIGNED_CONTEXT ( ( #103 ) ) GLOBAL_UNIT_ASSIGNED_CONTEXT ( ( #4, #25, #196 ) ) REPRESENTATION_CONTEXT ( 'NONE', 'WORKASPACE' ) );
#260 = DIRECTION ( 'NONE',  ( -4.453261087808560759E-17, 1.000000000000000000, -0.000000000000000000 ) ) ;
#261 = SURFACE_STYLE_USAGE ( .BOTH. , #101 ) ;
#262 = ADVANCED_FACE ( 'NONE', ( #102 ), #75, .T. ) ;
#263 = FILL_AREA_STYLE_COLOUR ( '', #157 ) ;
#264 = AXIS2_PLACEMENT_3D ( 'NONE', #206, #300, #186 ) ;
#265 =( LENGTH_UNIT ( ) NAMED_UNIT ( * ) SI_UNIT ( $, .METRE. ) );
#266 = DIRECTION ( 'NONE',  ( -4.453261087808560759E-17, 1.000000000000000000, -0.000000000000000000 ) ) ;
#267 = PRODUCT_CONTEXT ( 'NONE', #34, 'mechanical' ) ;
#268 = DIRECTION ( 'NONE',  ( -4.453261087808560759E-17, 1.000000000000000000, -0.000000000000000000 ) ) ;
#269 = PRODUCT_DEFINITION ( 'UNKNOWN', '', #214, #275 ) ;
#270 = CLOSED_SHELL ( 'NONE', ( #262, #5, #84, #43 ) ) ;
#271 =( NAMED_UNIT ( * ) SI_UNIT ( $, .STERADIAN. ) SOLID_ANGLE_UNIT ( ) );
#272 = LINE ( 'NONE', #247, #185 ) ;
#273 = FACE_OUTER_BOUND ( 'NONE', #231, .T. ) ;
#274 = EDGE_CURVE ( 'NONE', #17, #40, #88, .T. ) ;
#275 = PRODUCT_DEFINITION_CONTEXT ( 'detailed design', #120, 'design' ) ;
#276 = SURFACE_STYLE_USAGE ( .BOTH. , #133 ) ;
#277 = ORIENTED_EDGE ( 'NONE', *, *, #79, .F. ) ;
#278 = DIRECTION ( 'NONE',  ( -0.000000000000000000, -1.000000000000000000, -0.000000000000000000 ) ) ;
#279 = MECHANICAL_DESIGN_GEOMETRIC_PRESENTATION_REPRESENTATION (  '', ( #176 ), #166 ) ;
#280 = SURFACE_STYLE_USAGE ( .BOTH. , #184 ) ;
#281 = EDGE_LOOP ( 'NONE', ( #210, #137, #12, #68 ) ) ;
#282 = SURFACE_STYLE_USAGE ( .BOTH. , #155 ) ;
#283 = EDGE_LOOP ( 'NONE', ( #277, #202, #10, #257 ) ) ;
#284 = PRODUCT_DEFINITION_SHAPE ( 'NONE', 'NONE',  #269 ) ;
#285 = AXIS2_PLACEMENT_3D ( 'NONE', #161, #93, #183 ) ;
#286 = SURFACE_STYLE_FILL_AREA ( #162 ) ;
#287 = CARTESIAN_POINT ( 'NONE',  ( -0.5000000000000002220, 6.000000000000000888, 0.000000000000000000 ) ) ;
#288 = CARTESIAN_POINT ( 'NONE',  ( 0.000000000000000000, 3.250000000000000000, -0.5000000000000000000 ) ) ;
#289 = CARTESIAN_POINT ( 'NONE',  ( -1.224646799147354440E-16, 6.000000000000000888, 0.000000000000000000 ) ) ;
#290 = UNCERTAINTY_MEASURE_WITH_UNIT (LENGTH_MEASURE( 1.000000000000000082E-05 ), #208, 'distance_accuracy_value', 'NONE');
#291 = SHAPE_DEFINITION_REPRESENTATION ( #284, #72 ) ;
#292 = CARTESIAN_POINT ( 'NONE',  ( -0.5000000000000000000, 3.250000000000000000, 0.000000000000000000 ) ) ;
#293 = FILL_AREA_STYLE_COLOUR ( '', #104 ) ;
#294 = DIRECTION ( 'NONE',  ( -0.000000000000000000, -1.000000000000000000, -0.000000000000000000 ) ) ;
#295 = PRESENTATION_STYLE_ASSIGNMENT (( #81 ) ) ;
#296 = AXIS2_PLACEMENT_3D ( 'NONE', #175, #268, #197 ) ;
#297 = ORIENTED_EDGE ( 'NONE', *, *, #18, .T. ) ;
#298 =( NAMED_UNIT ( * ) PLANE_ANGLE_UNIT ( ) SI_UNIT ( $, .RADIAN. ) );
#299 = VERTEX_POINT ( 'NONE', #287 ) ;
#300 = DIRECTION ( 'NONE',  ( -4.453261087808560759E-17, 1.000000000000000000, -0.000000000000000000 ) ) ;
#301 = AXIS2_PLACEMENT_3D ( 'NONE', #239, #191, #96 ) ;
#302 = DIRECTION ( 'NONE',  ( -0.000000000000000000, -1.000000000000000000, -0.000000000000000000 ) ) ;
#303 = ORIENTED_EDGE ( 'NONE', *, *, #274, .F. ) ;
#304 = ORIENTED_EDGE ( 'NONE', *, *, #63, .F. ) ;
#305 = EDGE_CURVE ( 'NONE', #299, #203, #35, .T. ) ;
#306 = STYLED_ITEM ( 'NONE', ( #163 ), #139 ) ;
#307 = STYLED_ITEM ( 'NONE', ( #69 ), #216 ) ;
#308 =( LENGTH_UNIT ( ) NAMED_UNIT ( * ) SI_UNIT ( $, .METRE. ) );
#309 = CARTESIAN_POINT ( 'NONE',  ( 0.000000000000000000, 0.000000000000000000, 0.000000000000000000 ) ) ;
ENDSEC;
END-ISO-10303-21;
