ISO-10303-21;
HEADER;
FILE_DESCRIPTION (( 'STEP AP214' ),
    '1' );
FILE_NAME ('Micro_AECM-0603-4X.STEP',
    '2021-09-03T16:57:39',
    ( '' ),
    ( '' ),
    'SwSTEP 2.0',
    'SolidWorks 2020',
    '' );
FILE_SCHEMA (( 'AUTOMOTIVE_DESIGN' ));
ENDSEC;

DATA;
#1 = CARTESIAN_POINT ( 'NONE',  ( -0.1179918899999999882, 0.0000000000000000000, 0.01181100000000000205 ) ) ;
#2 = FACE_OUTER_BOUND ( 'NONE', #104, .T. ) ;
#3 = DIRECTION ( 'NONE',  ( 1.000000000000000000, 0.0000000000000000000, 0.0000000000000000000 ) ) ;
#4 = EDGE_CURVE ( 'NONE', #22, #234, #301, .T. ) ;
#5 = PLANE ( 'NONE',  #339 ) ;
#6 = CARTESIAN_POINT ( 'NONE',  ( 0.1181100000000000066, 1.446430334472939084E-17, 2.229093999999999465 ) ) ;
#7 = FACE_OUTER_BOUND ( 'NONE', #43, .T. ) ;
#8 = TOROIDAL_SURFACE ( 'NONE', #55, 0.1061808899999999861, 0.01181100000000000032 ) ;
#9 = PRESENTATION_LAYER_ASSIGNMENT (  '', '', ( #63 ) ) ;
#10 = DIRECTION ( 'NONE',  ( 1.000000000000000000, 0.0000000000000000000, 0.0000000000000000000 ) ) ;
#11 = EDGE_CURVE ( 'NONE', #343, #315, #222, .T. ) ;
#12 = DIRECTION ( 'NONE',  ( 1.000000000000000000, 0.0000000000000000000, 0.0000000000000000000 ) ) ;
#13 = PRODUCT_RELATED_PRODUCT_CATEGORY ( 'part', '', ( #231 ) ) ;
#14 = EDGE_LOOP ( 'NONE', ( #258, #156, #207, #133 ) ) ;
#15 = ORIENTED_EDGE ( 'NONE', *, *, #295, .T. ) ;
#16 = VERTEX_POINT ( 'NONE', #273 ) ;
#17 = DIRECTION ( 'NONE',  ( 1.000000000000000000, 0.0000000000000000000, 0.0000000000000000000 ) ) ;
#18 = ORIENTED_EDGE ( 'NONE', *, *, #333, .T. ) ;
#19 = PRODUCT_DEFINITION_CONTEXT ( 'detailed design', #208, 'design' ) ;
#20 = CIRCLE ( 'NONE', #47, 0.01181100000000000032 ) ;
#21 = CARTESIAN_POINT ( 'NONE',  ( 0.1061808899999999861, 0.0000000000000000000, 0.01181100000000000032 ) ) ;
#22 = VERTEX_POINT ( 'NONE', #329 ) ;
#23 =( NAMED_UNIT ( * ) PLANE_ANGLE_UNIT ( ) SI_UNIT ( $, .RADIAN. ) );
#24 = EDGE_CURVE ( 'NONE', #131, #70, #283, .T. ) ;
#25 = DIRECTION ( 'NONE',  ( -1.000000000000000000, 0.0000000000000000000, 0.0000000000000000000 ) ) ;
#26 = FACE_OUTER_BOUND ( 'NONE', #206, .T. ) ;
#27 = DIRECTION ( 'NONE',  ( 1.000000000000000000, 0.0000000000000000000, 0.0000000000000000000 ) ) ;
#28 = CARTESIAN_POINT ( 'NONE',  ( 7.722510477716240475E-17, 0.0000000000000000000, 0.6305908350957151187 ) ) ;
#29 = DIRECTION ( 'NONE',  ( 1.000000000000000000, 0.0000000000000000000, 0.0000000000000000000 ) ) ;
#30 = EDGE_CURVE ( 'NONE', #101, #211, #79, .T. ) ;
#31 = CIRCLE ( 'NONE', #218, 0.1061808899999999861 ) ;
#32 = CARTESIAN_POINT ( 'NONE',  ( 0.0000000000000000000, 0.0000000000000000000, 2.229093999999999465 ) ) ;
#33 = AXIS2_PLACEMENT_3D ( 'NONE', #142, #58, #303 ) ;
#34 = ORIENTED_EDGE ( 'NONE', *, *, #224, .F. ) ;
#35 = DIRECTION ( 'NONE',  ( 0.0000000000000000000, 0.0000000000000000000, 1.000000000000000000 ) ) ;
#36 =( NAMED_UNIT ( * ) SI_UNIT ( $, .STERADIAN. ) SOLID_ANGLE_UNIT ( ) );
#37 = CONICAL_SURFACE ( 'NONE', #201, 0.1179918899999999882, 0.1745329251994339748 ) ;
#38 = ADVANCED_FACE ( 'NONE', ( #26 ), #37, .T. ) ;
#39 = ORIENTED_EDGE ( 'NONE', *, *, #179, .F. ) ;
#40 = ORIENTED_EDGE ( 'NONE', *, *, #168, .F. ) ;
#41 = DIMENSIONAL_EXPONENTS ( 1.000000000000000000, 0.0000000000000000000, 0.0000000000000000000, 0.0000000000000000000, 0.0000000000000000000, 0.0000000000000000000, 0.0000000000000000000 ) ;
#42 = ORIENTED_EDGE ( 'NONE', *, *, #330, .F. ) ;
#43 = EDGE_LOOP ( 'NONE', ( #235, #72, #292, #100 ) ) ;
#44 = CYLINDRICAL_SURFACE ( 'NONE', #288, 0.1181100000000000066 ) ;
#45 = ADVANCED_FACE ( 'NONE', ( #144 ), #285, .T. ) ;
#46 = ORIENTED_EDGE ( 'NONE', *, *, #250, .F. ) ;
#47 = AXIS2_PLACEMENT_3D ( 'NONE', #21, #125, #186 ) ;
#48 = CARTESIAN_POINT ( 'NONE',  ( 7.714307363656999460E-17, 0.0000000000000000000, 0.6299209999999999532 ) ) ;
#49 = FACE_OUTER_BOUND ( 'NONE', #180, .T. ) ;
#50 = CARTESIAN_POINT ( 'NONE',  ( -0.1031100000000002570, 0.0000000000000000000, 2.244094000000000033 ) ) ;
#51 = DIRECTION ( 'NONE',  ( -1.000000000000000000, 1.224646799147351975E-16, 0.0000000000000000000 ) ) ;
#52 = DIRECTION ( 'NONE',  ( -0.0000000000000000000, -0.0000000000000000000, -1.000000000000000000 ) ) ;
#53 = CARTESIAN_POINT ( 'NONE',  ( 0.0000000000000000000, 0.0000000000000000000, 2.244094000000000033 ) ) ;
#54 =( CONVERSION_BASED_UNIT ( 'INCH', #326 ) LENGTH_UNIT ( ) NAMED_UNIT ( #41 ) );
#55 = AXIS2_PLACEMENT_3D ( 'NONE', #145, #105, #248 ) ;
#56 = CARTESIAN_POINT ( 'NONE',  ( 0.1031100000000002570, 1.262733314600838667E-17, 2.244094000000000033 ) ) ;
#57 = PRODUCT_DEFINITION ( 'UNKNOWN', '', #61, #19 ) ;
#58 = DIRECTION ( 'NONE',  ( -0.0000000000000000000, -0.0000000000000000000, -1.000000000000000000 ) ) ;
#59 =( NAMED_UNIT ( * ) PLANE_ANGLE_UNIT ( ) SI_UNIT ( $, .RADIAN. ) );
#60 = SURFACE_SIDE_STYLE ('',( #286 ) ) ;
#61 = PRODUCT_DEFINITION_FORMATION_WITH_SPECIFIED_SOURCE ( 'ANY', '', #231, .NOT_KNOWN. ) ;
#62 = PLANE ( 'NONE',  #68 ) ;
#63 = STYLED_ITEM ( 'NONE', ( #336 ), #193 ) ;
#64 = DIRECTION ( 'NONE',  ( 0.0000000000000000000, 0.0000000000000000000, 1.000000000000000000 ) ) ;
#65 = DIRECTION ( 'NONE',  ( -1.224646799147353207E-16, -0.0000000000000000000, -1.000000000000000000 ) ) ;
#66 = EDGE_CURVE ( 'NONE', #16, #239, #289, .T. ) ;
#67 = SURFACE_STYLE_USAGE ( .BOTH. , #60 ) ;
#68 = AXIS2_PLACEMENT_3D ( 'NONE', #334, #35, #120 ) ;
#69 = ORIENTED_EDGE ( 'NONE', *, *, #138, .T. ) ;
#70 = VERTEX_POINT ( 'NONE', #1 ) ;
#71 = UNCERTAINTY_MEASURE_WITH_UNIT (LENGTH_MEASURE( 1.000000000000000082E-05 ), #54, 'distance_accuracy_value', 'NONE');
#72 = ORIENTED_EDGE ( 'NONE', *, *, #30, .T. ) ;
#73 = VECTOR ( 'NONE', #111, 39.37007874015748143 ) ;
#74 = FILL_AREA_STYLE ('',( #316 ) ) ;
#75 = EDGE_LOOP ( 'NONE', ( #150, #185, #313, #183 ) ) ;
#76 = DIRECTION ( 'NONE',  ( 0.0000000000000000000, 0.0000000000000000000, 1.000000000000000000 ) ) ;
#77 = ORIENTED_EDGE ( 'NONE', *, *, #295, .F. ) ;
#78 = SURFACE_STYLE_USAGE ( .BOTH. , #321 ) ;
#79 = LINE ( 'NONE', #304, #129 ) ;
#80 = AXIS2_PLACEMENT_3D ( 'NONE', #103, #81, #17 ) ;
#81 = DIRECTION ( 'NONE',  ( -0.0000000000000000000, -0.0000000000000000000, -1.000000000000000000 ) ) ;
#82 = VECTOR ( 'NONE', #220, 39.37007874015748854 ) ;
#83 = LINE ( 'NONE', #140, #135 ) ;
#84 = APPLICATION_CONTEXT ( 'automotive_design' ) ;
#85 = CARTESIAN_POINT ( 'NONE',  ( -0.1061808899999999861, 1.300340870691171906E-17, 0.01181100000000000032 ) ) ;
#86 = DIRECTION ( 'NONE',  ( -1.000000000000000000, 0.0000000000000000000, 1.224646799147353454E-16 ) ) ;
#87 = AXIS2_PLACEMENT_3D ( 'NONE', #225, #177, #97 ) ;
#88 = AXIS2_PLACEMENT_3D ( 'NONE', #322, #307, #247 ) ;
#89 = CIRCLE ( 'NONE', #167, 0.1031100000000002570 ) ;
#90 = CLOSED_SHELL ( 'NONE', ( #146, #205, #262, #45, #154, #276, #219, #132, #38, #114, #198, #213 ) ) ;
#91 = CARTESIAN_POINT ( 'NONE',  ( -0.1061808899999999861, 1.372662387414818768E-17, 0.0000000000000000000 ) ) ;
#92 = DIRECTION ( 'NONE',  ( -1.000000000000000000, 0.0000000000000000000, 0.0000000000000000000 ) ) ;
#93 = DIRECTION ( 'NONE',  ( 1.000000000000000000, 0.0000000000000000000, 0.0000000000000000000 ) ) ;
#94 = CIRCLE ( 'NONE', #174, 0.1179918899999999882 ) ;
#95 =( CONVERSION_BASED_UNIT ( 'INCH', #199 ) LENGTH_UNIT ( ) NAMED_UNIT ( #344 ) );
#96 = FACE_OUTER_BOUND ( 'NONE', #236, .T. ) ;
#97 = DIRECTION ( 'NONE',  ( 1.000000000000000000, 0.0000000000000000000, 0.0000000000000000000 ) ) ;
#98 = DIRECTION ( 'NONE',  ( 1.000000000000000000, 0.0000000000000000000, 0.0000000000000000000 ) ) ;
#99 = CIRCLE ( 'NONE', #233, 0.1181100000000000066 ) ;
#100 = ORIENTED_EDGE ( 'NONE', *, *, #138, .F. ) ;
#101 = VERTEX_POINT ( 'NONE', #164 ) ;
#102 = ORIENTED_EDGE ( 'NONE', *, *, #30, .F. ) ;
#103 = CARTESIAN_POINT ( 'NONE',  ( 1.446430334472938969E-18, 0.0000000000000000000, 0.0000000000000000000 ) ) ;
#104 = EDGE_LOOP ( 'NONE', ( #342, #15, #209, #40 ) ) ;
#105 = DIRECTION ( 'NONE',  ( 0.0000000000000000000, 0.0000000000000000000, 1.000000000000000000 ) ) ;
#106 = DIRECTION ( 'NONE',  ( -0.0000000000000000000, -0.0000000000000000000, -1.000000000000000000 ) ) ;
#107 = DIMENSIONAL_EXPONENTS ( 1.000000000000000000, 0.0000000000000000000, 0.0000000000000000000, 0.0000000000000000000, 0.0000000000000000000, 0.0000000000000000000, 0.0000000000000000000 ) ;
#108 = CYLINDRICAL_SURFACE ( 'NONE', #33, 0.1181100000000000066 ) ;
#109 = COLOUR_RGB ( '',0.7921568627450980005, 0.8196078431372548767, 0.9333333333333333481 ) ;
#110 =( LENGTH_UNIT ( ) NAMED_UNIT ( * ) SI_UNIT ( $, .METRE. ) );
#111 = DIRECTION ( 'NONE',  ( -1.224646799147353207E-16, -0.0000000000000000000, -1.000000000000000000 ) ) ;
#112 = CARTESIAN_POINT ( 'NONE',  ( 0.0000000000000000000, 0.0000000000000000000, 0.0000000000000000000 ) ) ;
#113 = DIRECTION ( 'NONE',  ( -1.224646799147353207E-16, -0.0000000000000000000, -1.000000000000000000 ) ) ;
#114 = ADVANCED_FACE ( 'NONE', ( #49 ), #147, .T. ) ;
#115 = STYLED_ITEM ( 'NONE', ( #158 ), #214 ) ;
#116 = AXIS2_PLACEMENT_3D ( 'NONE', #169, #249, #269 ) ;
#117 = DIRECTION ( 'NONE',  ( 0.0000000000000000000, 0.0000000000000000000, -1.000000000000000000 ) ) ;
#118 = UNCERTAINTY_MEASURE_WITH_UNIT (LENGTH_MEASURE( 1.000000000000000082E-05 ), #240, 'distance_accuracy_value', 'NONE');
#119 = PRODUCT_CONTEXT ( 'NONE', #84, 'mechanical' ) ;
#120 = DIRECTION ( 'NONE',  ( 1.000000000000000000, 0.0000000000000000000, -0.0000000000000000000 ) ) ;
#121 = CARTESIAN_POINT ( 'NONE',  ( 1.446430334472938969E-18, 0.0000000000000000000, 0.0000000000000000000 ) ) ;
#122 = MECHANICAL_DESIGN_GEOMETRIC_PRESENTATION_REPRESENTATION (  '', ( #115 ), #210 ) ;
#123 = LINE ( 'NONE', #229, #228 ) ;
#124 = FILL_AREA_STYLE_COLOUR ( '', #175 ) ;
#125 = DIRECTION ( 'NONE',  ( 0.0000000000000000000, -1.000000000000000000, 0.0000000000000000000 ) ) ;
#126 = MECHANICAL_DESIGN_GEOMETRIC_PRESENTATION_REPRESENTATION (  '', ( #63 ), #349 ) ;
#127 = CIRCLE ( 'NONE', #300, 0.1181100000000000066 ) ;
#128 = EDGE_LOOP ( 'NONE', ( #212, #267 ) ) ;
#129 = VECTOR ( 'NONE', #245, 39.37007874015748143 ) ;
#130 = ORIENTED_EDGE ( 'NONE', *, *, #250, .T. ) ;
#131 = VERTEX_POINT ( 'NONE', #91 ) ;
#132 = ADVANCED_FACE ( 'NONE', ( #166 ), #317, .T. ) ;
#133 = ORIENTED_EDGE ( 'NONE', *, *, #11, .F. ) ;
#134 = CIRCLE ( 'NONE', #265, 0.1181100000000000066 ) ;
#135 = VECTOR ( 'NONE', #243, 39.37007874015748143 ) ;
#136 = LENGTH_MEASURE_WITH_UNIT ( LENGTH_MEASURE( 0.02539999999999999897 ), #110 );
#137 = ORIENTED_EDGE ( 'NONE', *, *, #173, .F. ) ;
#138 = EDGE_CURVE ( 'NONE', #345, #70, #191, .T. ) ;
#139 =( NAMED_UNIT ( * ) SI_UNIT ( $, .STERADIAN. ) SOLID_ANGLE_UNIT ( ) );
#140 = CARTESIAN_POINT ( 'NONE',  ( -0.1181100000000000066, 0.0000000000000000000, 2.244094000000000033 ) ) ;
#141 = CARTESIAN_POINT ( 'NONE',  ( 0.1181100000000000066, 1.446430334472939084E-17, 2.244094000000000033 ) ) ;
#142 = CARTESIAN_POINT ( 'NONE',  ( 0.0000000000000000000, 0.0000000000000000000, 2.244094000000000033 ) ) ;
#143 = CONICAL_SURFACE ( 'NONE', #151, 0.1179918899999999882, 0.1745329251994339748 ) ;
#144 = FACE_OUTER_BOUND ( 'NONE', #14, .T. ) ;
#145 = CARTESIAN_POINT ( 'NONE',  ( 1.446430334472938969E-18, 0.0000000000000000000, 0.01181100000000000032 ) ) ;
#146 = ADVANCED_FACE ( 'NONE', ( #306 ), #8, .T. ) ;
#147 = CYLINDRICAL_SURFACE ( 'NONE', #266, 0.1179918899999999882 ) ;
#148 = CARTESIAN_POINT ( 'NONE',  ( 0.0000000000000000000, 0.0000000000000000000, 0.0000000000000000000 ) ) ;
#149 = DIRECTION ( 'NONE',  ( 0.0000000000000000000, 0.0000000000000000000, 1.000000000000000000 ) ) ;
#150 = ORIENTED_EDGE ( 'NONE', *, *, #4, .F. ) ;
#151 = AXIS2_PLACEMENT_3D ( 'NONE', #302, #216, #12 ) ;
#152 = DIRECTION ( 'NONE',  ( 1.000000000000000000, 0.0000000000000000000, -0.0000000000000000000 ) ) ;
#153 =( LENGTH_UNIT ( ) NAMED_UNIT ( * ) SI_UNIT ( $, .METRE. ) );
#154 = ADVANCED_FACE ( 'NONE', ( #2 ), #108, .T. ) ;
#155 = ORIENTED_EDGE ( 'NONE', *, *, #24, .T. ) ;
#156 = ORIENTED_EDGE ( 'NONE', *, *, #4, .T. ) ;
#157 = ORIENTED_EDGE ( 'NONE', *, *, #305, .T. ) ;
#158 = PRESENTATION_STYLE_ASSIGNMENT (( #78 ) ) ;
#159 = EDGE_LOOP ( 'NONE', ( #252, #314 ) ) ;
#160 = FACE_OUTER_BOUND ( 'NONE', #261, .T. ) ;
#161 = ORIENTED_EDGE ( 'NONE', *, *, #168, .T. ) ;
#162 = AXIS2_PLACEMENT_3D ( 'NONE', #256, #64, #93 ) ;
#163 = CARTESIAN_POINT ( 'NONE',  ( 0.1179918900000000853, 0.0000000000000000000, 0.6299209999999999532 ) ) ;
#164 = CARTESIAN_POINT ( 'NONE',  ( 0.1179918900000000853, 0.0000000000000000000, 0.6299209999999999532 ) ) ;
#165 = DIRECTION ( 'NONE',  ( 0.0000000000000000000, 0.0000000000000000000, 1.000000000000000000 ) ) ;
#166 = FACE_OUTER_BOUND ( 'NONE', #75, .T. ) ;
#167 = AXIS2_PLACEMENT_3D ( 'NONE', #264, #76, #98 ) ;
#168 = EDGE_CURVE ( 'NONE', #315, #16, #83, .T. ) ;
#169 = CARTESIAN_POINT ( 'NONE',  ( 0.0000000000000000000, 0.0000000000000000000, 2.244094000000000033 ) ) ;
#170 = SHAPE_DEFINITION_REPRESENTATION ( #178, #214 ) ;
#171 = DIRECTION ( 'NONE',  ( 1.000000000000000000, 0.0000000000000000000, 0.0000000000000000000 ) ) ;
#172 = DIRECTION ( 'NONE',  ( 1.000000000000000000, 0.0000000000000000000, 0.0000000000000000000 ) ) ;
#173 = EDGE_CURVE ( 'NONE', #239, #16, #99, .T. ) ;
#174 = AXIS2_PLACEMENT_3D ( 'NONE', #48, #348, #268 ) ;
#175 = COLOUR_RGB ( '',0.7921568627450980005, 0.8196078431372548767, 0.9333333333333333481 ) ;
#176 = DIRECTION ( 'NONE',  ( -0.0000000000000000000, -0.0000000000000000000, -1.000000000000000000 ) ) ;
#177 = DIRECTION ( 'NONE',  ( 0.0000000000000000000, 0.0000000000000000000, 1.000000000000000000 ) ) ;
#178 = PRODUCT_DEFINITION_SHAPE ( 'NONE', 'NONE',  #57 ) ;
#179 = EDGE_CURVE ( 'NONE', #211, #70, #189, .T. ) ;
#180 = EDGE_LOOP ( 'NONE', ( #102, #18, #69, #291 ) ) ;
#181 = CIRCLE ( 'NONE', #162, 0.1179918899999999882 ) ;
#182 = ORIENTED_EDGE ( 'NONE', *, *, #270, .F. ) ;
#183 = ORIENTED_EDGE ( 'NONE', *, *, #203, .F. ) ;
#184 = CARTESIAN_POINT ( 'NONE',  ( 0.1061808899999999861, 0.0000000000000000000, 0.0000000000000000000 ) ) ;
#185 = ORIENTED_EDGE ( 'NONE', *, *, #194, .F. ) ;
#186 = DIRECTION ( 'NONE',  ( 0.0000000000000000000, 0.0000000000000000000, -1.000000000000000000 ) ) ;
#187 = EDGE_CURVE ( 'NONE', #315, #234, #127, .T. ) ;
#188 = CARTESIAN_POINT ( 'NONE',  ( 7.722510477716240475E-17, 0.0000000000000000000, 0.6305908350957151187 ) ) ;
#189 = CIRCLE ( 'NONE', #282, 0.1179918899999999882 ) ;
#190 = LINE ( 'NONE', #141, #328 ) ;
#191 = LINE ( 'NONE', #327, #73 ) ;
#192 = DIRECTION ( 'NONE',  ( 1.000000000000000000, 0.0000000000000000000, 0.0000000000000000000 ) ) ;
#193 = MANIFOLD_SOLID_BREP ( 'Fillet1', #90 ) ;
#194 = EDGE_CURVE ( 'NONE', #343, #22, #318, .T. ) ;
#195 = DIRECTION ( 'NONE',  ( 0.0000000000000000000, 0.0000000000000000000, 1.000000000000000000 ) ) ;
#196 = VECTOR ( 'NONE', #275, 39.37007874015748854 ) ;
#197 = DIRECTION ( 'NONE',  ( 1.224646799147353207E-16, 1.000000000000000000, -0.0000000000000000000 ) ) ;
#198 = ADVANCED_FACE ( 'NONE', ( #254 ), #62, .F. ) ;
#199 = LENGTH_MEASURE_WITH_UNIT ( LENGTH_MEASURE( 0.02539999999999999897 ), #153 );
#200 =( GEOMETRIC_REPRESENTATION_CONTEXT ( 3 ) GLOBAL_UNCERTAINTY_ASSIGNED_CONTEXT ( ( #118 ) ) GLOBAL_UNIT_ASSIGNED_CONTEXT ( ( #240, #23, #139 ) ) REPRESENTATION_CONTEXT ( 'NONE', 'WORKASPACE' ) );
#201 = AXIS2_PLACEMENT_3D ( 'NONE', #217, #324, #27 ) ;
#202 = DIRECTION ( 'NONE',  ( 1.000000000000000000, 0.0000000000000000000, 0.0000000000000000000 ) ) ;
#203 = EDGE_CURVE ( 'NONE', #234, #315, #134, .T. ) ;
#204 = DIRECTION ( 'NONE',  ( 0.0000000000000000000, 0.0000000000000000000, 1.000000000000000000 ) ) ;
#205 = ADVANCED_FACE ( 'NONE', ( #7 ), #338, .T. ) ;
#206 = EDGE_LOOP ( 'NONE', ( #46, #241, #280, #297 ) ) ;
#207 = ORIENTED_EDGE ( 'NONE', *, *, #187, .F. ) ;
#208 = APPLICATION_CONTEXT ( 'automotive_design' ) ;
#209 = ORIENTED_EDGE ( 'NONE', *, *, #66, .F. ) ;
#210 =( GEOMETRIC_REPRESENTATION_CONTEXT ( 3 ) GLOBAL_UNCERTAINTY_ASSIGNED_CONTEXT ( ( #71 ) ) GLOBAL_UNIT_ASSIGNED_CONTEXT ( ( #54, #59, #278 ) ) REPRESENTATION_CONTEXT ( 'NONE', 'WORKASPACE' ) );
#211 = VERTEX_POINT ( 'NONE', #311 ) ;
#212 = ORIENTED_EDGE ( 'NONE', *, *, #194, .T. ) ;
#213 = ADVANCED_FACE ( 'NONE', ( #96 ), #323, .T. ) ;
#214 = ADVANCED_BREP_SHAPE_REPRESENTATION ( 'Micro_AECM-0603-4X', ( #193, #223 ), #200 ) ;
#215 = CARTESIAN_POINT ( 'NONE',  ( -0.1031100000000002570, 0.0000000000000000000, 2.244094000000000033 ) ) ;
#216 = DIRECTION ( 'NONE',  ( 1.224646799147353207E-16, 0.0000000000000000000, 1.000000000000000000 ) ) ;
#217 = CARTESIAN_POINT ( 'NONE',  ( 7.714307363656999460E-17, 0.0000000000000000000, 0.6299209999999999532 ) ) ;
#218 = AXIS2_PLACEMENT_3D ( 'NONE', #121, #176, #202 ) ;
#219 = ADVANCED_FACE ( 'NONE', ( #227 ), #5, .T. ) ;
#220 = DIRECTION ( 'NONE',  ( 0.7071067811865358044, 8.659560562354788645E-17, -0.7071067811865590080 ) ) ;
#221 = DIRECTION ( 'NONE',  ( -1.224646799147353207E-16, -0.0000000000000000000, -1.000000000000000000 ) ) ;
#222 = LINE ( 'NONE', #215, #196 ) ;
#223 = AXIS2_PLACEMENT_3D ( 'NONE', #331, #195, #172 ) ;
#224 = EDGE_CURVE ( 'NONE', #345, #101, #259, .T. ) ;
#225 = CARTESIAN_POINT ( 'NONE',  ( 1.446430334472938969E-18, 0.0000000000000000000, 0.01181100000000000032 ) ) ;
#226 = DIRECTION ( 'NONE',  ( -1.000000000000000000, 0.0000000000000000000, 1.224646799147353454E-16 ) ) ;
#227 = FACE_OUTER_BOUND ( 'NONE', #128, .T. ) ;
#228 = VECTOR ( 'NONE', #279, 39.37007874015748143 ) ;
#229 = CARTESIAN_POINT ( 'NONE',  ( -0.1179918899999999049, 1.444983904138465938E-17, 0.6299209999999999532 ) ) ;
#230 = EDGE_CURVE ( 'NONE', #70, #211, #181, .T. ) ;
#231 = PRODUCT ( 'Micro_AECM-0603-4X', 'Micro_AECM-0603-4X', '', ( #119 ) ) ;
#232 = AXIS2_PLACEMENT_3D ( 'NONE', #148, #65, #226 ) ;
#233 = AXIS2_PLACEMENT_3D ( 'NONE', #28, #113, #171 ) ;
#234 = VERTEX_POINT ( 'NONE', #6 ) ;
#235 = ORIENTED_EDGE ( 'NONE', *, *, #224, .T. ) ;
#236 = EDGE_LOOP ( 'NONE', ( #340, #182, #157, #263 ) ) ;
#237 =( LENGTH_UNIT ( ) NAMED_UNIT ( * ) SI_UNIT ( $, .METRE. ) );
#238 = EDGE_CURVE ( 'NONE', #131, #335, #31, .T. ) ;
#239 = VERTEX_POINT ( 'NONE', #332 ) ;
#240 =( CONVERSION_BASED_UNIT ( 'INCH', #136 ) LENGTH_UNIT ( ) NAMED_UNIT ( #107 ) );
#241 = ORIENTED_EDGE ( 'NONE', *, *, #333, .F. ) ;
#242 = APPLICATION_PROTOCOL_DEFINITION ( 'draft international standard', 'automotive_design', 1998, #84 ) ;
#243 = DIRECTION ( 'NONE',  ( -0.0000000000000000000, -0.0000000000000000000, -1.000000000000000000 ) ) ;
#244 = CARTESIAN_POINT ( 'NONE',  ( -0.1181100000000000066, 0.0000000000000000000, 2.229093999999999465 ) ) ;
#245 = DIRECTION ( 'NONE',  ( -1.224646799147353207E-16, -0.0000000000000000000, -1.000000000000000000 ) ) ;
#246 = AXIS2_PLACEMENT_3D ( 'NONE', #253, #312, #92 ) ;
#247 = DIRECTION ( 'NONE',  ( -1.000000000000000000, 0.0000000000000000000, 0.0000000000000000000 ) ) ;
#248 = DIRECTION ( 'NONE',  ( 1.000000000000000000, 0.0000000000000000000, 0.0000000000000000000 ) ) ;
#249 = DIRECTION ( 'NONE',  ( 0.0000000000000000000, 0.0000000000000000000, -1.000000000000000000 ) ) ;
#250 = EDGE_CURVE ( 'NONE', #345, #16, #123, .T. ) ;
#251 = UNCERTAINTY_MEASURE_WITH_UNIT (LENGTH_MEASURE( 1.000000000000000082E-05 ), #95, 'distance_accuracy_value', 'NONE');
#252 = ORIENTED_EDGE ( 'NONE', *, *, #270, .T. ) ;
#253 = CARTESIAN_POINT ( 'NONE',  ( 7.714307363656999460E-17, 0.0000000000000000000, 0.6299209999999999532 ) ) ;
#254 = FACE_OUTER_BOUND ( 'NONE', #159, .T. ) ;
#255 = CIRCLE ( 'NONE', #80, 0.1061808899999999861 ) ;
#256 = CARTESIAN_POINT ( 'NONE',  ( 1.446430334472939162E-18, 0.0000000000000000000, 0.01181100000000000205 ) ) ;
#257 = CARTESIAN_POINT ( 'NONE',  ( 0.0000000000000000000, 0.0000000000000000000, 2.244094000000000033 ) ) ;
#258 = ORIENTED_EDGE ( 'NONE', *, *, #299, .F. ) ;
#259 = CIRCLE ( 'NONE', #246, 0.1179918899999999882 ) ;
#260 = ORIENTED_EDGE ( 'NONE', *, *, #66, .T. ) ;
#261 = EDGE_LOOP ( 'NONE', ( #34, #130, #260, #42 ) ) ;
#262 = ADVANCED_FACE ( 'NONE', ( #160 ), #143, .T. ) ;
#263 = ORIENTED_EDGE ( 'NONE', *, *, #230, .F. ) ;
#264 = CARTESIAN_POINT ( 'NONE',  ( 0.0000000000000000000, 0.0000000000000000000, 2.244094000000000033 ) ) ;
#265 = AXIS2_PLACEMENT_3D ( 'NONE', #32, #117, #10 ) ;
#266 = AXIS2_PLACEMENT_3D ( 'NONE', #112, #221, #86 ) ;
#267 = ORIENTED_EDGE ( 'NONE', *, *, #299, .T. ) ;
#268 = DIRECTION ( 'NONE',  ( -1.000000000000000000, 0.0000000000000000000, 0.0000000000000000000 ) ) ;
#269 = DIRECTION ( 'NONE',  ( -1.000000000000000000, 0.0000000000000000000, 0.0000000000000000000 ) ) ;
#270 = EDGE_CURVE ( 'NONE', #335, #131, #255, .T. ) ;
#271 = CARTESIAN_POINT ( 'NONE',  ( -0.1179918899999999049, 1.445707119305702357E-17, 0.6299209999999999532 ) ) ;
#272 = DIRECTION ( 'NONE',  ( 1.000000000000000000, 0.0000000000000000000, 0.0000000000000000000 ) ) ;
#273 = CARTESIAN_POINT ( 'NONE',  ( -0.1181099999999999234, 0.0000000000000000000, 0.6305908350957151187 ) ) ;
#274 = VECTOR ( 'NONE', #298, 39.37007874015748143 ) ;
#275 = DIRECTION ( 'NONE',  ( -0.7071067811865358044, 0.0000000000000000000, -0.7071067811865590080 ) ) ;
#276 = ADVANCED_FACE ( 'NONE', ( #346 ), #44, .T. ) ;
#277 = DIRECTION ( 'NONE',  ( -1.224646799147353207E-16, -0.0000000000000000000, -1.000000000000000000 ) ) ;
#278 =( NAMED_UNIT ( * ) SI_UNIT ( $, .STERADIAN. ) SOLID_ANGLE_UNIT ( ) );
#279 = DIRECTION ( 'NONE',  ( -0.1736481776669312471, 2.126576849575783933E-17, 0.9848077530122077983 ) ) ;
#280 = ORIENTED_EDGE ( 'NONE', *, *, #330, .T. ) ;
#281 = AXIS2_PLACEMENT_3D ( 'NONE', #53, #149, #3 ) ;
#282 = AXIS2_PLACEMENT_3D ( 'NONE', #347, #165, #272 ) ;
#283 = CIRCLE ( 'NONE', #284, 0.01181100000000000552 ) ;
#284 = AXIS2_PLACEMENT_3D ( 'NONE', #85, #197, #51 ) ;
#285 = CONICAL_SURFACE ( 'NONE', #88, 0.1031100000000002570, 0.7853981633974318477 ) ;
#286 = SURFACE_STYLE_FILL_AREA ( #309 ) ;
#287 =( NAMED_UNIT ( * ) PLANE_ANGLE_UNIT ( ) SI_UNIT ( $, .RADIAN. ) );
#288 = AXIS2_PLACEMENT_3D ( 'NONE', #257, #106, #25 ) ;
#289 = CIRCLE ( 'NONE', #350, 0.1181100000000000066 ) ;
#290 = ORIENTED_EDGE ( 'NONE', *, *, #203, .T. ) ;
#291 = ORIENTED_EDGE ( 'NONE', *, *, #230, .T. ) ;
#292 = ORIENTED_EDGE ( 'NONE', *, *, #179, .T. ) ;
#293 = SURFACE_STYLE_FILL_AREA ( #74 ) ;
#294 = EDGE_LOOP ( 'NONE', ( #341, #155, #39, #320 ) ) ;
#295 = EDGE_CURVE ( 'NONE', #234, #239, #190, .T. ) ;
#296 = LINE ( 'NONE', #163, #274 ) ;
#297 = ORIENTED_EDGE ( 'NONE', *, *, #173, .T. ) ;
#298 = DIRECTION ( 'NONE',  ( 0.1736481776669314692, 0.0000000000000000000, 0.9848077530122077983 ) ) ;
#299 = EDGE_CURVE ( 'NONE', #22, #343, #89, .T. ) ;
#300 = AXIS2_PLACEMENT_3D ( 'NONE', #351, #325, #192 ) ;
#301 = LINE ( 'NONE', #56, #82 ) ;
#302 = CARTESIAN_POINT ( 'NONE',  ( 7.714307363656999460E-17, 0.0000000000000000000, 0.6299209999999999532 ) ) ;
#303 = DIRECTION ( 'NONE',  ( -1.000000000000000000, 0.0000000000000000000, 0.0000000000000000000 ) ) ;
#304 = CARTESIAN_POINT ( 'NONE',  ( 0.1179918899999999882, 1.444983904138465938E-17, -1.444983904138465938E-17 ) ) ;
#305 = EDGE_CURVE ( 'NONE', #335, #211, #20, .T. ) ;
#306 = FACE_OUTER_BOUND ( 'NONE', #294, .T. ) ;
#307 = DIRECTION ( 'NONE',  ( 0.0000000000000000000, 0.0000000000000000000, -1.000000000000000000 ) ) ;
#308 = APPLICATION_PROTOCOL_DEFINITION ( 'draft international standard', 'automotive_design', 1998, #208 ) ;
#309 = FILL_AREA_STYLE ('',( #124 ) ) ;
#310 = PRESENTATION_LAYER_ASSIGNMENT (  '', '', ( #115 ) ) ;
#311 = CARTESIAN_POINT ( 'NONE',  ( 0.1179918899999999882, 1.444983904138465938E-17, 0.01181100000000000205 ) ) ;
#312 = DIRECTION ( 'NONE',  ( -1.224646799147353207E-16, -0.0000000000000000000, -1.000000000000000000 ) ) ;
#313 = ORIENTED_EDGE ( 'NONE', *, *, #11, .T. ) ;
#314 = ORIENTED_EDGE ( 'NONE', *, *, #238, .T. ) ;
#315 = VERTEX_POINT ( 'NONE', #244 ) ;
#316 = FILL_AREA_STYLE_COLOUR ( '', #109 ) ;
#317 = CONICAL_SURFACE ( 'NONE', #116, 0.1031100000000002570, 0.7853981633974318477 ) ;
#318 = CIRCLE ( 'NONE', #281, 0.1031100000000002570 ) ;
#319 = EDGE_LOOP ( 'NONE', ( #77, #290, #161, #137 ) ) ;
#320 = ORIENTED_EDGE ( 'NONE', *, *, #305, .F. ) ;
#321 = SURFACE_SIDE_STYLE ('',( #293 ) ) ;
#322 = CARTESIAN_POINT ( 'NONE',  ( 0.0000000000000000000, 0.0000000000000000000, 2.244094000000000033 ) ) ;
#323 = TOROIDAL_SURFACE ( 'NONE', #87, 0.1061808899999999861, 0.01181100000000000032 ) ;
#324 = DIRECTION ( 'NONE',  ( 1.224646799147353207E-16, 0.0000000000000000000, 1.000000000000000000 ) ) ;
#325 = DIRECTION ( 'NONE',  ( 0.0000000000000000000, 0.0000000000000000000, -1.000000000000000000 ) ) ;
#326 = LENGTH_MEASURE_WITH_UNIT ( LENGTH_MEASURE( 0.02539999999999999897 ), #237 );
#327 = CARTESIAN_POINT ( 'NONE',  ( -0.1179918899999999882, 0.0000000000000000000, 1.444983904138465938E-17 ) ) ;
#328 = VECTOR ( 'NONE', #52, 39.37007874015748143 ) ;
#329 = CARTESIAN_POINT ( 'NONE',  ( 0.1031100000000002570, 1.354581824536888722E-17, 2.244094000000000033 ) ) ;
#330 = EDGE_CURVE ( 'NONE', #101, #239, #296, .T. ) ;
#331 = CARTESIAN_POINT ( 'NONE',  ( 0.0000000000000000000, 0.0000000000000000000, 0.0000000000000000000 ) ) ;
#332 = CARTESIAN_POINT ( 'NONE',  ( 0.1181100000000000899, 1.446430334472940009E-17, 0.6305908350957151187 ) ) ;
#333 = EDGE_CURVE ( 'NONE', #101, #345, #94, .T. ) ;
#334 = CARTESIAN_POINT ( 'NONE',  ( 0.0000000000000000000, 0.0000000000000000000, 0.0000000000000000000 ) ) ;
#335 = VERTEX_POINT ( 'NONE', #184 ) ;
#336 = PRESENTATION_STYLE_ASSIGNMENT (( #67 ) ) ;
#337 = CARTESIAN_POINT ( 'NONE',  ( 0.0000000000000000000, 0.0000000000000000000, 2.244094000000000033 ) ) ;
#338 = CYLINDRICAL_SURFACE ( 'NONE', #232, 0.1179918899999999882 ) ;
#339 = AXIS2_PLACEMENT_3D ( 'NONE', #337, #204, #152 ) ;
#340 = ORIENTED_EDGE ( 'NONE', *, *, #24, .F. ) ;
#341 = ORIENTED_EDGE ( 'NONE', *, *, #238, .F. ) ;
#342 = ORIENTED_EDGE ( 'NONE', *, *, #187, .T. ) ;
#343 = VERTEX_POINT ( 'NONE', #50 ) ;
#344 = DIMENSIONAL_EXPONENTS ( 1.000000000000000000, 0.0000000000000000000, 0.0000000000000000000, 0.0000000000000000000, 0.0000000000000000000, 0.0000000000000000000, 0.0000000000000000000 ) ;
#345 = VERTEX_POINT ( 'NONE', #271 ) ;
#346 = FACE_OUTER_BOUND ( 'NONE', #319, .T. ) ;
#347 = CARTESIAN_POINT ( 'NONE',  ( 1.446430334472939162E-18, 0.0000000000000000000, 0.01181100000000000205 ) ) ;
#348 = DIRECTION ( 'NONE',  ( -1.224646799147353207E-16, -0.0000000000000000000, -1.000000000000000000 ) ) ;
#349 =( GEOMETRIC_REPRESENTATION_CONTEXT ( 3 ) GLOBAL_UNCERTAINTY_ASSIGNED_CONTEXT ( ( #251 ) ) GLOBAL_UNIT_ASSIGNED_CONTEXT ( ( #95, #287, #36 ) ) REPRESENTATION_CONTEXT ( 'NONE', 'WORKASPACE' ) );
#350 = AXIS2_PLACEMENT_3D ( 'NONE', #188, #277, #29 ) ;
#351 = CARTESIAN_POINT ( 'NONE',  ( 0.0000000000000000000, 0.0000000000000000000, 2.229093999999999465 ) ) ;
ENDSEC;
END-ISO-10303-21;
