ISO-10303-21;
HEADER;
FILE_DESCRIPTION (( 'STEP AP214' ),
    '1' );
FILE_NAME ('Micro_SEM-218-04X.STEP',
    '2021-09-02T02:22:50',
    ( '' ),
    ( '' ),
    'SwSTEP 2.0',
    'SolidWorks 2020',
    '' );
FILE_SCHEMA (( 'AUTOMOTIVE_DESIGN' ));
ENDSEC;

DATA;
#1 = EDGE_CURVE ( 'NONE', #48, #29, #78, .T. ) ;
#2 = AXIS2_PLACEMENT_3D ( 'NONE', #266, #292, #188 ) ;
#3 = CONICAL_SURFACE ( 'NONE', #274, 0.1099999999999996397, 0.7853981633974426169 ) ;
#4 = DIRECTION ( 'NONE',  ( -1.224646799147353207E-16, -0.0000000000000000000, -1.000000000000000000 ) ) ;
#5 = LINE ( 'NONE', #285, #239 ) ;
#6 = FACE_OUTER_BOUND ( 'NONE', #283, .T. ) ;
#7 = DIRECTION ( 'NONE',  ( -1.000000000000000000, 0.0000000000000000000, 0.0000000000000000000 ) ) ;
#8 = ORIENTED_EDGE ( 'NONE', *, *, #63, .F. ) ;
#9 = CIRCLE ( 'NONE', #142, 0.1250000000000000000 ) ;
#10 =( GEOMETRIC_REPRESENTATION_CONTEXT ( 3 ) GLOBAL_UNCERTAINTY_ASSIGNED_CONTEXT ( ( #145 ) ) GLOBAL_UNIT_ASSIGNED_CONTEXT ( ( #105, #181, #199 ) ) REPRESENTATION_CONTEXT ( 'NONE', 'WORKASPACE' ) );
#11 = FILL_AREA_STYLE ('',( #202 ) ) ;
#12 =( LENGTH_UNIT ( ) NAMED_UNIT ( * ) SI_UNIT ( $, .METRE. ) );
#13 = EDGE_CURVE ( 'NONE', #185, #160, #109, .T. ) ;
#14 = DIRECTION ( 'NONE',  ( -1.000000000000000000, 0.0000000000000000000, 1.224646799147353207E-16 ) ) ;
#15 = CARTESIAN_POINT ( 'NONE',  ( 0.1250000000000000555, 1.530808498934192125E-17, 0.5273757151439919522 ) ) ;
#16 = PRODUCT_RELATED_PRODUCT_CATEGORY ( 'part', '', ( #95 ) ) ;
#17 = ADVANCED_FACE ( 'NONE', ( #182 ), #114, .T. ) ;
#18 = DIRECTION ( 'NONE',  ( 1.224646799147353207E-16, 0.0000000000000000000, 1.000000000000000000 ) ) ;
#19 =( GEOMETRIC_REPRESENTATION_CONTEXT ( 3 ) GLOBAL_UNCERTAINTY_ASSIGNED_CONTEXT ( ( #238 ) ) GLOBAL_UNIT_ASSIGNED_CONTEXT ( ( #250, #212, #174 ) ) REPRESENTATION_CONTEXT ( 'NONE', 'WORKASPACE' ) );
#20 = ADVANCED_FACE ( 'NONE', ( #168 ), #276, .T. ) ;
#21 = CARTESIAN_POINT ( 'NONE',  ( 6.458489814991360729E-17, 0.0000000000000000000, 0.5273757151439919522 ) ) ;
#22 = CARTESIAN_POINT ( 'NONE',  ( 0.1250000000000000000, 1.530808498934191509E-17, 2.000000000000000000 ) ) ;
#23 = EDGE_CURVE ( 'NONE', #217, #81, #234, .T. ) ;
#24 = ORIENTED_EDGE ( 'NONE', *, *, #62, .F. ) ;
#25 = LENGTH_MEASURE_WITH_UNIT ( LENGTH_MEASURE( 0.02539999999999999897 ), #43 );
#26 = ORIENTED_EDGE ( 'NONE', *, *, #288, .T. ) ;
#27 = CARTESIAN_POINT ( 'NONE',  ( 0.1250000000000000000, 1.530808498934191509E-17, 1.984999999999999432 ) ) ;
#28 = CARTESIAN_POINT ( 'NONE',  ( 0.0000000000000000000, 0.0000000000000000000, 2.000000000000000000 ) ) ;
#29 = VERTEX_POINT ( 'NONE', #205 ) ;
#30 = EDGE_LOOP ( 'NONE', ( #178, #244, #247, #201 ) ) ;
#31 = EDGE_CURVE ( 'NONE', #81, #217, #9, .T. ) ;
#32 = DIRECTION ( 'NONE',  ( 0.0000000000000000000, 0.0000000000000000000, 1.000000000000000000 ) ) ;
#33 = ORIENTED_EDGE ( 'NONE', *, *, #91, .F. ) ;
#34 = LENGTH_MEASURE_WITH_UNIT ( LENGTH_MEASURE( 0.02539999999999999897 ), #12 );
#35 = DIRECTION ( 'NONE',  ( 1.224646799147353207E-16, 0.0000000000000000000, 1.000000000000000000 ) ) ;
#36 = STYLED_ITEM ( 'NONE', ( #245 ), #260 ) ;
#37 = DIRECTION ( 'NONE',  ( -1.224646799147353207E-16, -0.0000000000000000000, -1.000000000000000000 ) ) ;
#38 = EDGE_CURVE ( 'NONE', #126, #29, #55, .T. ) ;
#39 = DIRECTION ( 'NONE',  ( -1.000000000000000000, 0.0000000000000000000, 0.0000000000000000000 ) ) ;
#40 = ADVANCED_FACE ( 'NONE', ( #229 ), #88, .T. ) ;
#41 = ORIENTED_EDGE ( 'NONE', *, *, #130, .F. ) ;
#42 = ADVANCED_BREP_SHAPE_REPRESENTATION ( 'Micro_SEM-218-04X', ( #260, #296 ), #19 ) ;
#43 =( LENGTH_UNIT ( ) NAMED_UNIT ( * ) SI_UNIT ( $, .METRE. ) );
#44 = VERTEX_POINT ( 'NONE', #15 ) ;
#45 =( GEOMETRIC_REPRESENTATION_CONTEXT ( 3 ) GLOBAL_UNCERTAINTY_ASSIGNED_CONTEXT ( ( #277 ) ) GLOBAL_UNIT_ASSIGNED_CONTEXT ( ( #282, #71, #281 ) ) REPRESENTATION_CONTEXT ( 'NONE', 'WORKASPACE' ) );
#46 = ORIENTED_EDGE ( 'NONE', *, *, #91, .T. ) ;
#47 = ORIENTED_EDGE ( 'NONE', *, *, #13, .F. ) ;
#48 = VERTEX_POINT ( 'NONE', #107 ) ;
#49 = ORIENTED_EDGE ( 'NONE', *, *, #275, .T. ) ;
#50 = AXIS2_PLACEMENT_3D ( 'NONE', #140, #18, #110 ) ;
#51 = DIRECTION ( 'NONE',  ( 0.0000000000000000000, 0.0000000000000000000, 1.000000000000000000 ) ) ;
#52 = DIRECTION ( 'NONE',  ( -1.000000000000000000, 0.0000000000000000000, 0.0000000000000000000 ) ) ;
#53 = EDGE_CURVE ( 'NONE', #185, #81, #200, .T. ) ;
#54 = CARTESIAN_POINT ( 'NONE',  ( -0.1092406499999999392, 1.434310311263477304E-17, 0.4380000000000000004 ) ) ;
#55 = LINE ( 'NONE', #269, #119 ) ;
#56 = CARTESIAN_POINT ( 'NONE',  ( -0.1249999999999999306, 0.0000000000000000000, 0.5273757151439919522 ) ) ;
#57 = AXIS2_PLACEMENT_3D ( 'NONE', #193, #246, #155 ) ;
#58 = AXIS2_PLACEMENT_3D ( 'NONE', #248, #177, #289 ) ;
#59 = AXIS2_PLACEMENT_3D ( 'NONE', #141, #167, #52 ) ;
#60 = CARTESIAN_POINT ( 'NONE',  ( -0.1250000000000000000, 0.0000000000000000000, 2.000000000000000000 ) ) ;
#61 = DIMENSIONAL_EXPONENTS ( 1.000000000000000000, 0.0000000000000000000, 0.0000000000000000000, 0.0000000000000000000, 0.0000000000000000000, 0.0000000000000000000, 0.0000000000000000000 ) ;
#62 = EDGE_CURVE ( 'NONE', #126, #190, #268, .T. ) ;
#63 = EDGE_CURVE ( 'NONE', #70, #44, #184, .T. ) ;
#64 = VECTOR ( 'NONE', #96, 39.37007874015747433 ) ;
#65 = CARTESIAN_POINT ( 'NONE',  ( -0.1092406499999999947, 0.0000000000000000000, 1.337812123592763100E-17 ) ) ;
#66 = ORIENTED_EDGE ( 'NONE', *, *, #23, .T. ) ;
#67 = CARTESIAN_POINT ( 'NONE',  ( 5.363952980265406880E-17, 0.0000000000000000000, 0.4380000000000000004 ) ) ;
#68 = LINE ( 'NONE', #60, #225 ) ;
#69 = ADVANCED_FACE ( 'NONE', ( #6 ), #150, .T. ) ;
#70 = VERTEX_POINT ( 'NONE', #56 ) ;
#71 =( NAMED_UNIT ( * ) PLANE_ANGLE_UNIT ( ) SI_UNIT ( $, .RADIAN. ) );
#72 = DIRECTION ( 'NONE',  ( -1.000000000000000000, 0.0000000000000000000, 0.0000000000000000000 ) ) ;
#73 = AXIS2_PLACEMENT_3D ( 'NONE', #223, #138, #233 ) ;
#74 = ORIENTED_EDGE ( 'NONE', *, *, #166, .T. ) ;
#75 = VECTOR ( 'NONE', #153, 39.37007874015748143 ) ;
#76 = LINE ( 'NONE', #262, #64 ) ;
#77 = EDGE_LOOP ( 'NONE', ( #49, #183 ) ) ;
#78 = CIRCLE ( 'NONE', #57, 0.1092406499999999947 ) ;
#79 = DIRECTION ( 'NONE',  ( 0.0000000000000000000, 0.0000000000000000000, 1.000000000000000000 ) ) ;
#80 = ORIENTED_EDGE ( 'NONE', *, *, #1, .F. ) ;
#81 = VERTEX_POINT ( 'NONE', #27 ) ;
#82 = VECTOR ( 'NONE', #124, 39.37007874015748143 ) ;
#83 = CARTESIAN_POINT ( 'NONE',  ( 5.363952980265406880E-17, 0.0000000000000000000, 0.4380000000000000004 ) ) ;
#84 = CARTESIAN_POINT ( 'NONE',  ( -0.1099999999999996397, 0.0000000000000000000, 2.000000000000000000 ) ) ;
#85 = SURFACE_SIDE_STYLE ('',( #230 ) ) ;
#86 = DIRECTION ( 'NONE',  ( 1.000000000000000000, 0.0000000000000000000, 0.0000000000000000000 ) ) ;
#87 = AXIS2_PLACEMENT_3D ( 'NONE', #100, #175, #148 ) ;
#88 = PLANE ( 'NONE',  #165 ) ;
#89 = COLOUR_RGB ( '',0.7921568627450980005, 0.8196078431372548767, 0.9333333333333333481 ) ;
#90 = ORIENTED_EDGE ( 'NONE', *, *, #62, .T. ) ;
#91 = EDGE_CURVE ( 'NONE', #126, #44, #261, .T. ) ;
#92 = DIRECTION ( 'NONE',  ( -1.224646799147353207E-16, -0.0000000000000000000, -1.000000000000000000 ) ) ;
#93 = VECTOR ( 'NONE', #231, 39.37007874015748143 ) ;
#94 = CIRCLE ( 'NONE', #257, 0.1250000000000000000 ) ;
#95 = PRODUCT ( 'Micro_SEM-218-04X', 'Micro_SEM-218-04X', '', ( #186 ) ) ;
#96 = DIRECTION ( 'NONE',  ( -0.1736481776669311916, 2.126576849575783316E-17, 0.9848077530122080203 ) ) ;
#97 = APPLICATION_PROTOCOL_DEFINITION ( 'draft international standard', 'automotive_design', 1998, #264 ) ;
#98 = ADVANCED_FACE ( 'NONE', ( #226 ), #164, .T. ) ;
#99 = FACE_OUTER_BOUND ( 'NONE', #123, .T. ) ;
#100 = CARTESIAN_POINT ( 'NONE',  ( 0.0000000000000000000, 0.0000000000000000000, 2.000000000000000000 ) ) ;
#101 = EDGE_LOOP ( 'NONE', ( #106, #90, #26, #41 ) ) ;
#102 = CARTESIAN_POINT ( 'NONE',  ( 0.1092406500000000363, 0.0000000000000000000, 0.4380000000000000004 ) ) ;
#103 = ORIENTED_EDGE ( 'NONE', *, *, #288, .F. ) ;
#104 = ADVANCED_FACE ( 'NONE', ( #99 ), #258, .F. ) ;
#105 =( CONVERSION_BASED_UNIT ( 'INCH', #34 ) LENGTH_UNIT ( ) NAMED_UNIT ( #120 ) );
#106 = ORIENTED_EDGE ( 'NONE', *, *, #38, .F. ) ;
#107 = CARTESIAN_POINT ( 'NONE',  ( -0.1092406499999999947, 0.0000000000000000000, 2.675624247185526200E-17 ) ) ;
#108 = ORIENTED_EDGE ( 'NONE', *, *, #53, .T. ) ;
#109 = CIRCLE ( 'NONE', #137, 0.1099999999999996397 ) ;
#110 = DIRECTION ( 'NONE',  ( 1.000000000000000000, 0.0000000000000000000, 0.0000000000000000000 ) ) ;
#111 = ORIENTED_EDGE ( 'NONE', *, *, #259, .T. ) ;
#112 = CARTESIAN_POINT ( 'NONE',  ( 0.0000000000000000000, 0.0000000000000000000, 0.0000000000000000000 ) ) ;
#113 = DIRECTION ( 'NONE',  ( -1.224646799147353207E-16, -0.0000000000000000000, -1.000000000000000000 ) ) ;
#114 = CONICAL_SURFACE ( 'NONE', #2, 0.1099999999999996397, 0.7853981633974426169 ) ;
#115 = CIRCLE ( 'NONE', #122, 0.1092406499999999947 ) ;
#116 = DIMENSIONAL_EXPONENTS ( 1.000000000000000000, 0.0000000000000000000, 0.0000000000000000000, 0.0000000000000000000, 0.0000000000000000000, 0.0000000000000000000, 0.0000000000000000000 ) ;
#117 = ADVANCED_FACE ( 'NONE', ( #237 ), #143, .T. ) ;
#118 = ORIENTED_EDGE ( 'NONE', *, *, #259, .F. ) ;
#119 = VECTOR ( 'NONE', #37, 39.37007874015748143 ) ;
#120 = DIMENSIONAL_EXPONENTS ( 1.000000000000000000, 0.0000000000000000000, 0.0000000000000000000, 0.0000000000000000000, 0.0000000000000000000, 0.0000000000000000000, 0.0000000000000000000 ) ;
#121 = DIRECTION ( 'NONE',  ( -1.224646799147353207E-16, -0.0000000000000000000, -1.000000000000000000 ) ) ;
#122 = AXIS2_PLACEMENT_3D ( 'NONE', #203, #228, #14 ) ;
#123 = EDGE_LOOP ( 'NONE', ( #151, #293 ) ) ;
#124 = DIRECTION ( 'NONE',  ( 0.1736481776669313859, 0.0000000000000000000, 0.9848077530122077983 ) ) ;
#125 = CARTESIAN_POINT ( 'NONE',  ( -0.1250000000000000000, 0.0000000000000000000, 1.984999999999999432 ) ) ;
#126 = VERTEX_POINT ( 'NONE', #170 ) ;
#127 = DIRECTION ( 'NONE',  ( -0.0000000000000000000, -0.0000000000000000000, -1.000000000000000000 ) ) ;
#128 = SURFACE_SIDE_STYLE ('',( #278 ) ) ;
#129 = DIRECTION ( 'NONE',  ( 1.000000000000000000, 0.0000000000000000000, 0.0000000000000000000 ) ) ;
#130 = EDGE_CURVE ( 'NONE', #29, #48, #115, .T. ) ;
#131 = ORIENTED_EDGE ( 'NONE', *, *, #166, .F. ) ;
#132 = MECHANICAL_DESIGN_GEOMETRIC_PRESENTATION_REPRESENTATION (  '', ( #36 ), #45 ) ;
#133 = CARTESIAN_POINT ( 'NONE',  ( 0.0000000000000000000, 0.0000000000000000000, 0.0000000000000000000 ) ) ;
#134 = ORIENTED_EDGE ( 'NONE', *, *, #139, .F. ) ;
#135 = ORIENTED_EDGE ( 'NONE', *, *, #232, .F. ) ;
#136 = DIRECTION ( 'NONE',  ( 1.000000000000000000, 0.0000000000000000000, 0.0000000000000000000 ) ) ;
#137 = AXIS2_PLACEMENT_3D ( 'NONE', #28, #79, #129 ) ;
#138 = DIRECTION ( 'NONE',  ( 0.0000000000000000000, 0.0000000000000000000, -1.000000000000000000 ) ) ;
#139 = EDGE_CURVE ( 'NONE', #44, #70, #94, .T. ) ;
#140 = CARTESIAN_POINT ( 'NONE',  ( 5.363952980265406880E-17, 0.0000000000000000000, 0.4380000000000000004 ) ) ;
#141 = CARTESIAN_POINT ( 'NONE',  ( 0.0000000000000000000, 0.0000000000000000000, 2.000000000000000000 ) ) ;
#142 = AXIS2_PLACEMENT_3D ( 'NONE', #297, #272, #197 ) ;
#143 = CONICAL_SURFACE ( 'NONE', #235, 0.1092406499999999947, 0.1745329251994338915 ) ;
#144 = DIRECTION ( 'NONE',  ( 1.000000000000000000, 0.0000000000000000000, -0.0000000000000000000 ) ) ;
#145 = UNCERTAINTY_MEASURE_WITH_UNIT (LENGTH_MEASURE( 1.000000000000000082E-05 ), #105, 'distance_accuracy_value', 'NONE');
#146 = FACE_OUTER_BOUND ( 'NONE', #253, .T. ) ;
#147 = CIRCLE ( 'NONE', #220, 0.1092406499999999947 ) ;
#148 = DIRECTION ( 'NONE',  ( 1.000000000000000000, 0.0000000000000000000, 0.0000000000000000000 ) ) ;
#149 = DIRECTION ( 'NONE',  ( -1.224646799147353207E-16, -0.0000000000000000000, -1.000000000000000000 ) ) ;
#150 = CYLINDRICAL_SURFACE ( 'NONE', #58, 0.1092406499999999947 ) ;
#151 = ORIENTED_EDGE ( 'NONE', *, *, #1, .T. ) ;
#152 = CYLINDRICAL_SURFACE ( 'NONE', #59, 0.1250000000000000000 ) ;
#153 = DIRECTION ( 'NONE',  ( -1.224646799147353207E-16, -0.0000000000000000000, -1.000000000000000000 ) ) ;
#154 = ADVANCED_FACE ( 'NONE', ( #146 ), #152, .T. ) ;
#155 = DIRECTION ( 'NONE',  ( -1.000000000000000000, 0.0000000000000000000, 1.224646799147353207E-16 ) ) ;
#156 = ORIENTED_EDGE ( 'NONE', *, *, #265, .T. ) ;
#157 = CYLINDRICAL_SURFACE ( 'NONE', #189, 0.1092406499999999947 ) ;
#158 = CIRCLE ( 'NONE', #87, 0.1099999999999996397 ) ;
#159 = CARTESIAN_POINT ( 'NONE',  ( 0.0000000000000000000, 0.0000000000000000000, 2.000000000000000000 ) ) ;
#160 = VERTEX_POINT ( 'NONE', #84 ) ;
#161 = DIRECTION ( 'NONE',  ( 0.0000000000000000000, 0.0000000000000000000, 1.000000000000000000 ) ) ;
#162 = APPLICATION_PROTOCOL_DEFINITION ( 'draft international standard', 'automotive_design', 1998, #180 ) ;
#163 = CARTESIAN_POINT ( 'NONE',  ( 0.0000000000000000000, 0.0000000000000000000, 0.0000000000000000000 ) ) ;
#164 = CYLINDRICAL_SURFACE ( 'NONE', #256, 0.1250000000000000000 ) ;
#165 = AXIS2_PLACEMENT_3D ( 'NONE', #159, #32, #273 ) ;
#166 = EDGE_CURVE ( 'NONE', #217, #70, #68, .T. ) ;
#167 = DIRECTION ( 'NONE',  ( -0.0000000000000000000, -0.0000000000000000000, -1.000000000000000000 ) ) ;
#168 = FACE_OUTER_BOUND ( 'NONE', #291, .T. ) ;
#169 = ADVANCED_FACE ( 'NONE', ( #287 ), #3, .T. ) ;
#170 = CARTESIAN_POINT ( 'NONE',  ( 0.1092406500000000363, 0.0000000000000000000, 0.4380000000000000004 ) ) ;
#171 = VECTOR ( 'NONE', #243, 39.37007874015748143 ) ;
#172 = LINE ( 'NONE', #22, #171 ) ;
#173 = MECHANICAL_DESIGN_GEOMETRIC_PRESENTATION_REPRESENTATION (  '', ( #299 ), #10 ) ;
#174 =( NAMED_UNIT ( * ) SI_UNIT ( $, .STERADIAN. ) SOLID_ANGLE_UNIT ( ) );
#175 = DIRECTION ( 'NONE',  ( 0.0000000000000000000, 0.0000000000000000000, 1.000000000000000000 ) ) ;
#176 = DIRECTION ( 'NONE',  ( -0.0000000000000000000, -0.0000000000000000000, -1.000000000000000000 ) ) ;
#177 = DIRECTION ( 'NONE',  ( -1.224646799147353207E-16, -0.0000000000000000000, -1.000000000000000000 ) ) ;
#178 = ORIENTED_EDGE ( 'NONE', *, *, #53, .F. ) ;
#179 = LINE ( 'NONE', #65, #75 ) ;
#180 = APPLICATION_CONTEXT ( 'automotive_design' ) ;
#181 =( NAMED_UNIT ( * ) PLANE_ANGLE_UNIT ( ) SI_UNIT ( $, .RADIAN. ) );
#182 = FACE_OUTER_BOUND ( 'NONE', #30, .T. ) ;
#183 = ORIENTED_EDGE ( 'NONE', *, *, #13, .T. ) ;
#184 = CIRCLE ( 'NONE', #213, 0.1250000000000000000 ) ;
#185 = VERTEX_POINT ( 'NONE', #255 ) ;
#186 = PRODUCT_CONTEXT ( 'NONE', #264, 'mechanical' ) ;
#187 = SHAPE_DEFINITION_REPRESENTATION ( #252, #42 ) ;
#188 = DIRECTION ( 'NONE',  ( -1.000000000000000000, 0.0000000000000000000, 0.0000000000000000000 ) ) ;
#189 = AXIS2_PLACEMENT_3D ( 'NONE', #112, #92, #219 ) ;
#190 = VERTEX_POINT ( 'NONE', #54 ) ;
#191 = LENGTH_MEASURE_WITH_UNIT ( LENGTH_MEASURE( 0.02539999999999999897 ), #242 );
#192 = SURFACE_STYLE_USAGE ( .BOTH. , #128 ) ;
#193 = CARTESIAN_POINT ( 'NONE',  ( 1.638347335018400726E-33, 0.0000000000000000000, 1.337812123592763100E-17 ) ) ;
#194 = ORIENTED_EDGE ( 'NONE', *, *, #23, .F. ) ;
#195 = FILL_AREA_STYLE_COLOUR ( '', #89 ) ;
#196 = ORIENTED_EDGE ( 'NONE', *, *, #232, .T. ) ;
#197 = DIRECTION ( 'NONE',  ( 1.000000000000000000, 0.0000000000000000000, 0.0000000000000000000 ) ) ;
#198 = ORIENTED_EDGE ( 'NONE', *, *, #265, .F. ) ;
#199 =( NAMED_UNIT ( * ) SI_UNIT ( $, .STERADIAN. ) SOLID_ANGLE_UNIT ( ) );
#200 = LINE ( 'NONE', #295, #93 ) ;
#201 = ORIENTED_EDGE ( 'NONE', *, *, #31, .F. ) ;
#202 = FILL_AREA_STYLE_COLOUR ( '', #210 ) ;
#203 = CARTESIAN_POINT ( 'NONE',  ( 1.638347335018400726E-33, 0.0000000000000000000, 1.337812123592763100E-17 ) ) ;
#204 = SURFACE_STYLE_USAGE ( .BOTH. , #85 ) ;
#205 = CARTESIAN_POINT ( 'NONE',  ( 0.1092406499999999947, 1.337812123592763100E-17, 0.0000000000000000000 ) ) ;
#206 = PRODUCT_DEFINITION_FORMATION_WITH_SPECIFIED_SOURCE ( 'ANY', '', #95, .NOT_KNOWN. ) ;
#207 = ADVANCED_FACE ( 'NONE', ( #240 ), #157, .T. ) ;
#208 = CARTESIAN_POINT ( 'NONE',  ( 6.458489814991360729E-17, 0.0000000000000000000, 0.5273757151439919522 ) ) ;
#209 = ORIENTED_EDGE ( 'NONE', *, *, #31, .T. ) ;
#210 = COLOUR_RGB ( '',0.7921568627450980005, 0.8196078431372548767, 0.9333333333333333481 ) ;
#211 = PRODUCT_DEFINITION_CONTEXT ( 'detailed design', #180, 'design' ) ;
#212 =( NAMED_UNIT ( * ) PLANE_ANGLE_UNIT ( ) SI_UNIT ( $, .RADIAN. ) );
#213 = AXIS2_PLACEMENT_3D ( 'NONE', #21, #4, #86 ) ;
#214 = ORIENTED_EDGE ( 'NONE', *, *, #63, .T. ) ;
#215 = CARTESIAN_POINT ( 'NONE',  ( 0.0000000000000000000, 0.0000000000000000000, 2.000000000000000000 ) ) ;
#216 = FILL_AREA_STYLE ('',( #195 ) ) ;
#217 = VERTEX_POINT ( 'NONE', #125 ) ;
#218 = DIRECTION ( 'NONE',  ( -1.000000000000000000, 0.0000000000000000000, 0.0000000000000000000 ) ) ;
#219 = DIRECTION ( 'NONE',  ( -1.000000000000000000, 0.0000000000000000000, 1.224646799147353207E-16 ) ) ;
#220 = AXIS2_PLACEMENT_3D ( 'NONE', #67, #149, #7 ) ;
#221 = EDGE_LOOP ( 'NONE', ( #118, #209, #74, #134 ) ) ;
#222 = DIRECTION ( 'NONE',  ( 1.000000000000000000, 0.0000000000000000000, 0.0000000000000000000 ) ) ;
#223 = CARTESIAN_POINT ( 'NONE',  ( 0.0000000000000000000, 0.0000000000000000000, 1.984999999999999432 ) ) ;
#224 = ORIENTED_EDGE ( 'NONE', *, *, #38, .T. ) ;
#225 = VECTOR ( 'NONE', #176, 39.37007874015748143 ) ;
#226 = FACE_OUTER_BOUND ( 'NONE', #221, .T. ) ;
#228 = DIRECTION ( 'NONE',  ( -1.224646799147353207E-16, -0.0000000000000000000, -1.000000000000000000 ) ) ;
#227 = PRODUCT_DEFINITION ( 'UNKNOWN', '', #206, #211 ) ;
#229 = FACE_OUTER_BOUND ( 'NONE', #77, .T. ) ;
#230 = SURFACE_STYLE_FILL_AREA ( #11 ) ;
#231 = DIRECTION ( 'NONE',  ( 0.7071067811865434649, 8.659560562354883554E-17, -0.7071067811865515695 ) ) ;
#232 = EDGE_CURVE ( 'NONE', #190, #70, #76, .T. ) ;
#233 = DIRECTION ( 'NONE',  ( 1.000000000000000000, 0.0000000000000000000, 0.0000000000000000000 ) ) ;
#234 = CIRCLE ( 'NONE', #73, 0.1250000000000000000 ) ;
#235 = AXIS2_PLACEMENT_3D ( 'NONE', #254, #35, #136 ) ;
#236 = DIRECTION ( 'NONE',  ( 0.0000000000000000000, 0.0000000000000000000, -1.000000000000000000 ) ) ;
#237 = FACE_OUTER_BOUND ( 'NONE', #271, .T. ) ;
#238 = UNCERTAINTY_MEASURE_WITH_UNIT (LENGTH_MEASURE( 1.000000000000000082E-05 ), #250, 'distance_accuracy_value', 'NONE');
#239 = VECTOR ( 'NONE', #241, 39.37007874015748143 ) ;
#240 = FACE_OUTER_BOUND ( 'NONE', #101, .T. ) ;
#241 = DIRECTION ( 'NONE',  ( -0.7071067811865434649, 0.0000000000000000000, -0.7071067811865515695 ) ) ;
#242 =( LENGTH_UNIT ( ) NAMED_UNIT ( * ) SI_UNIT ( $, .METRE. ) );
#243 = DIRECTION ( 'NONE',  ( -0.0000000000000000000, -0.0000000000000000000, -1.000000000000000000 ) ) ;
#244 = ORIENTED_EDGE ( 'NONE', *, *, #275, .F. ) ;
#245 = PRESENTATION_STYLE_ASSIGNMENT (( #192 ) ) ;
#246 = DIRECTION ( 'NONE',  ( -1.224646799147353207E-16, -0.0000000000000000000, -1.000000000000000000 ) ) ;
#247 = ORIENTED_EDGE ( 'NONE', *, *, #280, .T. ) ;
#248 = CARTESIAN_POINT ( 'NONE',  ( 0.0000000000000000000, 0.0000000000000000000, 0.0000000000000000000 ) ) ;
#249 = CARTESIAN_POINT ( 'NONE',  ( 0.0000000000000000000, 0.0000000000000000000, 2.000000000000000000 ) ) ;
#250 =( CONVERSION_BASED_UNIT ( 'INCH', #191 ) LENGTH_UNIT ( ) NAMED_UNIT ( #61 ) );
#251 = EDGE_LOOP ( 'NONE', ( #47, #108, #194, #286 ) ) ;
#252 = PRODUCT_DEFINITION_SHAPE ( 'NONE', 'NONE',  #227 ) ;
#253 = EDGE_LOOP ( 'NONE', ( #66, #111, #8, #131 ) ) ;
#254 = CARTESIAN_POINT ( 'NONE',  ( 5.363952980265406880E-17, 0.0000000000000000000, 0.4380000000000000004 ) ) ;
#255 = CARTESIAN_POINT ( 'NONE',  ( 0.1099999999999996397, 1.438959988998137757E-17, 2.000000000000000000 ) ) ;
#256 = AXIS2_PLACEMENT_3D ( 'NONE', #215, #127, #218 ) ;
#257 = AXIS2_PLACEMENT_3D ( 'NONE', #208, #121, #263 ) ;
#258 = PLANE ( 'NONE',  #294 ) ;
#259 = EDGE_CURVE ( 'NONE', #81, #44, #172, .T. ) ;
#260 = MANIFOLD_SOLID_BREP ( 'Cut-Revolve1', #298 ) ;
#261 = LINE ( 'NONE', #102, #82 ) ;
#262 = CARTESIAN_POINT ( 'NONE',  ( -0.1092406499999999392, 1.337812123592763100E-17, 0.4380000000000000004 ) ) ;
#263 = DIRECTION ( 'NONE',  ( 1.000000000000000000, 0.0000000000000000000, 0.0000000000000000000 ) ) ;
#264 = APPLICATION_CONTEXT ( 'automotive_design' ) ;
#265 = EDGE_CURVE ( 'NONE', #190, #126, #147, .T. ) ;
#266 = CARTESIAN_POINT ( 'NONE',  ( 0.0000000000000000000, 0.0000000000000000000, 2.000000000000000000 ) ) ;
#267 = ORIENTED_EDGE ( 'NONE', *, *, #139, .T. ) ;
#268 = CIRCLE ( 'NONE', #284, 0.1092406499999999947 ) ;
#269 = CARTESIAN_POINT ( 'NONE',  ( 0.1092406499999999947, 1.337812123592763100E-17, -1.337812123592763100E-17 ) ) ;
#270 = PRESENTATION_LAYER_ASSIGNMENT (  '', '', ( #299 ) ) ;
#271 = EDGE_LOOP ( 'NONE', ( #135, #24, #46, #267 ) ) ;
#272 = DIRECTION ( 'NONE',  ( 0.0000000000000000000, 0.0000000000000000000, -1.000000000000000000 ) ) ;
#273 = DIRECTION ( 'NONE',  ( 1.000000000000000000, 0.0000000000000000000, -0.0000000000000000000 ) ) ;
#274 = AXIS2_PLACEMENT_3D ( 'NONE', #249, #236, #39 ) ;
#275 = EDGE_CURVE ( 'NONE', #160, #185, #158, .T. ) ;
#276 = CONICAL_SURFACE ( 'NONE', #50, 0.1092406499999999947, 0.1745329251994338915 ) ;
#277 = UNCERTAINTY_MEASURE_WITH_UNIT (LENGTH_MEASURE( 1.000000000000000082E-05 ), #282, 'distance_accuracy_value', 'NONE');
#278 = SURFACE_STYLE_FILL_AREA ( #216 ) ;
#279 = PRESENTATION_LAYER_ASSIGNMENT (  '', '', ( #36 ) ) ;
#280 = EDGE_CURVE ( 'NONE', #160, #217, #5, .T. ) ;
#281 =( NAMED_UNIT ( * ) SI_UNIT ( $, .STERADIAN. ) SOLID_ANGLE_UNIT ( ) );
#282 =( CONVERSION_BASED_UNIT ( 'INCH', #25 ) LENGTH_UNIT ( ) NAMED_UNIT ( #116 ) );
#283 = EDGE_LOOP ( 'NONE', ( #156, #224, #80, #103 ) ) ;
#284 = AXIS2_PLACEMENT_3D ( 'NONE', #83, #113, #72 ) ;
#285 = CARTESIAN_POINT ( 'NONE',  ( -0.1099999999999996397, 0.0000000000000000000, 2.000000000000000000 ) ) ;
#286 = ORIENTED_EDGE ( 'NONE', *, *, #280, .F. ) ;
#287 = FACE_OUTER_BOUND ( 'NONE', #251, .T. ) ;
#288 = EDGE_CURVE ( 'NONE', #190, #48, #179, .T. ) ;
#289 = DIRECTION ( 'NONE',  ( -1.000000000000000000, 0.0000000000000000000, 1.224646799147353207E-16 ) ) ;
#290 = PRESENTATION_STYLE_ASSIGNMENT (( #204 ) ) ;
#291 = EDGE_LOOP ( 'NONE', ( #198, #196, #214, #33 ) ) ;
#292 = DIRECTION ( 'NONE',  ( 0.0000000000000000000, 0.0000000000000000000, -1.000000000000000000 ) ) ;
#293 = ORIENTED_EDGE ( 'NONE', *, *, #130, .T. ) ;
#294 = AXIS2_PLACEMENT_3D ( 'NONE', #163, #51, #144 ) ;
#295 = CARTESIAN_POINT ( 'NONE',  ( 0.1099999999999996397, 1.347111479062084158E-17, 2.000000000000000000 ) ) ;
#296 = AXIS2_PLACEMENT_3D ( 'NONE', #133, #161, #222 ) ;
#297 = CARTESIAN_POINT ( 'NONE',  ( 0.0000000000000000000, 0.0000000000000000000, 1.984999999999999432 ) ) ;
#298 = CLOSED_SHELL ( 'NONE', ( #69, #20, #169, #154, #98, #40, #17, #117, #207, #104 ) ) ;
#299 = STYLED_ITEM ( 'NONE', ( #290 ), #42 ) ;
ENDSEC;
END-ISO-10303-21;
