ISO-10303-21;
HEADER;
FILE_DESCRIPTION (( 'STEP AP214' ),
    '1' );
FILE_NAME ('07016.STEP',
    '2023-07-12T13:05:02',
    ( '' ),
    ( '' ),
    'SwSTEP 2.0',
    'SolidWorks 2023',
    '' );
FILE_SCHEMA (( 'AUTOMOTIVE_DESIGN' ));
ENDSEC;

DATA;
#1 = DIRECTION ( 'NONE',  ( 1.000000000000000000, 0.000000000000000000, 0.000000000000000000 ) ) ;
#2 = FACE_OUTER_BOUND ( 'NONE', #138, .T. ) ;
#3 = PRESENTATION_STYLE_ASSIGNMENT (( #289 ) ) ;
#4 = EDGE_CURVE ( 'NONE', #14, #301, #24, .T. ) ;
#5 =( CONVERSION_BASED_UNIT ( 'INCH', #244 ) LENGTH_UNIT ( ) NAMED_UNIT ( #252 ) );
#6 = PRESENTATION_STYLE_ASSIGNMENT (( #242 ) ) ;
#7 = ORIENTED_EDGE ( 'NONE', *, *, #155, .F. ) ;
#8 = CARTESIAN_POINT ( 'NONE',  ( 0.000000000000000000, 0.000000000000000000, 0.000000000000000000 ) ) ;
#9 =( GEOMETRIC_REPRESENTATION_CONTEXT ( 3 ) GLOBAL_UNCERTAINTY_ASSIGNED_CONTEXT ( ( #133 ) ) GLOBAL_UNIT_ASSIGNED_CONTEXT ( ( #42, #204, #180 ) ) REPRESENTATION_CONTEXT ( 'NONE', 'WORKASPACE' ) );
#10 = CARTESIAN_POINT ( 'NONE',  ( 0.1875000000000000555, 0.08804591605141746935, 2.296212748401287109E-17 ) ) ;
#11 = FILL_AREA_STYLE_COLOUR ( '', #79 ) ;
#12 = ADVANCED_FACE ( 'NONE', ( #46 ), #41, .T. ) ;
#13 = EDGE_LOOP ( 'NONE', ( #254, #218, #246, #184 ) ) ;
#14 = VERTEX_POINT ( 'NONE', #280 ) ;
#15 = PRESENTATION_LAYER_ASSIGNMENT (  '', '', ( #285 ) ) ;
#16 = STYLED_ITEM ( 'NONE', ( #6 ), #86 ) ;
#17 = DIRECTION ( 'NONE',  ( -9.849421924348929787E-17, 1.000000000000000000, -0.000000000000000000 ) ) ;
#18 = EDGE_CURVE ( 'NONE', #198, #121, #167, .T. ) ;
#19 = DIRECTION ( 'NONE',  ( -9.849421924348929787E-17, 1.000000000000000000, -0.000000000000000000 ) ) ;
#20 = SURFACE_SIDE_STYLE ('',( #67 ) ) ;
#21 = LINE ( 'NONE', #203, #201 ) ;
#22 =( LENGTH_UNIT ( ) NAMED_UNIT ( * ) SI_UNIT ( $, .METRE. ) );
#23 = CONICAL_SURFACE ( 'NONE', #139, 0.03500000000000000333, 1.047197551196600074 ) ;
#24 = CIRCLE ( 'NONE', #253, 0.1874999999999999445 ) ;
#25 =( NAMED_UNIT ( * ) SI_UNIT ( $, .STERADIAN. ) SOLID_ANGLE_UNIT ( ) );
#26 = SURFACE_STYLE_USAGE ( .BOTH. , #165 ) ;
#27 = DIRECTION ( 'NONE',  ( 1.000000000000000000, 0.000000000000000000, 0.000000000000000000 ) ) ;
#28 = FILL_AREA_STYLE ('',( #183 ) ) ;
#29 = VECTOR ( 'NONE', #17, 39.37007874015748143 ) ;
#30 = DIRECTION ( 'NONE',  ( -1.000000000000000000, 1.646843145670114146E-17, 0.000000000000000000 ) ) ;
#31 = DIRECTION ( 'NONE',  ( 0.000000000000000000, 0.000000000000000000, 1.000000000000000000 ) ) ;
#32 =( GEOMETRIC_REPRESENTATION_CONTEXT ( 3 ) GLOBAL_UNCERTAINTY_ASSIGNED_CONTEXT ( ( #269 ) ) GLOBAL_UNIT_ASSIGNED_CONTEXT ( ( #101, #305, #145 ) ) REPRESENTATION_CONTEXT ( 'NONE', 'WORKASPACE' ) );
#33 = SURFACE_SIDE_STYLE ('',( #54 ) ) ;
#34 = VECTOR ( 'NONE', #19, 39.37007874015748143 ) ;
#35 = EDGE_CURVE ( 'NONE', #143, #121, #230, .T. ) ;
#36 =( LENGTH_UNIT ( ) NAMED_UNIT ( * ) SI_UNIT ( $, .METRE. ) );
#37 = ORIENTED_EDGE ( 'NONE', *, *, #267, .T. ) ;
#38 = EDGE_CURVE ( 'NONE', #121, #198, #142, .T. ) ;
#39 = PRODUCT_DEFINITION_FORMATION_WITH_SPECIFIED_SOURCE ( 'ANY', '', #245, .NOT_KNOWN. ) ;
#40 = LINE ( 'NONE', #219, #29 ) ;
#41 = CYLINDRICAL_SURFACE ( 'NONE', #292, 0.1874999999999998335 ) ;
#42 =( CONVERSION_BASED_UNIT ( 'INCH', #270 ) LENGTH_UNIT ( ) NAMED_UNIT ( #215 ) );
#43 = ORIENTED_EDGE ( 'NONE', *, *, #18, .F. ) ;
#44 = COLOUR_RGB ( '',0.7921568627450980005, 0.8196078431372548767, 0.9333333333333333481 ) ;
#45 = DIRECTION ( 'NONE',  ( 1.000000000000000000, -1.646843145670113838E-17, 0.000000000000000000 ) ) ;
#46 = FACE_OUTER_BOUND ( 'NONE', #161, .T. ) ;
#47 = EDGE_CURVE ( 'NONE', #225, #14, #256, .T. ) ;
#48 = CARTESIAN_POINT ( 'NONE',  ( -0.1874999999999993894, 0.08804591605141756649, 0.000000000000000000 ) ) ;
#49 = ORIENTED_EDGE ( 'NONE', *, *, #123, .T. ) ;
#50 = SURFACE_STYLE_FILL_AREA ( #104 ) ;
#51 = DIRECTION ( 'NONE',  ( -1.000000000000000000, -9.849421924348929787E-17, 0.000000000000000000 ) ) ;
#52 = EDGE_CURVE ( 'NONE', #63, #198, #21, .T. ) ;
#53 = LENGTH_MEASURE_WITH_UNIT ( LENGTH_MEASURE( 0.02539999999999999897 ), #263 );
#54 = SURFACE_STYLE_FILL_AREA ( #124 ) ;
#55 = UNCERTAINTY_MEASURE_WITH_UNIT (LENGTH_MEASURE( 1.000000000000000082E-05 ), #189, 'distance_accuracy_value', 'NONE');
#56 = FILL_AREA_STYLE ('',( #149 ) ) ;
#57 = DIMENSIONAL_EXPONENTS ( 1.000000000000000000, 0.000000000000000000, 0.000000000000000000, 0.000000000000000000, 0.000000000000000000, 0.000000000000000000, 0.000000000000000000 ) ;
#58 = PLANE ( 'NONE',  #91 ) ;
#59 = PLANE ( 'NONE',  #221 ) ;
#60 =( NAMED_UNIT ( * ) PLANE_ANGLE_UNIT ( ) SI_UNIT ( $, .RADIAN. ) );
#61 = AXIS2_PLACEMENT_3D ( 'NONE', #283, #288, #122 ) ;
#62 = CARTESIAN_POINT ( 'NONE',  ( 0.03500000000000000333, 0.000000000000000000, 1.362419564051430508E-17 ) ) ;
#63 = VERTEX_POINT ( 'NONE', #95 ) ;
#64 = ORIENTED_EDGE ( 'NONE', *, *, #47, .T. ) ;
#65 = FILL_AREA_STYLE ('',( #11 ) ) ;
#66 = DIRECTION ( 'NONE',  ( 0.8660254037844397068, 0.4999999999999979461, 1.060575238724908024E-16 ) ) ;
#67 = SURFACE_STYLE_FILL_AREA ( #229 ) ;
#68 = DIRECTION ( 'NONE',  ( -9.849421924348929787E-17, 1.000000000000000000, -0.000000000000000000 ) ) ;
#69 = ORIENTED_EDGE ( 'NONE', *, *, #18, .T. ) ;
#70 =( LENGTH_UNIT ( ) NAMED_UNIT ( * ) SI_UNIT ( $, .METRE. ) );
#71 = CIRCLE ( 'NONE', #249, 0.03500000000000000333 ) ;
#72 = COLOUR_RGB ( '',1.000000000000000000, 0.000000000000000000, 0.000000000000000000 ) ;
#73 = CARTESIAN_POINT ( 'NONE',  ( 2.987958743070287834E-16, 0.08804591605141745547, 0.000000000000000000 ) ) ;
#74 =( LENGTH_UNIT ( ) NAMED_UNIT ( * ) SI_UNIT ( $, .METRE. ) );
#75 = EDGE_CURVE ( 'NONE', #63, #143, #71, .T. ) ;
#76 = DIRECTION ( 'NONE',  ( -1.000000000000000000, -9.106159978880892186E-17, 0.000000000000000000 ) ) ;
#77 = PRESENTATION_LAYER_ASSIGNMENT (  '', '', ( #241 ) ) ;
#78 = FACE_OUTER_BOUND ( 'NONE', #13, .T. ) ;
#79 = COLOUR_RGB ( '',1.000000000000000000, 0.000000000000000000, 0.000000000000000000 ) ;
#80 = CARTESIAN_POINT ( 'NONE',  ( 6.123233995736772199E-17, 2.500000000000000000, 0.000000000000000000 ) ) ;
#81 = ADVANCED_FACE ( 'NONE', ( #140 ), #156, .T. ) ;
#82 = APPLICATION_PROTOCOL_DEFINITION ( 'draft international standard', 'automotive_design', 1998, #94 ) ;
#83 = CARTESIAN_POINT ( 'NONE',  ( 4.746161606271114980E-36, 2.881975504922699737E-19, 0.000000000000000000 ) ) ;
#84 = DIMENSIONAL_EXPONENTS ( 1.000000000000000000, 0.000000000000000000, 0.000000000000000000, 0.000000000000000000, 0.000000000000000000, 0.000000000000000000, 0.000000000000000000 ) ;
#85 =( NAMED_UNIT ( * ) PLANE_ANGLE_UNIT ( ) SI_UNIT ( $, .RADIAN. ) );
#86 = ADVANCED_FACE ( 'NONE', ( #266 ), #131, .T. ) ;
#87 = DIMENSIONAL_EXPONENTS ( 1.000000000000000000, 0.000000000000000000, 0.000000000000000000, 0.000000000000000000, 0.000000000000000000, 0.000000000000000000, 0.000000000000000000 ) ;
#88 = ORIENTED_EDGE ( 'NONE', *, *, #4, .F. ) ;
#89 = LENGTH_MEASURE_WITH_UNIT ( LENGTH_MEASURE( 0.02539999999999999897 ), #36 );
#90 = SURFACE_STYLE_FILL_AREA ( #65 ) ;
#91 = AXIS2_PLACEMENT_3D ( 'NONE', #83, #274, #177 ) ;
#92 = DIRECTION ( 'NONE',  ( -9.849421924348929787E-17, 1.000000000000000000, -0.000000000000000000 ) ) ;
#93 = STYLED_ITEM ( 'NONE', ( #168 ), #239 ) ;
#94 = APPLICATION_CONTEXT ( 'automotive_design' ) ;
#95 = CARTESIAN_POINT ( 'NONE',  ( -0.03500000000000000333, 1.152790201969079895E-18, 0.000000000000000000 ) ) ;
#96 =( NAMED_UNIT ( * ) PLANE_ANGLE_UNIT ( ) SI_UNIT ( $, .RADIAN. ) );
#97 = ORIENTED_EDGE ( 'NONE', *, *, #35, .F. ) ;
#98 = MECHANICAL_DESIGN_GEOMETRIC_PRESENTATION_REPRESENTATION (  '', ( #16 ), #235 ) ;
#99 = DIRECTION ( 'NONE',  ( -9.849421924348929787E-17, 1.000000000000000000, -0.000000000000000000 ) ) ;
#100 =( NAMED_UNIT ( * ) PLANE_ANGLE_UNIT ( ) SI_UNIT ( $, .RADIAN. ) );
#101 =( CONVERSION_BASED_UNIT ( 'INCH', #307 ) LENGTH_UNIT ( ) NAMED_UNIT ( #87 ) );
#102 = AXIS2_PLACEMENT_3D ( 'NONE', #265, #68, #76 ) ;
#103 = UNCERTAINTY_MEASURE_WITH_UNIT (LENGTH_MEASURE( 1.000000000000000082E-05 ), #297, 'distance_accuracy_value', 'NONE');
#104 = FILL_AREA_STYLE ('',( #106 ) ) ;
#105 = APPLICATION_CONTEXT ( 'automotive_design' ) ;
#106 = FILL_AREA_STYLE_COLOUR ( '', #174 ) ;
#107 = DIRECTION ( 'NONE',  ( -1.000000000000000000, 0.000000000000000000, 0.000000000000000000 ) ) ;
#108 = APPLICATION_PROTOCOL_DEFINITION ( 'draft international standard', 'automotive_design', 1998, #105 ) ;
#109 = EDGE_LOOP ( 'NONE', ( #173, #224 ) ) ;
#110 = AXIS2_PLACEMENT_3D ( 'NONE', #120, #99, #117 ) ;
#111 = MANIFOLD_SOLID_BREP ( 'Revolve - Tool Body (Tipped Off)', #298 ) ;
#112 = DIRECTION ( 'NONE',  ( 1.000000000000000000, 9.849421924348929787E-17, 0.000000000000000000 ) ) ;
#113 = COLOUR_RGB ( '',1.000000000000000000, 0.000000000000000000, 0.000000000000000000 ) ;
#114 = AXIS2_PLACEMENT_3D ( 'NONE', #193, #248, #214 ) ;
#115 = CARTESIAN_POINT ( 'NONE',  ( 1.449978133535231439E-18, 0.08804591605141746935, 0.000000000000000000 ) ) ;
#116 =( GEOMETRIC_REPRESENTATION_CONTEXT ( 3 ) GLOBAL_UNCERTAINTY_ASSIGNED_CONTEXT ( ( #103 ) ) GLOBAL_UNIT_ASSIGNED_CONTEXT ( ( #297, #85, #231 ) ) REPRESENTATION_CONTEXT ( 'NONE', 'WORKASPACE' ) );
#117 = DIRECTION ( 'NONE',  ( -1.000000000000000000, 0.000000000000000000, 0.000000000000000000 ) ) ;
#118 = ORIENTED_EDGE ( 'NONE', *, *, #4, .T. ) ;
#119 = EDGE_LOOP ( 'NONE', ( #97, #275, #136, #69 ) ) ;
#120 = CARTESIAN_POINT ( 'NONE',  ( 6.123233995736772199E-17, 2.500000000000000000, 0.000000000000000000 ) ) ;
#121 = VERTEX_POINT ( 'NONE', #10 ) ;
#122 = DIRECTION ( 'NONE',  ( -1.000000000000000000, -9.106159978880892186E-17, 0.000000000000000000 ) ) ;
#123 = EDGE_CURVE ( 'NONE', #301, #14, #291, .T. ) ;
#124 = FILL_AREA_STYLE ('',( #295 ) ) ;
#125 = DIRECTION ( 'NONE',  ( 1.646843145670114146E-17, 1.000000000000000000, 0.000000000000000000 ) ) ;
#126 = CARTESIAN_POINT ( 'NONE',  ( 1.449978133535231054E-18, 0.08804591605141745547, 0.000000000000000000 ) ) ;
#127 = SHAPE_DEFINITION_REPRESENTATION ( #150, #164 ) ;
#128 = ADVANCED_FACE ( 'NONE', ( #222 ), #279, .F. ) ;
#129 = PRESENTATION_LAYER_ASSIGNMENT (  '', '', ( #199 ) ) ;
#130 =( LENGTH_UNIT ( ) NAMED_UNIT ( * ) SI_UNIT ( $, .METRE. ) );
#131 = PLANE ( 'NONE',  #175 ) ;
#132 = ORIENTED_EDGE ( 'NONE', *, *, #155, .T. ) ;
#133 = UNCERTAINTY_MEASURE_WITH_UNIT (LENGTH_MEASURE( 1.000000000000000082E-05 ), #42, 'distance_accuracy_value', 'NONE');
#134 = ORIENTED_EDGE ( 'NONE', *, *, #123, .F. ) ;
#135 = CARTESIAN_POINT ( 'NONE',  ( 1.449978133535231439E-18, 0.08804591605141746935, 0.000000000000000000 ) ) ;
#136 = ORIENTED_EDGE ( 'NONE', *, *, #52, .T. ) ;
#137 = CARTESIAN_POINT ( 'NONE',  ( -0.1875000000000000555, 0.08804591605141746935, 0.000000000000000000 ) ) ;
#138 = EDGE_LOOP ( 'NONE', ( #7, #158, #64, #134 ) ) ;
#139 = AXIS2_PLACEMENT_3D ( 'NONE', #259, #125, #213 ) ;
#140 = FACE_OUTER_BOUND ( 'NONE', #119, .T. ) ;
#141 = CYLINDRICAL_SURFACE ( 'NONE', #110, 0.1874999999999998335 ) ;
#142 = CIRCLE ( 'NONE', #217, 0.1875000000000000278 ) ;
#143 = VERTEX_POINT ( 'NONE', #62 ) ;
#144 = ADVANCED_FACE ( 'NONE', ( #281 ), #58, .T. ) ;
#145 =( NAMED_UNIT ( * ) SI_UNIT ( $, .STERADIAN. ) SOLID_ANGLE_UNIT ( ) );
#146 = SURFACE_STYLE_FILL_AREA ( #56 ) ;
#147 =( LENGTH_UNIT ( ) NAMED_UNIT ( * ) SI_UNIT ( $, .METRE. ) );
#148 = STYLED_ITEM ( 'NONE', ( #286 ), #111 ) ;
#149 = FILL_AREA_STYLE_COLOUR ( '', #113 ) ;
#150 = PRODUCT_DEFINITION_SHAPE ( 'NONE', 'NONE',  #195 ) ;
#151 = DIRECTION ( 'NONE',  ( -9.849421924348929787E-17, 1.000000000000000000, 0.000000000000000000 ) ) ;
#152 = SURFACE_SIDE_STYLE ('',( #146 ) ) ;
#153 =( NAMED_UNIT ( * ) SI_UNIT ( $, .STERADIAN. ) SOLID_ANGLE_UNIT ( ) );
#154 = PRODUCT_DEFINITION_CONTEXT ( 'detailed design', #105, 'design' ) ;
#155 = EDGE_CURVE ( 'NONE', #251, #301, #40, .T. ) ;
#156 = CONICAL_SURFACE ( 'NONE', #114, 0.03500000000000000333, 1.047197551196600074 ) ;
#157 = SURFACE_STYLE_USAGE ( .BOTH. , #20 ) ;
#158 = ORIENTED_EDGE ( 'NONE', *, *, #257, .T. ) ;
#159 = CIRCLE ( 'NONE', #61, 0.1874999999999996947 ) ;
#160 = CARTESIAN_POINT ( 'NONE',  ( 6.123233995736772199E-17, 2.500000000000000000, 0.000000000000000000 ) ) ;
#161 = EDGE_LOOP ( 'NONE', ( #37, #132, #88, #308 ) ) ;
#162 = SURFACE_STYLE_USAGE ( .BOTH. , #176 ) ;
#163 = DIRECTION ( 'NONE',  ( -1.646843145670114146E-17, -1.000000000000000000, -0.000000000000000000 ) ) ;
#164 = ADVANCED_BREP_SHAPE_REPRESENTATION ( '07016', ( #207, #111, #284 ), #187 ) ;
#165 = SURFACE_SIDE_STYLE ('',( #243 ) ) ;
#166 = DIRECTION ( 'NONE',  ( -1.000000000000000000, 0.000000000000000000, 0.000000000000000000 ) ) ;
#167 = CIRCLE ( 'NONE', #190, 0.1875000000000000278 ) ;
#168 = PRESENTATION_STYLE_ASSIGNMENT (( #26 ) ) ;
#169 =( CONVERSION_BASED_UNIT ( 'INCH', #89 ) LENGTH_UNIT ( ) NAMED_UNIT ( #57 ) );
#170 = AXIS2_PLACEMENT_3D ( 'NONE', #186, #212, #45 ) ;
#171 =( NAMED_UNIT ( * ) PLANE_ANGLE_UNIT ( ) SI_UNIT ( $, .RADIAN. ) );
#172 =( NAMED_UNIT ( * ) SI_UNIT ( $, .STERADIAN. ) SOLID_ANGLE_UNIT ( ) );
#173 = ORIENTED_EDGE ( 'NONE', *, *, #75, .T. ) ;
#174 = COLOUR_RGB ( '',0.7921568627450980005, 0.8196078431372548767, 0.9333333333333333481 ) ;
#175 = AXIS2_PLACEMENT_3D ( 'NONE', #126, #293, #30 ) ;
#176 = SURFACE_SIDE_STYLE ('',( #90 ) ) ;
#177 = DIRECTION ( 'NONE',  ( 1.000000000000000000, -1.646843145670114146E-17, 0.000000000000000000 ) ) ;
#178 = MECHANICAL_DESIGN_GEOMETRIC_PRESENTATION_REPRESENTATION (  '', ( #199 ), #116 ) ;
#179 = EDGE_LOOP ( 'NONE', ( #43, #200 ) ) ;
#180 =( NAMED_UNIT ( * ) SI_UNIT ( $, .STERADIAN. ) SOLID_ANGLE_UNIT ( ) );
#181 = CLOSED_SHELL ( 'NONE', ( #239, #86, #81, #144 ) ) ;
#182 = CARTESIAN_POINT ( 'NONE',  ( 0.03500000000000000333, 0.000000000000000000, 4.286263797015735979E-18 ) ) ;
#183 = FILL_AREA_STYLE_COLOUR ( '', #205 ) ;
#184 = ORIENTED_EDGE ( 'NONE', *, *, #52, .F. ) ;
#185 = UNCERTAINTY_MEASURE_WITH_UNIT (LENGTH_MEASURE( 1.000000000000000082E-05 ), #192, 'distance_accuracy_value', 'NONE');
#186 = CARTESIAN_POINT ( 'NONE',  ( 9.492323212542229959E-36, 5.763951009845399473E-19, 0.000000000000000000 ) ) ;
#187 =( GEOMETRIC_REPRESENTATION_CONTEXT ( 3 ) GLOBAL_UNCERTAINTY_ASSIGNED_CONTEXT ( ( #55 ) ) GLOBAL_UNIT_ASSIGNED_CONTEXT ( ( #189, #60, #296 ) ) REPRESENTATION_CONTEXT ( 'NONE', 'WORKASPACE' ) );
#188 = CARTESIAN_POINT ( 'NONE',  ( 6.123233995736772199E-17, 2.500000000000000000, 0.000000000000000000 ) ) ;
#189 =( CONVERSION_BASED_UNIT ( 'INCH', #309 ) LENGTH_UNIT ( ) NAMED_UNIT ( #273 ) );
#190 = AXIS2_PLACEMENT_3D ( 'NONE', #135, #261, #27 ) ;
#191 = PRESENTATION_LAYER_ASSIGNMENT (  '', '', ( #16 ) ) ;
#192 =( CONVERSION_BASED_UNIT ( 'INCH', #53 ) LENGTH_UNIT ( ) NAMED_UNIT ( #84 ) );
#193 = CARTESIAN_POINT ( 'NONE',  ( 9.492323212542229959E-36, 5.763951009845399473E-19, 0.000000000000000000 ) ) ;
#194 = UNCERTAINTY_MEASURE_WITH_UNIT (LENGTH_MEASURE( 1.000000000000000082E-05 ), #5, 'distance_accuracy_value', 'NONE');
#195 = PRODUCT_DEFINITION ( 'UNKNOWN', '', #39, #154 ) ;
#196 = DIRECTION ( 'NONE',  ( 9.849421924348929787E-17, -1.000000000000000000, 0.000000000000000000 ) ) ;
#197 = PRODUCT_CONTEXT ( 'NONE', #94, 'mechanical' ) ;
#198 = VERTEX_POINT ( 'NONE', #137 ) ;
#199 = STYLED_ITEM ( 'NONE', ( #255 ), #144 ) ;
#200 = ORIENTED_EDGE ( 'NONE', *, *, #38, .F. ) ;
#201 = VECTOR ( 'NONE', #302, 39.37007874015748854 ) ;
#202 = CARTESIAN_POINT ( 'NONE',  ( 0.1875000000000000278, 2.500000000000000000, 0.000000000000000000 ) ) ;
#203 = CARTESIAN_POINT ( 'NONE',  ( -0.03500000000000000333, 1.152790201969079895E-18, 0.000000000000000000 ) ) ;
#204 =( NAMED_UNIT ( * ) PLANE_ANGLE_UNIT ( ) SI_UNIT ( $, .RADIAN. ) );
#205 = COLOUR_RGB ( '',1.000000000000000000, 0.000000000000000000, 0.000000000000000000 ) ;
#206 = ORIENTED_EDGE ( 'NONE', *, *, #257, .F. ) ;
#207 = MANIFOLD_SOLID_BREP ( 'Revolve - Cutting Edge', #181 ) ;
#208 = ADVANCED_FACE ( 'NONE', ( #236 ), #59, .F. ) ;
#209 = EDGE_LOOP ( 'NONE', ( #118, #49 ) ) ;
#210 = CARTESIAN_POINT ( 'NONE',  ( 0.1875000000000000278, 2.500000000000000000, 2.296212748401285877E-17 ) ) ;
#211 = DIRECTION ( 'NONE',  ( -1.646843145670114146E-17, -1.000000000000000000, -0.000000000000000000 ) ) ;
#212 = DIRECTION ( 'NONE',  ( -1.646843145670114146E-17, -1.000000000000000000, -0.000000000000000000 ) ) ;
#213 = DIRECTION ( 'NONE',  ( -1.000000000000000000, 1.646843145670113838E-17, 0.000000000000000000 ) ) ;
#214 = DIRECTION ( 'NONE',  ( -1.000000000000000000, 1.646843145670113838E-17, 0.000000000000000000 ) ) ;
#215 = DIMENSIONAL_EXPONENTS ( 1.000000000000000000, 0.000000000000000000, 0.000000000000000000, 0.000000000000000000, 0.000000000000000000, 0.000000000000000000, 0.000000000000000000 ) ;
#216 = PRESENTATION_LAYER_ASSIGNMENT (  '', '', ( #148 ) ) ;
#217 = AXIS2_PLACEMENT_3D ( 'NONE', #115, #211, #1 ) ;
#218 = ORIENTED_EDGE ( 'NONE', *, *, #35, .T. ) ;
#219 = CARTESIAN_POINT ( 'NONE',  ( 0.1874999999999999167, 2.500000000000000000, 2.296212748401285260E-17 ) ) ;
#220 = MECHANICAL_DESIGN_GEOMETRIC_PRESENTATION_REPRESENTATION (  '', ( #148 ), #9 ) ;
#221 = AXIS2_PLACEMENT_3D ( 'NONE', #73, #151, #51 ) ;
#222 = FACE_OUTER_BOUND ( 'NONE', #209, .T. ) ;
#223 = DIMENSIONAL_EXPONENTS ( 1.000000000000000000, 0.000000000000000000, 0.000000000000000000, 0.000000000000000000, 0.000000000000000000, 0.000000000000000000, 0.000000000000000000 ) ;
#224 = ORIENTED_EDGE ( 'NONE', *, *, #272, .T. ) ;
#225 = VERTEX_POINT ( 'NONE', #48 ) ;
#226 =( GEOMETRIC_REPRESENTATION_CONTEXT ( 3 ) GLOBAL_UNCERTAINTY_ASSIGNED_CONTEXT ( ( #194 ) ) GLOBAL_UNIT_ASSIGNED_CONTEXT ( ( #5, #100, #153 ) ) REPRESENTATION_CONTEXT ( 'NONE', 'WORKASPACE' ) );
#227 = LENGTH_MEASURE_WITH_UNIT ( LENGTH_MEASURE( 0.02539999999999999897 ), #22 );
#228 = CARTESIAN_POINT ( 'NONE',  ( -0.1874999999999997780, 2.500000000000000000, 0.000000000000000000 ) ) ;
#229 = FILL_AREA_STYLE ('',( #277 ) ) ;
#230 = LINE ( 'NONE', #182, #276 ) ;
#231 =( NAMED_UNIT ( * ) SI_UNIT ( $, .STERADIAN. ) SOLID_ANGLE_UNIT ( ) );
#232 = CIRCLE ( 'NONE', #170, 0.03500000000000000333 ) ;
#233 = EDGE_LOOP ( 'NONE', ( #300, #206 ) ) ;
#234 = PRODUCT_RELATED_PRODUCT_CATEGORY ( 'part', '', ( #245 ) ) ;
#235 =( GEOMETRIC_REPRESENTATION_CONTEXT ( 3 ) GLOBAL_UNCERTAINTY_ASSIGNED_CONTEXT ( ( #185 ) ) GLOBAL_UNIT_ASSIGNED_CONTEXT ( ( #192, #171, #172 ) ) REPRESENTATION_CONTEXT ( 'NONE', 'WORKASPACE' ) );
#236 = FACE_OUTER_BOUND ( 'NONE', #233, .T. ) ;
#237 = DIRECTION ( 'NONE',  ( -9.849421924348929787E-17, 1.000000000000000000, -0.000000000000000000 ) ) ;
#238 = CARTESIAN_POINT ( 'NONE',  ( 0.1875000000000000278, 0.08804591605141760813, 2.296212748401285877E-17 ) ) ;
#239 = ADVANCED_FACE ( 'NONE', ( #78 ), #23, .T. ) ;
#240 = SURFACE_SIDE_STYLE ('',( #50 ) ) ;
#241 = STYLED_ITEM ( 'NONE', ( #250 ), #207 ) ;
#242 = SURFACE_STYLE_USAGE ( .BOTH. , #33 ) ;
#243 = SURFACE_STYLE_FILL_AREA ( #28 ) ;
#244 = LENGTH_MEASURE_WITH_UNIT ( LENGTH_MEASURE( 0.02539999999999999897 ), #74 );
#245 = PRODUCT ( '07016', '07016', '', ( #197 ) ) ;
#246 = ORIENTED_EDGE ( 'NONE', *, *, #38, .T. ) ;
#247 = DIRECTION ( 'NONE',  ( 1.000000000000000000, 0.000000000000000000, 0.000000000000000000 ) ) ;
#248 = DIRECTION ( 'NONE',  ( 1.646843145670114146E-17, 1.000000000000000000, 0.000000000000000000 ) ) ;
#249 = AXIS2_PLACEMENT_3D ( 'NONE', #282, #163, #258 ) ;
#250 = PRESENTATION_STYLE_ASSIGNMENT (( #157 ) ) ;
#251 = VERTEX_POINT ( 'NONE', #238 ) ;
#252 = DIMENSIONAL_EXPONENTS ( 1.000000000000000000, 0.000000000000000000, 0.000000000000000000, 0.000000000000000000, 0.000000000000000000, 0.000000000000000000, 0.000000000000000000 ) ;
#253 = AXIS2_PLACEMENT_3D ( 'NONE', #188, #92, #166 ) ;
#254 = ORIENTED_EDGE ( 'NONE', *, *, #272, .F. ) ;
#255 = PRESENTATION_STYLE_ASSIGNMENT (( #162 ) ) ;
#256 = LINE ( 'NONE', #228, #34 ) ;
#257 = EDGE_CURVE ( 'NONE', #251, #225, #159, .T. ) ;
#258 = DIRECTION ( 'NONE',  ( 1.000000000000000000, -1.646843145670113838E-17, 0.000000000000000000 ) ) ;
#259 = CARTESIAN_POINT ( 'NONE',  ( 9.492323212542229959E-36, 5.763951009845399473E-19, 0.000000000000000000 ) ) ;
#260 = CIRCLE ( 'NONE', #102, 0.1874999999999996947 ) ;
#261 = DIRECTION ( 'NONE',  ( -1.646843145670114146E-17, -1.000000000000000000, -0.000000000000000000 ) ) ;
#262 = MECHANICAL_DESIGN_GEOMETRIC_PRESENTATION_REPRESENTATION (  '', ( #93 ), #32 ) ;
#263 =( LENGTH_UNIT ( ) NAMED_UNIT ( * ) SI_UNIT ( $, .METRE. ) );
#264 = AXIS2_PLACEMENT_3D ( 'NONE', #80, #304, #107 ) ;
#265 = CARTESIAN_POINT ( 'NONE',  ( 2.987958743070287834E-16, 0.08804591605141759425, 0.000000000000000000 ) ) ;
#266 = FACE_OUTER_BOUND ( 'NONE', #179, .T. ) ;
#267 = EDGE_CURVE ( 'NONE', #225, #251, #260, .T. ) ;
#268 = SURFACE_STYLE_USAGE ( .BOTH. , #240 ) ;
#269 = UNCERTAINTY_MEASURE_WITH_UNIT (LENGTH_MEASURE( 1.000000000000000082E-05 ), #101, 'distance_accuracy_value', 'NONE');
#270 = LENGTH_MEASURE_WITH_UNIT ( LENGTH_MEASURE( 0.02539999999999999897 ), #130 );
#271 = MECHANICAL_DESIGN_GEOMETRIC_PRESENTATION_REPRESENTATION (  '', ( #285 ), #226 ) ;
#272 = EDGE_CURVE ( 'NONE', #143, #63, #232, .T. ) ;
#273 = DIMENSIONAL_EXPONENTS ( 1.000000000000000000, 0.000000000000000000, 0.000000000000000000, 0.000000000000000000, 0.000000000000000000, 0.000000000000000000, 0.000000000000000000 ) ;
#274 = DIRECTION ( 'NONE',  ( -1.646843145670114146E-17, -1.000000000000000000, 0.000000000000000000 ) ) ;
#275 = ORIENTED_EDGE ( 'NONE', *, *, #75, .F. ) ;
#276 = VECTOR ( 'NONE', #66, 39.37007874015748854 ) ;
#277 = FILL_AREA_STYLE_COLOUR ( '', #44 ) ;
#278 = AXIS2_PLACEMENT_3D ( 'NONE', #202, #196, #112 ) ;
#279 = PLANE ( 'NONE',  #278 ) ;
#280 = CARTESIAN_POINT ( 'NONE',  ( -0.1874999999999998890, 2.500000000000000000, 0.000000000000000000 ) ) ;
#281 = FACE_OUTER_BOUND ( 'NONE', #109, .T. ) ;
#282 = CARTESIAN_POINT ( 'NONE',  ( 9.492323212542229959E-36, 5.763951009845399473E-19, 0.000000000000000000 ) ) ;
#283 = CARTESIAN_POINT ( 'NONE',  ( 2.987958743070287834E-16, 0.08804591605141759425, 0.000000000000000000 ) ) ;
#284 = AXIS2_PLACEMENT_3D ( 'NONE', #8, #31, #247 ) ;
#285 = STYLED_ITEM ( 'NONE', ( #3 ), #81 ) ;
#286 = PRESENTATION_STYLE_ASSIGNMENT (( #268 ) ) ;
#287 = ADVANCED_FACE ( 'NONE', ( #2 ), #141, .T. ) ;
#288 = DIRECTION ( 'NONE',  ( -9.849421924348929787E-17, 1.000000000000000000, -0.000000000000000000 ) ) ;
#289 = SURFACE_STYLE_USAGE ( .BOTH. , #152 ) ;
#290 =( GEOMETRIC_REPRESENTATION_CONTEXT ( 3 ) GLOBAL_UNCERTAINTY_ASSIGNED_CONTEXT ( ( #294 ) ) GLOBAL_UNIT_ASSIGNED_CONTEXT ( ( #169, #96, #25 ) ) REPRESENTATION_CONTEXT ( 'NONE', 'WORKASPACE' ) );
#291 = CIRCLE ( 'NONE', #264, 0.1874999999999999445 ) ;
#292 = AXIS2_PLACEMENT_3D ( 'NONE', #160, #237, #306 ) ;
#293 = DIRECTION ( 'NONE',  ( 1.646843145670114146E-17, 1.000000000000000000, 0.000000000000000000 ) ) ;
#294 = UNCERTAINTY_MEASURE_WITH_UNIT (LENGTH_MEASURE( 1.000000000000000082E-05 ), #169, 'distance_accuracy_value', 'NONE');
#295 = FILL_AREA_STYLE_COLOUR ( '', #72 ) ;
#296 =( NAMED_UNIT ( * ) SI_UNIT ( $, .STERADIAN. ) SOLID_ANGLE_UNIT ( ) );
#297 =( CONVERSION_BASED_UNIT ( 'INCH', #227 ) LENGTH_UNIT ( ) NAMED_UNIT ( #223 ) );
#298 = CLOSED_SHELL ( 'NONE', ( #12, #208, #287, #128 ) ) ;
#299 = MECHANICAL_DESIGN_GEOMETRIC_PRESENTATION_REPRESENTATION (  '', ( #241 ), #290 ) ;
#300 = ORIENTED_EDGE ( 'NONE', *, *, #267, .F. ) ;
#301 = VERTEX_POINT ( 'NONE', #210 ) ;
#302 = DIRECTION ( 'NONE',  ( -0.8660254037844397068, 0.4999999999999979461, 0.000000000000000000 ) ) ;
#303 = PRESENTATION_LAYER_ASSIGNMENT (  '', '', ( #93 ) ) ;
#304 = DIRECTION ( 'NONE',  ( -9.849421924348929787E-17, 1.000000000000000000, -0.000000000000000000 ) ) ;
#305 =( NAMED_UNIT ( * ) PLANE_ANGLE_UNIT ( ) SI_UNIT ( $, .RADIAN. ) );
#306 = DIRECTION ( 'NONE',  ( -1.000000000000000000, 0.000000000000000000, 0.000000000000000000 ) ) ;
#307 = LENGTH_MEASURE_WITH_UNIT ( LENGTH_MEASURE( 0.02539999999999999897 ), #147 );
#308 = ORIENTED_EDGE ( 'NONE', *, *, #47, .F. ) ;
#309 = LENGTH_MEASURE_WITH_UNIT ( LENGTH_MEASURE( 0.02539999999999999897 ), #70 );
ENDSEC;
END-ISO-10303-21;
