ISO-10303-21;
HEADER;
FILE_DESCRIPTION (( 'STEP AP214' ),
    '1' );
FILE_NAME ('Micro_EMS-437-2.STEP',
    '2021-09-01T17:57:36',
    ( '' ),
    ( '' ),
    'SwSTEP 2.0',
    'SolidWorks 2020',
    '' );
FILE_SCHEMA (( 'AUTOMOTIVE_DESIGN' ));
ENDSEC;

DATA;
#1 = SURFACE_SIDE_STYLE ('',( #228 ) ) ;
#2 = MECHANICAL_DESIGN_GEOMETRIC_PRESENTATION_REPRESENTATION (  '', ( #136 ), #71 ) ;
#3 = LINE ( 'NONE', #258, #291 ) ;
#4 = DIRECTION ( 'NONE',  ( -0.0000000000000000000, -0.0000000000000000000, -1.000000000000000000 ) ) ;
#5 = DIRECTION ( 'NONE',  ( -1.000000000000000000, 0.0000000000000000000, 0.0000000000000000000 ) ) ;
#6 = CONICAL_SURFACE ( 'NONE', #231, 0.2037499999999991263, 0.7853981633974688181 ) ;
#7 = AXIS2_PLACEMENT_3D ( 'NONE', #34, #184, #126 ) ;
#8 = DIRECTION ( 'NONE',  ( -0.1736481776669311916, 2.126576849575783316E-17, 0.9848077530122080203 ) ) ;
#9 = CARTESIAN_POINT ( 'NONE',  ( 0.2185312500000001490, 0.0000000000000000000, 1.000000000000000000 ) ) ;
#10 = DIRECTION ( 'NONE',  ( 0.0000000000000000000, 0.0000000000000000000, 1.000000000000000000 ) ) ;
#11 = CONICAL_SURFACE ( 'NONE', #187, 0.2037499999999991263, 0.7853981633974688181 ) ;
#12 = VECTOR ( 'NONE', #250, 39.37007874015748143 ) ;
#13 = ORIENTED_EDGE ( 'NONE', *, *, #269, .T. ) ;
#14 = SURFACE_SIDE_STYLE ('',( #222 ) ) ;
#15 = AXIS2_PLACEMENT_3D ( 'NONE', #124, #30, #5 ) ;
#16 = ORIENTED_EDGE ( 'NONE', *, *, #274, .F. ) ;
#17 = ADVANCED_FACE ( 'NONE', ( #119 ), #25, .T. ) ;
#18 =( LENGTH_UNIT ( ) NAMED_UNIT ( * ) SI_UNIT ( $, .METRE. ) );
#19 = EDGE_LOOP ( 'NONE', ( #60, #193, #224, #202 ) ) ;
#20 = UNCERTAINTY_MEASURE_WITH_UNIT (LENGTH_MEASURE( 1.000000000000000082E-05 ), #89, 'distance_accuracy_value', 'NONE');
#21 = EDGE_LOOP ( 'NONE', ( #172, #197, #216, #255 ) ) ;
#22 = CARTESIAN_POINT ( 'NONE',  ( 1.226166087268984330E-16, 0.0000000000000000000, 1.001240592898041237 ) ) ;
#23 = DIRECTION ( 'NONE',  ( -1.000000000000000000, 0.0000000000000000000, 1.224646799147353207E-16 ) ) ;
#24 = FILL_AREA_STYLE ('',( #230 ) ) ;
#25 = CONICAL_SURFACE ( 'NONE', #93, 0.2185312500000000102, 0.1745329251994338915 ) ;
#26 = VERTEX_POINT ( 'NONE', #66 ) ;
#27 = ADVANCED_FACE ( 'NONE', ( #178 ), #159, .T. ) ;
#28 = VERTEX_POINT ( 'NONE', #205 ) ;
#29 = CARTESIAN_POINT ( 'NONE',  ( 0.0000000000000000000, 0.0000000000000000000, 2.500000000000000000 ) ) ;
#30 = DIRECTION ( 'NONE',  ( -1.224646799147353207E-16, -0.0000000000000000000, -1.000000000000000000 ) ) ;
#31 = CARTESIAN_POINT ( 'NONE',  ( 0.2187500000000000000, 2.678914873134835064E-17, 2.500000000000000000 ) ) ;
#32 = EDGE_CURVE ( 'NONE', #84, #297, #108, .T. ) ;
#33 = CARTESIAN_POINT ( 'NONE',  ( 0.0000000000000000000, 0.0000000000000000000, 2.484999999999999876 ) ) ;
#34 = CARTESIAN_POINT ( 'NONE',  ( 1.224646799147353207E-16, 0.0000000000000000000, 1.000000000000000000 ) ) ;
#35 = DIRECTION ( 'NONE',  ( -1.000000000000000000, 0.0000000000000000000, 0.0000000000000000000 ) ) ;
#36 = VERTEX_POINT ( 'NONE', #137 ) ;
#37 = AXIS2_PLACEMENT_3D ( 'NONE', #256, #118, #180 ) ;
#38 = AXIS2_PLACEMENT_3D ( 'NONE', #267, #81, #270 ) ;
#39 = DIRECTION ( 'NONE',  ( 0.0000000000000000000, 0.0000000000000000000, 1.000000000000000000 ) ) ;
#40 = VERTEX_POINT ( 'NONE', #116 ) ;
#41 = SURFACE_STYLE_USAGE ( .BOTH. , #14 ) ;
#42 = DIRECTION ( 'NONE',  ( 1.000000000000000000, 0.0000000000000000000, 0.0000000000000000000 ) ) ;
#43 = MECHANICAL_DESIGN_GEOMETRIC_PRESENTATION_REPRESENTATION (  '', ( #281 ), #183 ) ;
#44 = FACE_OUTER_BOUND ( 'NONE', #217, .T. ) ;
#45 = MANIFOLD_SOLID_BREP ( 'Cut-Revolve1', #80 ) ;
#46 = PRESENTATION_STYLE_ASSIGNMENT (( #201 ) ) ;
#47 = LENGTH_MEASURE_WITH_UNIT ( LENGTH_MEASURE( 0.02539999999999999897 ), #206 );
#48 = CIRCLE ( 'NONE', #226, 0.2187500000000000000 ) ;
#49 =( NAMED_UNIT ( * ) SI_UNIT ( $, .STERADIAN. ) SOLID_ANGLE_UNIT ( ) );
#50 = DIRECTION ( 'NONE',  ( -1.000000000000000000, 0.0000000000000000000, 0.0000000000000000000 ) ) ;
#51 = DIRECTION ( 'NONE',  ( -1.224646799147353207E-16, -0.0000000000000000000, -1.000000000000000000 ) ) ;
#52 = DIRECTION ( 'NONE',  ( -1.000000000000000000, 0.0000000000000000000, 0.0000000000000000000 ) ) ;
#53 = CIRCLE ( 'NONE', #219, 0.2187500000000000000 ) ;
#54 = LINE ( 'NONE', #125, #135 ) ;
#55 = DIRECTION ( 'NONE',  ( 1.000000000000000000, 0.0000000000000000000, 0.0000000000000000000 ) ) ;
#56 = LENGTH_MEASURE_WITH_UNIT ( LENGTH_MEASURE( 0.02539999999999999897 ), #18 );
#57 = ORIENTED_EDGE ( 'NONE', *, *, #290, .F. ) ;
#58 = CIRCLE ( 'NONE', #254, 0.2187500000000000000 ) ;
#59 = ORIENTED_EDGE ( 'NONE', *, *, #181, .F. ) ;
#60 = ORIENTED_EDGE ( 'NONE', *, *, #98, .T. ) ;
#61 = AXIS2_PLACEMENT_3D ( 'NONE', #143, #51, #264 ) ;
#62 =( LENGTH_UNIT ( ) NAMED_UNIT ( * ) SI_UNIT ( $, .METRE. ) );
#63 = EDGE_LOOP ( 'NONE', ( #246, #268, #153, #114 ) ) ;
#64 = CARTESIAN_POINT ( 'NONE',  ( 0.2187500000000000000, 2.678914873134835064E-17, 2.484999999999999876 ) ) ;
#65 = DIRECTION ( 'NONE',  ( 1.000000000000000000, 0.0000000000000000000, 0.0000000000000000000 ) ) ;
#66 = CARTESIAN_POINT ( 'NONE',  ( -0.2187499999999998612, 0.0000000000000000000, 1.001240592898041237 ) ) ;
#67 = EDGE_CURVE ( 'NONE', #40, #94, #3, .T. ) ;
#68 = EDGE_LOOP ( 'NONE', ( #174, #251, #171, #16 ) ) ;
#69 = VERTEX_POINT ( 'NONE', #64 ) ;
#70 = FACE_OUTER_BOUND ( 'NONE', #19, .T. ) ;
#71 =( GEOMETRIC_REPRESENTATION_CONTEXT ( 3 ) GLOBAL_UNCERTAINTY_ASSIGNED_CONTEXT ( ( #88 ) ) GLOBAL_UNIT_ASSIGNED_CONTEXT ( ( #218, #214, #271 ) ) REPRESENTATION_CONTEXT ( 'NONE', 'WORKASPACE' ) );
#72 = APPLICATION_PROTOCOL_DEFINITION ( 'draft international standard', 'automotive_design', 1998, #277 ) ;
#73 = CARTESIAN_POINT ( 'NONE',  ( 0.2185312500000000102, 2.676235958261700427E-17, -2.676235958261700427E-17 ) ) ;
#74 = APPLICATION_CONTEXT ( 'automotive_design' ) ;
#75 = CARTESIAN_POINT ( 'NONE',  ( -0.2187500000000000000, 0.0000000000000000000, 2.484999999999999876 ) ) ;
#76 = FACE_OUTER_BOUND ( 'NONE', #68, .T. ) ;
#77 = DIRECTION ( 'NONE',  ( 1.000000000000000000, 0.0000000000000000000, 0.0000000000000000000 ) ) ;
#78 = EDGE_CURVE ( 'NONE', #26, #154, #58, .T. ) ;
#79 = CARTESIAN_POINT ( 'NONE',  ( 0.0000000000000000000, 0.0000000000000000000, 2.500000000000000000 ) ) ;
#80 = CLOSED_SHELL ( 'NONE', ( #101, #221, #82, #141, #139, #27, #117, #17, #95, #260 ) ) ;
#81 = DIRECTION ( 'NONE',  ( -1.224646799147353207E-16, -0.0000000000000000000, -1.000000000000000000 ) ) ;
#82 = ADVANCED_FACE ( 'NONE', ( #44 ), #11, .T. ) ;
#83 = CARTESIAN_POINT ( 'NONE',  ( 0.2185312500000000102, 2.676235958261700427E-17, 0.0000000000000000000 ) ) ;
#84 = VERTEX_POINT ( 'NONE', #233 ) ;
#85 = CARTESIAN_POINT ( 'NONE',  ( 0.2037499999999991263, 2.495217853262720780E-17, 2.500000000000000000 ) ) ;
#86 = PRODUCT_DEFINITION_CONTEXT ( 'detailed design', #277, 'design' ) ;
#87 = PRODUCT_CONTEXT ( 'NONE', #74, 'mechanical' ) ;
#88 = UNCERTAINTY_MEASURE_WITH_UNIT (LENGTH_MEASURE( 1.000000000000000082E-05 ), #218, 'distance_accuracy_value', 'NONE');
#89 =( CONVERSION_BASED_UNIT ( 'INCH', #47 ) LENGTH_UNIT ( ) NAMED_UNIT ( #133 ) );
#90 = DIRECTION ( 'NONE',  ( -1.224646799147353207E-16, -0.0000000000000000000, -1.000000000000000000 ) ) ;
#91 = SHAPE_DEFINITION_REPRESENTATION ( #229, #284 ) ;
#92 = CARTESIAN_POINT ( 'NONE',  ( 0.0000000000000000000, 0.0000000000000000000, 2.500000000000000000 ) ) ;
#93 = AXIS2_PLACEMENT_3D ( 'NONE', #160, #257, #42 ) ;
#94 = VERTEX_POINT ( 'NONE', #75 ) ;
#95 = ADVANCED_FACE ( 'NONE', ( #121 ), #145, .T. ) ;
#96 = DIRECTION ( 'NONE',  ( 0.0000000000000000000, 0.0000000000000000000, -1.000000000000000000 ) ) ;
#97 = LINE ( 'NONE', #9, #248 ) ;
#98 = EDGE_CURVE ( 'NONE', #94, #69, #48, .T. ) ;
#99 = FACE_OUTER_BOUND ( 'NONE', #149, .T. ) ;
#100 = DIRECTION ( 'NONE',  ( -0.0000000000000000000, -0.0000000000000000000, -1.000000000000000000 ) ) ;
#101 = ADVANCED_FACE ( 'NONE', ( #76 ), #236, .T. ) ;
#102 = FACE_OUTER_BOUND ( 'NONE', #21, .T. ) ;
#103 = CIRCLE ( 'NONE', #273, 0.2187500000000000000 ) ;
#104 = CIRCLE ( 'NONE', #292, 0.2185312500000000102 ) ;
#105 = DIRECTION ( 'NONE',  ( 1.000000000000000000, 0.0000000000000000000, 0.0000000000000000000 ) ) ;
#106 = ORIENTED_EDGE ( 'NONE', *, *, #32, .T. ) ;
#107 = CARTESIAN_POINT ( 'NONE',  ( 0.2185312500000001490, 0.0000000000000000000, 1.000000000000000000 ) ) ;
#108 = CIRCLE ( 'NONE', #113, 0.2185312500000000102 ) ;
#109 = CONICAL_SURFACE ( 'NONE', #7, 0.2185312500000000102, 0.1745329251994338915 ) ;
#110 = ORIENTED_EDGE ( 'NONE', *, *, #200, .T. ) ;
#111 = CARTESIAN_POINT ( 'NONE',  ( -0.2185312500000000102, 0.0000000000000000000, 2.676235958261700427E-17 ) ) ;
#112 = PRODUCT_DEFINITION ( 'UNKNOWN', '', #220, #86 ) ;
#113 = AXIS2_PLACEMENT_3D ( 'NONE', #140, #225, #23 ) ;
#114 = ORIENTED_EDGE ( 'NONE', *, *, #210, .T. ) ;
#115 = ORIENTED_EDGE ( 'NONE', *, *, #200, .F. ) ;
#116 = CARTESIAN_POINT ( 'NONE',  ( -0.2037499999999991263, 0.0000000000000000000, 2.500000000000000000 ) ) ;
#117 = ADVANCED_FACE ( 'NONE', ( #102 ), #6, .T. ) ;
#118 = DIRECTION ( 'NONE',  ( 0.0000000000000000000, 0.0000000000000000000, 1.000000000000000000 ) ) ;
#119 = FACE_OUTER_BOUND ( 'NONE', #63, .T. ) ;
#120 = EDGE_CURVE ( 'NONE', #94, #26, #54, .T. ) ;
#121 = FACE_OUTER_BOUND ( 'NONE', #129, .T. ) ;
#122 = COLOUR_RGB ( '',0.7921568627450980005, 0.8196078431372548767, 0.9333333333333333481 ) ;
#123 = LINE ( 'NONE', #209, #166 ) ;
#124 = CARTESIAN_POINT ( 'NONE',  ( 1.224646799147353207E-16, 0.0000000000000000000, 1.000000000000000000 ) ) ;
#125 = CARTESIAN_POINT ( 'NONE',  ( -0.2187500000000000000, 0.0000000000000000000, 2.500000000000000000 ) ) ;
#126 = DIRECTION ( 'NONE',  ( 1.000000000000000000, 0.0000000000000000000, 0.0000000000000000000 ) ) ;
#127 = VECTOR ( 'NONE', #170, 39.37007874015747433 ) ;
#128 =( CONVERSION_BASED_UNIT ( 'INCH', #56 ) LENGTH_UNIT ( ) NAMED_UNIT ( #252 ) );
#129 = EDGE_LOOP ( 'NONE', ( #132, #245, #158, #57 ) ) ;
#130 = ORIENTED_EDGE ( 'NONE', *, *, #78, .T. ) ;
#131 = EDGE_LOOP ( 'NONE', ( #157, #138, #130, #59 ) ) ;
#132 = ORIENTED_EDGE ( 'NONE', *, *, #235, .F. ) ;
#133 = DIMENSIONAL_EXPONENTS ( 1.000000000000000000, 0.0000000000000000000, 0.0000000000000000000, 0.0000000000000000000, 0.0000000000000000000, 0.0000000000000000000, 0.0000000000000000000 ) ;
#134 = ORIENTED_EDGE ( 'NONE', *, *, #98, .F. ) ;
#135 = VECTOR ( 'NONE', #4, 39.37007874015748143 ) ;
#136 = STYLED_ITEM ( 'NONE', ( #289 ), #284 ) ;
#137 = CARTESIAN_POINT ( 'NONE',  ( 0.2037499999999991263, 2.587066363198777614E-17, 2.500000000000000000 ) ) ;
#138 = ORIENTED_EDGE ( 'NONE', *, *, #241, .T. ) ;
#139 = ADVANCED_FACE ( 'NONE', ( #162 ), #279, .T. ) ;
#140 = CARTESIAN_POINT ( 'NONE',  ( 3.277443800048241261E-33, 0.0000000000000000000, 2.676235958261700427E-17 ) ) ;
#141 = ADVANCED_FACE ( 'NONE', ( #70 ), #146, .T. ) ;
#142 = DIRECTION ( 'NONE',  ( -1.000000000000000000, 0.0000000000000000000, 0.0000000000000000000 ) ) ;
#143 = CARTESIAN_POINT ( 'NONE',  ( 0.0000000000000000000, 0.0000000000000000000, 0.0000000000000000000 ) ) ;
#144 = CIRCLE ( 'NONE', #15, 0.2185312500000000102 ) ;
#145 = CYLINDRICAL_SURFACE ( 'NONE', #61, 0.2185312500000000102 ) ;
#146 = CYLINDRICAL_SURFACE ( 'NONE', #263, 0.2187500000000000000 ) ;
#147 = FACE_OUTER_BOUND ( 'NONE', #131, .T. ) ;
#148 = DIRECTION ( 'NONE',  ( -1.224646799147353207E-16, -0.0000000000000000000, -1.000000000000000000 ) ) ;
#149 = EDGE_LOOP ( 'NONE', ( #106, #223 ) ) ;
#150 = CIRCLE ( 'NONE', #38, 0.2185312500000000102 ) ;
#151 = EDGE_CURVE ( 'NONE', #69, #154, #164, .T. ) ;
#152 = LENGTH_MEASURE_WITH_UNIT ( LENGTH_MEASURE( 0.02539999999999999897 ), #62 );
#153 = ORIENTED_EDGE ( 'NONE', *, *, #181, .T. ) ;
#154 = VERTEX_POINT ( 'NONE', #242 ) ;
#155 =( NAMED_UNIT ( * ) SI_UNIT ( $, .STERADIAN. ) SOLID_ANGLE_UNIT ( ) );
#156 = EDGE_LOOP ( 'NONE', ( #13, #110 ) ) ;
#157 = ORIENTED_EDGE ( 'NONE', *, *, #161, .F. ) ;
#158 = ORIENTED_EDGE ( 'NONE', *, *, #274, .T. ) ;
#159 = PLANE ( 'NONE',  #37 ) ;
#160 = CARTESIAN_POINT ( 'NONE',  ( 1.224646799147353207E-16, 0.0000000000000000000, 1.000000000000000000 ) ) ;
#161 = EDGE_CURVE ( 'NONE', #28, #272, #144, .T. ) ;
#162 = FACE_OUTER_BOUND ( 'NONE', #253, .T. ) ;
#163 = DIRECTION ( 'NONE',  ( 1.000000000000000000, 0.0000000000000000000, 0.0000000000000000000 ) ) ;
#164 = LINE ( 'NONE', #31, #276 ) ;
#165 = CIRCLE ( 'NONE', #204, 0.2037499999999991263 ) ;
#166 = VECTOR ( 'NONE', #8, 39.37007874015747433 ) ;
#167 = CARTESIAN_POINT ( 'NONE',  ( 0.0000000000000000000, 0.0000000000000000000, 2.500000000000000000 ) ) ;
#168 = CARTESIAN_POINT ( 'NONE',  ( 1.226166087268984330E-16, 0.0000000000000000000, 1.001240592898041237 ) ) ;
#169 =( NAMED_UNIT ( * ) PLANE_ANGLE_UNIT ( ) SI_UNIT ( $, .RADIAN. ) );
#170 = DIRECTION ( 'NONE',  ( 0.7071067811865621167, 8.659560562355110352E-17, -0.7071067811865330288 ) ) ;
#171 = ORIENTED_EDGE ( 'NONE', *, *, #32, .F. ) ;
#172 = ORIENTED_EDGE ( 'NONE', *, *, #280, .F. ) ;
#173 = PLANE ( 'NONE',  #213 ) ;
#174 = ORIENTED_EDGE ( 'NONE', *, *, #161, .T. ) ;
#175 = PRESENTATION_LAYER_ASSIGNMENT (  '', '', ( #136 ) ) ;
#176 = DIRECTION ( 'NONE',  ( 0.0000000000000000000, 0.0000000000000000000, 1.000000000000000000 ) ) ;
#177 = ORIENTED_EDGE ( 'NONE', *, *, #151, .F. ) ;
#178 = FACE_OUTER_BOUND ( 'NONE', #156, .T. ) ;
#179 = PRESENTATION_LAYER_ASSIGNMENT (  '', '', ( #281 ) ) ;
#180 = DIRECTION ( 'NONE',  ( 1.000000000000000000, 0.0000000000000000000, -0.0000000000000000000 ) ) ;
#181 = EDGE_CURVE ( 'NONE', #272, #154, #97, .T. ) ;
#182 = CARTESIAN_POINT ( 'NONE',  ( 0.0000000000000000000, 0.0000000000000000000, 0.0000000000000000000 ) ) ;
#183 =( GEOMETRIC_REPRESENTATION_CONTEXT ( 3 ) GLOBAL_UNCERTAINTY_ASSIGNED_CONTEXT ( ( #20 ) ) GLOBAL_UNIT_ASSIGNED_CONTEXT ( ( #89, #275, #49 ) ) REPRESENTATION_CONTEXT ( 'NONE', 'WORKASPACE' ) );
#184 = DIRECTION ( 'NONE',  ( 1.224646799147353207E-16, 0.0000000000000000000, 1.000000000000000000 ) ) ;
#185 = CARTESIAN_POINT ( 'NONE',  ( 0.0000000000000000000, 0.0000000000000000000, 2.484999999999999876 ) ) ;
#186 = DIRECTION ( 'NONE',  ( 0.0000000000000000000, 0.0000000000000000000, -1.000000000000000000 ) ) ;
#187 = AXIS2_PLACEMENT_3D ( 'NONE', #92, #96, #142 ) ;
#188 = VECTOR ( 'NONE', #261, 39.37007874015748143 ) ;
#189 = DIRECTION ( 'NONE',  ( 0.0000000000000000000, 0.0000000000000000000, -1.000000000000000000 ) ) ;
#190 = LINE ( 'NONE', #85, #127 ) ;
#191 = EDGE_CURVE ( 'NONE', #69, #94, #53, .T. ) ;
#192 = FILL_AREA_STYLE_COLOUR ( '', #196 ) ;
#193 = ORIENTED_EDGE ( 'NONE', *, *, #151, .T. ) ;
#194 = DIRECTION ( 'NONE',  ( 1.000000000000000000, 0.0000000000000000000, -0.0000000000000000000 ) ) ;
#195 = AXIS2_PLACEMENT_3D ( 'NONE', #259, #287, #50 ) ;
#196 = COLOUR_RGB ( '',0.7921568627450980005, 0.8196078431372548767, 0.9333333333333333481 ) ;
#197 = ORIENTED_EDGE ( 'NONE', *, *, #269, .F. ) ;
#198 = UNCERTAINTY_MEASURE_WITH_UNIT (LENGTH_MEASURE( 1.000000000000000082E-05 ), #128, 'distance_accuracy_value', 'NONE');
#199 = ORIENTED_EDGE ( 'NONE', *, *, #191, .T. ) ;
#200 = EDGE_CURVE ( 'NONE', #36, #40, #165, .T. ) ;
#201 = SURFACE_STYLE_USAGE ( .BOTH. , #1 ) ;
#202 = ORIENTED_EDGE ( 'NONE', *, *, #120, .F. ) ;
#203 = PRODUCT ( 'Micro_EMS-437-2', 'Micro_EMS-437-2', '', ( #87 ) ) ;
#204 = AXIS2_PLACEMENT_3D ( 'NONE', #212, #10, #77 ) ;
#205 = CARTESIAN_POINT ( 'NONE',  ( -0.2185312499999998714, 2.677575415698267899E-17, 1.000000000000000000 ) ) ;
#206 =( LENGTH_UNIT ( ) NAMED_UNIT ( * ) SI_UNIT ( $, .METRE. ) );
#207 = DIRECTION ( 'NONE',  ( -0.0000000000000000000, -0.0000000000000000000, -1.000000000000000000 ) ) ;
#208 = AXIS2_PLACEMENT_3D ( 'NONE', #234, #176, #299 ) ;
#209 = CARTESIAN_POINT ( 'NONE',  ( -0.2185312499999998714, 2.676235958261700427E-17, 1.000000000000000000 ) ) ;
#210 = EDGE_CURVE ( 'NONE', #154, #26, #103, .T. ) ;
#211 = DIRECTION ( 'NONE',  ( -1.000000000000000000, 0.0000000000000000000, 0.0000000000000000000 ) ) ;
#212 = CARTESIAN_POINT ( 'NONE',  ( 0.0000000000000000000, 0.0000000000000000000, 2.500000000000000000 ) ) ;
#213 = AXIS2_PLACEMENT_3D ( 'NONE', #288, #39, #194 ) ;
#214 =( NAMED_UNIT ( * ) PLANE_ANGLE_UNIT ( ) SI_UNIT ( $, .RADIAN. ) );
#215 = DIRECTION ( 'NONE',  ( 0.0000000000000000000, 0.0000000000000000000, 1.000000000000000000 ) ) ;
#216 = ORIENTED_EDGE ( 'NONE', *, *, #67, .T. ) ;
#217 = EDGE_LOOP ( 'NONE', ( #115, #298, #134, #244 ) ) ;
#218 =( CONVERSION_BASED_UNIT ( 'INCH', #152 ) LENGTH_UNIT ( ) NAMED_UNIT ( #227 ) );
#219 = AXIS2_PLACEMENT_3D ( 'NONE', #33, #186, #283 ) ;
#220 = PRODUCT_DEFINITION_FORMATION_WITH_SPECIFIED_SOURCE ( 'ANY', '', #203, .NOT_KNOWN. ) ;
#221 = ADVANCED_FACE ( 'NONE', ( #147 ), #109, .T. ) ;
#222 = SURFACE_STYLE_FILL_AREA ( #295 ) ;
#223 = ORIENTED_EDGE ( 'NONE', *, *, #290, .T. ) ;
#224 = ORIENTED_EDGE ( 'NONE', *, *, #78, .F. ) ;
#225 = DIRECTION ( 'NONE',  ( -1.224646799147353207E-16, -0.0000000000000000000, -1.000000000000000000 ) ) ;
#226 = AXIS2_PLACEMENT_3D ( 'NONE', #185, #239, #163 ) ;
#227 = DIMENSIONAL_EXPONENTS ( 1.000000000000000000, 0.0000000000000000000, 0.0000000000000000000, 0.0000000000000000000, 0.0000000000000000000, 0.0000000000000000000, 0.0000000000000000000 ) ;
#228 = SURFACE_STYLE_FILL_AREA ( #24 ) ;
#229 = PRODUCT_DEFINITION_SHAPE ( 'NONE', 'NONE',  #112 ) ;
#230 = FILL_AREA_STYLE_COLOUR ( '', #122 ) ;
#231 = AXIS2_PLACEMENT_3D ( 'NONE', #167, #189, #211 ) ;
#232 = DIRECTION ( 'NONE',  ( -0.7071067811865621167, 0.0000000000000000000, -0.7071067811865330288 ) ) ;
#233 = CARTESIAN_POINT ( 'NONE',  ( -0.2185312500000000102, 0.0000000000000000000, 5.352471916523400854E-17 ) ) ;
#234 = CARTESIAN_POINT ( 'NONE',  ( 0.0000000000000000000, 0.0000000000000000000, 0.0000000000000000000 ) ) ;
#235 = EDGE_CURVE ( 'NONE', #272, #297, #282, .T. ) ;
#236 = CYLINDRICAL_SURFACE ( 'NONE', #237, 0.2185312500000000102 ) ;
#237 = AXIS2_PLACEMENT_3D ( 'NONE', #182, #262, #285 ) ;
#238 =( GEOMETRIC_REPRESENTATION_CONTEXT ( 3 ) GLOBAL_UNCERTAINTY_ASSIGNED_CONTEXT ( ( #198 ) ) GLOBAL_UNIT_ASSIGNED_CONTEXT ( ( #128, #169, #155 ) ) REPRESENTATION_CONTEXT ( 'NONE', 'WORKASPACE' ) );
#239 = DIRECTION ( 'NONE',  ( 0.0000000000000000000, 0.0000000000000000000, -1.000000000000000000 ) ) ;
#240 = DIRECTION ( 'NONE',  ( 0.1736481776669313859, 0.0000000000000000000, 0.9848077530122077983 ) ) ;
#241 = EDGE_CURVE ( 'NONE', #28, #26, #123, .T. ) ;
#242 = CARTESIAN_POINT ( 'NONE',  ( 0.2187500000000001388, 2.678914873134836913E-17, 1.001240592898041237 ) ) ;
#243 = CARTESIAN_POINT ( 'NONE',  ( 1.224646799147353207E-16, 0.0000000000000000000, 1.000000000000000000 ) ) ;
#244 = ORIENTED_EDGE ( 'NONE', *, *, #67, .F. ) ;
#245 = ORIENTED_EDGE ( 'NONE', *, *, #265, .T. ) ;
#246 = ORIENTED_EDGE ( 'NONE', *, *, #241, .F. ) ;
#247 = LINE ( 'NONE', #111, #12 ) ;
#248 = VECTOR ( 'NONE', #240, 39.37007874015748143 ) ;
#249 = ORIENTED_EDGE ( 'NONE', *, *, #210, .F. ) ;
#250 = DIRECTION ( 'NONE',  ( -1.224646799147353207E-16, -0.0000000000000000000, -1.000000000000000000 ) ) ;
#251 = ORIENTED_EDGE ( 'NONE', *, *, #235, .T. ) ;
#252 = DIMENSIONAL_EXPONENTS ( 1.000000000000000000, 0.0000000000000000000, 0.0000000000000000000, 0.0000000000000000000, 0.0000000000000000000, 0.0000000000000000000, 0.0000000000000000000 ) ;
#253 = EDGE_LOOP ( 'NONE', ( #177, #199, #294, #249 ) ) ;
#254 = AXIS2_PLACEMENT_3D ( 'NONE', #22, #90, #65 ) ;
#255 = ORIENTED_EDGE ( 'NONE', *, *, #191, .F. ) ;
#256 = CARTESIAN_POINT ( 'NONE',  ( 0.0000000000000000000, 0.0000000000000000000, 2.500000000000000000 ) ) ;
#257 = DIRECTION ( 'NONE',  ( 1.224646799147353207E-16, 0.0000000000000000000, 1.000000000000000000 ) ) ;
#258 = CARTESIAN_POINT ( 'NONE',  ( -0.2037499999999991263, 0.0000000000000000000, 2.500000000000000000 ) ) ;
#259 = CARTESIAN_POINT ( 'NONE',  ( 0.0000000000000000000, 0.0000000000000000000, 2.500000000000000000 ) ) ;
#260 = ADVANCED_FACE ( 'NONE', ( #99 ), #173, .F. ) ;
#261 = DIRECTION ( 'NONE',  ( -1.224646799147353207E-16, -0.0000000000000000000, -1.000000000000000000 ) ) ;
#262 = DIRECTION ( 'NONE',  ( -1.224646799147353207E-16, -0.0000000000000000000, -1.000000000000000000 ) ) ;
#263 = AXIS2_PLACEMENT_3D ( 'NONE', #29, #207, #52 ) ;
#264 = DIRECTION ( 'NONE',  ( -1.000000000000000000, 0.0000000000000000000, 1.224646799147353207E-16 ) ) ;
#265 = EDGE_CURVE ( 'NONE', #272, #28, #104, .T. ) ;
#266 = DIRECTION ( 'NONE',  ( -1.224646799147353207E-16, -0.0000000000000000000, -1.000000000000000000 ) ) ;
#267 = CARTESIAN_POINT ( 'NONE',  ( 3.277443800048241261E-33, 0.0000000000000000000, 2.676235958261700427E-17 ) ) ;
#268 = ORIENTED_EDGE ( 'NONE', *, *, #265, .F. ) ;
#269 = EDGE_CURVE ( 'NONE', #40, #36, #286, .T. ) ;
#270 = DIRECTION ( 'NONE',  ( -1.000000000000000000, 0.0000000000000000000, 1.224646799147353207E-16 ) ) ;
#271 =( NAMED_UNIT ( * ) SI_UNIT ( $, .STERADIAN. ) SOLID_ANGLE_UNIT ( ) );
#272 = VERTEX_POINT ( 'NONE', #107 ) ;
#273 = AXIS2_PLACEMENT_3D ( 'NONE', #168, #266, #55 ) ;
#274 = EDGE_CURVE ( 'NONE', #28, #84, #247, .T. ) ;
#275 =( NAMED_UNIT ( * ) PLANE_ANGLE_UNIT ( ) SI_UNIT ( $, .RADIAN. ) );
#276 = VECTOR ( 'NONE', #100, 39.37007874015748143 ) ;
#277 = APPLICATION_CONTEXT ( 'automotive_design' ) ;
#278 = PRODUCT_RELATED_PRODUCT_CATEGORY ( 'part', '', ( #203 ) ) ;
#279 = CYLINDRICAL_SURFACE ( 'NONE', #195, 0.2187500000000000000 ) ;
#280 = EDGE_CURVE ( 'NONE', #36, #69, #190, .T. ) ;
#281 = STYLED_ITEM ( 'NONE', ( #46 ), #45 ) ;
#282 = LINE ( 'NONE', #73, #188 ) ;
#283 = DIRECTION ( 'NONE',  ( 1.000000000000000000, 0.0000000000000000000, 0.0000000000000000000 ) ) ;
#284 = ADVANCED_BREP_SHAPE_REPRESENTATION ( 'Micro_EMS-437-2', ( #45, #208 ), #238 ) ;
#285 = DIRECTION ( 'NONE',  ( -1.000000000000000000, 0.0000000000000000000, 1.224646799147353207E-16 ) ) ;
#286 = CIRCLE ( 'NONE', #296, 0.2037499999999991263 ) ;
#287 = DIRECTION ( 'NONE',  ( -0.0000000000000000000, -0.0000000000000000000, -1.000000000000000000 ) ) ;
#288 = CARTESIAN_POINT ( 'NONE',  ( 0.0000000000000000000, 0.0000000000000000000, 0.0000000000000000000 ) ) ;
#289 = PRESENTATION_STYLE_ASSIGNMENT (( #41 ) ) ;
#290 = EDGE_CURVE ( 'NONE', #297, #84, #150, .T. ) ;
#291 = VECTOR ( 'NONE', #232, 39.37007874015747433 ) ;
#292 = AXIS2_PLACEMENT_3D ( 'NONE', #243, #148, #35 ) ;
#293 = APPLICATION_PROTOCOL_DEFINITION ( 'draft international standard', 'automotive_design', 1998, #74 ) ;
#294 = ORIENTED_EDGE ( 'NONE', *, *, #120, .T. ) ;
#295 = FILL_AREA_STYLE ('',( #192 ) ) ;
#296 = AXIS2_PLACEMENT_3D ( 'NONE', #79, #215, #105 ) ;
#297 = VERTEX_POINT ( 'NONE', #83 ) ;
#298 = ORIENTED_EDGE ( 'NONE', *, *, #280, .T. ) ;
#299 = DIRECTION ( 'NONE',  ( 1.000000000000000000, 0.0000000000000000000, 0.0000000000000000000 ) ) ;
ENDSEC;
END-ISO-10303-21;
