ISO-10303-21;
HEADER;
FILE_DESCRIPTION (( 'STEP AP214' ),
    '1' );
FILE_NAME ('Micro_RME-023-2.STEP',
    '2021-09-01T22:53:11',
    ( '' ),
    ( '' ),
    'SwSTEP 2.0',
    'SolidWorks 2020',
    '' );
FILE_SCHEMA (( 'AUTOMOTIVE_DESIGN' ));
ENDSEC;

DATA;
#1 = EDGE_CURVE ( 'NONE', #8, #117, #193, .T. ) ;
#2 = CONICAL_SURFACE ( 'NONE', #57, 0.01148850000000000218, 0.1745329251994338915 ) ;
#3 = DIRECTION ( 'NONE',  ( -0.0000000000000000000, -0.0000000000000000000, -1.000000000000000000 ) ) ;
#4 = FACE_OUTER_BOUND ( 'NONE', #201, .T. ) ;
#5 = CARTESIAN_POINT ( 'NONE',  ( 8.450062914116739989E-18, 0.0000000000000000000, 0.06900000000000000577 ) ) ;
#6 = FILL_AREA_STYLE ('',( #27 ) ) ;
#7 = AXIS2_PLACEMENT_3D ( 'NONE', #124, #243, #71 ) ;
#8 = VERTEX_POINT ( 'NONE', #255 ) ;
#9 = ORIENTED_EDGE ( 'NONE', *, *, #250, .F. ) ;
#10 = VECTOR ( 'NONE', #256, 39.37007874015748143 ) ;
#11 = AXIS2_PLACEMENT_3D ( 'NONE', #206, #110, #224 ) ;
#12 = DIRECTION ( 'NONE',  ( 0.1736481776669313859, 0.0000000000000000000, 0.9848077530122077983 ) ) ;
#13 = LINE ( 'NONE', #105, #92 ) ;
#14 = DIRECTION ( 'NONE',  ( -1.224646799147353454E-16, -0.0000000000000000000, -1.000000000000000000 ) ) ;
#15 = ORIENTED_EDGE ( 'NONE', *, *, #154, .T. ) ;
#16 = CARTESIAN_POINT ( 'NONE',  ( 0.01148849999999999698, 1.406935475200436630E-18, 0.0000000000000000000 ) ) ;
#17 = CARTESIAN_POINT ( 'NONE',  ( 0.0000000000000000000, 0.0000000000000000000, 1.500000000000000222 ) ) ;
#18 = ORIENTED_EDGE ( 'NONE', *, *, #61, .F. ) ;
#19 = EDGE_CURVE ( 'NONE', #183, #179, #20, .T. ) ;
#20 = LINE ( 'NONE', #287, #10 ) ;
#21 = DIRECTION ( 'NONE',  ( 1.000000000000000000, 0.0000000000000000000, 0.0000000000000000000 ) ) ;
#22 = ADVANCED_FACE ( 'NONE', ( #291 ), #249, .F. ) ;
#23 = VECTOR ( 'NONE', #12, 39.37007874015748143 ) ;
#24 = AXIS2_PLACEMENT_3D ( 'NONE', #26, #148, #194 ) ;
#25 = DIRECTION ( 'NONE',  ( 1.000000000000000000, 0.0000000000000000000, 0.0000000000000000000 ) ) ;
#26 = CARTESIAN_POINT ( 'NONE',  ( 8.450062914116739989E-18, 0.0000000000000000000, 0.06900000000000000577 ) ) ;
#27 = FILL_AREA_STYLE_COLOUR ( '', #205 ) ;
#28 = VERTEX_POINT ( 'NONE', #269 ) ;
#29 = CIRCLE ( 'NONE', #171, 0.04750000000000064587 ) ;
#30 = ORIENTED_EDGE ( 'NONE', *, *, #41, .F. ) ;
#31 = APPLICATION_PROTOCOL_DEFINITION ( 'draft international standard', 'automotive_design', 1998, #132 ) ;
#32 = ORIENTED_EDGE ( 'NONE', *, *, #66, .F. ) ;
#33 =( NAMED_UNIT ( * ) SI_UNIT ( $, .STERADIAN. ) SOLID_ANGLE_UNIT ( ) );
#34 = DIRECTION ( 'NONE',  ( -1.224646799147353454E-16, -0.0000000000000000000, -1.000000000000000000 ) ) ;
#35 = CIRCLE ( 'NONE', #166, 0.04750000000000064587 ) ;
#36 = EDGE_LOOP ( 'NONE', ( #278, #207, #212, #285 ) ) ;
#37 = ORIENTED_EDGE ( 'NONE', *, *, #154, .F. ) ;
#38 = ADVANCED_FACE ( 'NONE', ( #133 ), #142, .T. ) ;
#39 = EDGE_CURVE ( 'NONE', #81, #179, #228, .T. ) ;
#40 = AXIS2_PLACEMENT_3D ( 'NONE', #45, #260, #95 ) ;
#41 = EDGE_CURVE ( 'NONE', #204, #183, #13, .T. ) ;
#42 = DIRECTION ( 'NONE',  ( 0.0000000000000000000, 0.0000000000000000000, 1.000000000000000000 ) ) ;
#43 = ORIENTED_EDGE ( 'NONE', *, *, #41, .T. ) ;
#44 = DIRECTION ( 'NONE',  ( 1.000000000000000000, 0.0000000000000000000, 0.0000000000000000000 ) ) ;
#45 = CARTESIAN_POINT ( 'NONE',  ( 0.0000000000000000000, 0.0000000000000000000, 0.0000000000000000000 ) ) ;
#46 = ADVANCED_FACE ( 'NONE', ( #4 ), #67, .T. ) ;
#47 = CIRCLE ( 'NONE', #129, 0.01148850000000000218 ) ;
#48 = DIRECTION ( 'NONE',  ( 1.000000000000000000, 0.0000000000000000000, 0.0000000000000000000 ) ) ;
#49 =( LENGTH_UNIT ( ) NAMED_UNIT ( * ) SI_UNIT ( $, .METRE. ) );
#50 = PRESENTATION_LAYER_ASSIGNMENT (  '', '', ( #76 ) ) ;
#51 = PRODUCT_DEFINITION_SHAPE ( 'NONE', 'NONE',  #274 ) ;
#52 = APPLICATION_CONTEXT ( 'automotive_design' ) ;
#53 = CARTESIAN_POINT ( 'NONE',  ( 0.0000000000000000000, 0.0000000000000000000, 1.500000000000000222 ) ) ;
#54 = DIRECTION ( 'NONE',  ( -1.224646799147353454E-16, -0.0000000000000000000, -1.000000000000000000 ) ) ;
#55 = CARTESIAN_POINT ( 'NONE',  ( 0.01148850000000001086, 0.0000000000000000000, 0.06900000000000000577 ) ) ;
#56 = CARTESIAN_POINT ( 'NONE',  ( 4.387916737884590977E-17, 0.0000000000000000000, 0.3583005925414273762 ) ) ;
#57 = AXIS2_PLACEMENT_3D ( 'NONE', #93, #240, #25 ) ;
#58 = ORIENTED_EDGE ( 'NONE', *, *, #263, .T. ) ;
#59 = DIRECTION ( 'NONE',  ( 0.0000000000000000000, 0.0000000000000000000, 1.000000000000000000 ) ) ;
#60 = FACE_OUTER_BOUND ( 'NONE', #192, .T. ) ;
#61 = EDGE_CURVE ( 'NONE', #248, #143, #198, .T. ) ;
#62 = VECTOR ( 'NONE', #70, 39.37007874015748854 ) ;
#63 = EDGE_CURVE ( 'NONE', #183, #248, #134, .T. ) ;
#64 = DIRECTION ( 'NONE',  ( -1.224646799147353454E-16, -0.0000000000000000000, -1.000000000000000000 ) ) ;
#65 = ORIENTED_EDGE ( 'NONE', *, *, #172, .T. ) ;
#66 = EDGE_CURVE ( 'NONE', #248, #183, #217, .T. ) ;
#67 = CYLINDRICAL_SURFACE ( 'NONE', #40, 0.01148849999999999871 ) ;
#68 = AXIS2_PLACEMENT_3D ( 'NONE', #241, #238, #125 ) ;
#69 =( CONVERSION_BASED_UNIT ( 'INCH', #280 ) LENGTH_UNIT ( ) NAMED_UNIT ( #235 ) );
#70 = DIRECTION ( 'NONE',  ( -0.7071067811865462405, 0.0000000000000000000, -0.7071067811865486830 ) ) ;
#71 = DIRECTION ( 'NONE',  ( -1.000000000000000000, 0.0000000000000000000, 1.224646799147353454E-16 ) ) ;
#72 = CARTESIAN_POINT ( 'NONE',  ( 0.0000000000000000000, 0.0000000000000000000, 1.485000000000000764 ) ) ;
#73 = DIRECTION ( 'NONE',  ( 0.0000000000000000000, 0.0000000000000000000, -1.000000000000000000 ) ) ;
#74 = ORIENTED_EDGE ( 'NONE', *, *, #250, .T. ) ;
#75 = FACE_OUTER_BOUND ( 'NONE', #87, .T. ) ;
#76 = STYLED_ITEM ( 'NONE', ( #103 ), #115 ) ;
#77 = CARTESIAN_POINT ( 'NONE',  ( 0.0000000000000000000, 0.0000000000000000000, 0.0000000000000000000 ) ) ;
#78 = FACE_OUTER_BOUND ( 'NONE', #157, .T. ) ;
#79 = ORIENTED_EDGE ( 'NONE', *, *, #263, .F. ) ;
#80 = DIRECTION ( 'NONE',  ( -0.1736481776669311916, 2.126576849575783316E-17, 0.9848077530122080203 ) ) ;
#81 = VERTEX_POINT ( 'NONE', #91 ) ;
#82 = CONICAL_SURFACE ( 'NONE', #258, 0.04750000000000064587, 0.7853981633974466137 ) ;
#83 = DIRECTION ( 'NONE',  ( 1.000000000000000000, 0.0000000000000000000, 0.0000000000000000000 ) ) ;
#84 = EDGE_CURVE ( 'NONE', #246, #81, #88, .T. ) ;
#85 = DIRECTION ( 'NONE',  ( 0.0000000000000000000, 0.0000000000000000000, 1.000000000000000000 ) ) ;
#86 = CARTESIAN_POINT ( 'NONE',  ( 0.06250000000000002776, 7.654042494670959086E-18, 1.485000000000000764 ) ) ;
#87 = EDGE_LOOP ( 'NONE', ( #297, #221, #242, #74 ) ) ;
#88 = CIRCLE ( 'NONE', #24, 0.01148850000000000218 ) ;
#89 = ORIENTED_EDGE ( 'NONE', *, *, #296, .F. ) ;
#90 = DIRECTION ( 'NONE',  ( 0.0000000000000000000, 0.0000000000000000000, -1.000000000000000000 ) ) ;
#91 = CARTESIAN_POINT ( 'NONE',  ( 0.01148850000000001086, 0.0000000000000000000, 0.06900000000000000577 ) ) ;
#92 = VECTOR ( 'NONE', #271, 39.37007874015748854 ) ;
#93 = CARTESIAN_POINT ( 'NONE',  ( 8.450062914116739989E-18, 0.0000000000000000000, 0.06900000000000000577 ) ) ;
#94 = EDGE_CURVE ( 'NONE', #28, #248, #173, .T. ) ;
#95 = DIRECTION ( 'NONE',  ( -1.000000000000000000, 0.0000000000000000000, 1.224646799147353454E-16 ) ) ;
#96 = AXIS2_PLACEMENT_3D ( 'NONE', #273, #59, #83 ) ;
#97 = LINE ( 'NONE', #176, #226 ) ;
#98 = ORIENTED_EDGE ( 'NONE', *, *, #94, .T. ) ;
#99 = DIRECTION ( 'NONE',  ( 1.000000000000000000, 0.0000000000000000000, 0.0000000000000000000 ) ) ;
#100 = ADVANCED_FACE ( 'NONE', ( #259 ), #196, .T. ) ;
#101 = AXIS2_PLACEMENT_3D ( 'NONE', #56, #14, #99 ) ;
#102 = EDGE_LOOP ( 'NONE', ( #89, #43, #32, #299 ) ) ;
#103 = PRESENTATION_STYLE_ASSIGNMENT (( #251 ) ) ;
#104 = CARTESIAN_POINT ( 'NONE',  ( -0.01148849999999999351, 1.406935475200436823E-18, 0.06900000000000000577 ) ) ;
#105 = CARTESIAN_POINT ( 'NONE',  ( 0.04750000000000064587, 5.817072295950006528E-18, 1.500000000000000222 ) ) ;
#106 = ADVANCED_FACE ( 'NONE', ( #174 ), #150, .T. ) ;
#107 = EDGE_CURVE ( 'NONE', #143, #179, #276, .T. ) ;
#108 = ORIENTED_EDGE ( 'NONE', *, *, #296, .T. ) ;
#109 = APPLICATION_PROTOCOL_DEFINITION ( 'draft international standard', 'automotive_design', 1998, #52 ) ;
#110 = DIRECTION ( 'NONE',  ( 0.0000000000000000000, 0.0000000000000000000, -1.000000000000000000 ) ) ;
#111 = VECTOR ( 'NONE', #54, 39.37007874015748143 ) ;
#112 = CIRCLE ( 'NONE', #7, 0.01148849999999999698 ) ;
#113 = MANIFOLD_SOLID_BREP ( 'Cut-Revolve1', #290 ) ;
#114 = DIRECTION ( 'NONE',  ( 0.0000000000000000000, 0.0000000000000000000, -1.000000000000000000 ) ) ;
#115 = ADVANCED_BREP_SHAPE_REPRESENTATION ( 'Micro_RME-023-2', ( #113, #96 ), #197 ) ;
#116 = UNCERTAINTY_MEASURE_WITH_UNIT (LENGTH_MEASURE( 1.000000000000000082E-05 ), #69, 'distance_accuracy_value', 'NONE');
#117 = VERTEX_POINT ( 'NONE', #16 ) ;
#118 = COLOUR_RGB ( '',0.7921568627450980005, 0.8196078431372548767, 0.9333333333333333481 ) ;
#119 = PRODUCT_RELATED_PRODUCT_CATEGORY ( 'part', '', ( #266 ) ) ;
#120 = PRODUCT_DEFINITION_CONTEXT ( 'detailed design', #52, 'design' ) ;
#121 = DIRECTION ( 'NONE',  ( 1.000000000000000000, 0.0000000000000000000, 0.0000000000000000000 ) ) ;
#122 = CARTESIAN_POINT ( 'NONE',  ( 0.0000000000000000000, 0.0000000000000000000, 1.485000000000000764 ) ) ;
#123 =( GEOMETRIC_REPRESENTATION_CONTEXT ( 3 ) GLOBAL_UNCERTAINTY_ASSIGNED_CONTEXT ( ( #116 ) ) GLOBAL_UNIT_ASSIGNED_CONTEXT ( ( #69, #239, #182 ) ) REPRESENTATION_CONTEXT ( 'NONE', 'WORKASPACE' ) );
#124 = CARTESIAN_POINT ( 'NONE',  ( 1.722999026311075366E-34, 0.0000000000000000000, 1.406935475200436630E-18 ) ) ;
#125 = DIRECTION ( 'NONE',  ( -1.000000000000000000, 0.0000000000000000000, 0.0000000000000000000 ) ) ;
#126 = CARTESIAN_POINT ( 'NONE',  ( 0.0000000000000000000, 0.0000000000000000000, 1.500000000000000222 ) ) ;
#127 = ORIENTED_EDGE ( 'NONE', *, *, #19, .T. ) ;
#128 = AXIS2_PLACEMENT_3D ( 'NONE', #53, #155, #225 ) ;
#129 = AXIS2_PLACEMENT_3D ( 'NONE', #275, #165, #187 ) ;
#130 = ORIENTED_EDGE ( 'NONE', *, *, #195, .T. ) ;
#131 = DIRECTION ( 'NONE',  ( 1.000000000000000000, 0.0000000000000000000, 0.0000000000000000000 ) ) ;
#132 = APPLICATION_CONTEXT ( 'automotive_design' ) ;
#133 = FACE_OUTER_BOUND ( 'NONE', #191, .T. ) ;
#134 = CIRCLE ( 'NONE', #141, 0.06250000000000002776 ) ;
#135 =( GEOMETRIC_REPRESENTATION_CONTEXT ( 3 ) GLOBAL_UNCERTAINTY_ASSIGNED_CONTEXT ( ( #177 ) ) GLOBAL_UNIT_ASSIGNED_CONTEXT ( ( #229, #158, #295 ) ) REPRESENTATION_CONTEXT ( 'NONE', 'WORKASPACE' ) );
#136 = DIRECTION ( 'NONE',  ( -1.000000000000000000, 0.0000000000000000000, 1.224646799147353454E-16 ) ) ;
#137 = CARTESIAN_POINT ( 'NONE',  ( 1.722999026311075366E-34, 0.0000000000000000000, 1.406935475200436630E-18 ) ) ;
#138 = LENGTH_MEASURE_WITH_UNIT ( LENGTH_MEASURE( 0.02539999999999999897 ), #292 );
#139 = ORIENTED_EDGE ( 'NONE', *, *, #66, .T. ) ;
#140 =( CONVERSION_BASED_UNIT ( 'INCH', #184 ) LENGTH_UNIT ( ) NAMED_UNIT ( #175 ) );
#141 = AXIS2_PLACEMENT_3D ( 'NONE', #122, #90, #215 ) ;
#142 = PLANE ( 'NONE',  #128 ) ;
#143 = VERTEX_POINT ( 'NONE', #160 ) ;
#144 = DIRECTION ( 'NONE',  ( -1.224646799147353454E-16, -0.0000000000000000000, -1.000000000000000000 ) ) ;
#145 = FACE_OUTER_BOUND ( 'NONE', #36, .T. ) ;
#146 = DIRECTION ( 'NONE',  ( -0.0000000000000000000, -0.0000000000000000000, -1.000000000000000000 ) ) ;
#147 = STYLED_ITEM ( 'NONE', ( #283 ), #113 ) ;
#148 = DIRECTION ( 'NONE',  ( -1.224646799147353454E-16, -0.0000000000000000000, -1.000000000000000000 ) ) ;
#149 = ADVANCED_FACE ( 'NONE', ( #60 ), #236, .T. ) ;
#150 = CYLINDRICAL_SURFACE ( 'NONE', #68, 0.06250000000000002776 ) ;
#151 = AXIS2_PLACEMENT_3D ( 'NONE', #77, #42, #268 ) ;
#152 = AXIS2_PLACEMENT_3D ( 'NONE', #5, #222, #44 ) ;
#153 = PRODUCT_CONTEXT ( 'NONE', #132, 'mechanical' ) ;
#154 = EDGE_CURVE ( 'NONE', #28, #204, #35, .T. ) ;
#155 = DIRECTION ( 'NONE',  ( 0.0000000000000000000, 0.0000000000000000000, 1.000000000000000000 ) ) ;
#156 = CYLINDRICAL_SURFACE ( 'NONE', #272, 0.01148849999999999871 ) ;
#157 = EDGE_LOOP ( 'NONE', ( #237, #58, #203, #284 ) ) ;
#158 =( NAMED_UNIT ( * ) PLANE_ANGLE_UNIT ( ) SI_UNIT ( $, .RADIAN. ) );
#159 = MECHANICAL_DESIGN_GEOMETRIC_PRESENTATION_REPRESENTATION (  '', ( #147 ), #123 ) ;
#160 = CARTESIAN_POINT ( 'NONE',  ( -0.06249999999999997918, 0.0000000000000000000, 0.3583005925414273762 ) ) ;
#161 = EDGE_LOOP ( 'NONE', ( #185, #231 ) ) ;
#162 = SURFACE_SIDE_STYLE ('',( #270 ) ) ;
#163 = LINE ( 'NONE', #253, #111 ) ;
#164 = VECTOR ( 'NONE', #146, 39.37007874015748143 ) ;
#165 = DIRECTION ( 'NONE',  ( -1.224646799147353454E-16, -0.0000000000000000000, -1.000000000000000000 ) ) ;
#166 = AXIS2_PLACEMENT_3D ( 'NONE', #254, #85, #131 ) ;
#167 = DIRECTION ( 'NONE',  ( -1.000000000000000000, 0.0000000000000000000, 1.224646799147353454E-16 ) ) ;
#168 = EDGE_LOOP ( 'NONE', ( #139, #127, #209, #18 ) ) ;
#169 = DIMENSIONAL_EXPONENTS ( 1.000000000000000000, 0.0000000000000000000, 0.0000000000000000000, 0.0000000000000000000, 0.0000000000000000000, 0.0000000000000000000, 0.0000000000000000000 ) ;
#170 = CARTESIAN_POINT ( 'NONE',  ( -0.06250000000000002776, 0.0000000000000000000, 1.500000000000000222 ) ) ;
#171 = AXIS2_PLACEMENT_3D ( 'NONE', #264, #265, #48 ) ;
#172 = EDGE_CURVE ( 'NONE', #246, #8, #163, .T. ) ;
#173 = LINE ( 'NONE', #281, #62 ) ;
#174 = FACE_OUTER_BOUND ( 'NONE', #168, .T. ) ;
#175 = DIMENSIONAL_EXPONENTS ( 1.000000000000000000, 0.0000000000000000000, 0.0000000000000000000, 0.0000000000000000000, 0.0000000000000000000, 0.0000000000000000000, 0.0000000000000000000 ) ;
#176 = CARTESIAN_POINT ( 'NONE',  ( 0.01148849999999999871, 1.406935475200436630E-18, -1.406935475200436823E-18 ) ) ;
#177 = UNCERTAINTY_MEASURE_WITH_UNIT (LENGTH_MEASURE( 1.000000000000000082E-05 ), #229, 'distance_accuracy_value', 'NONE');
#178 = ADVANCED_FACE ( 'NONE', ( #233 ), #82, .T. ) ;
#179 = VERTEX_POINT ( 'NONE', #293 ) ;
#180 = SHAPE_DEFINITION_REPRESENTATION ( #51, #115 ) ;
#181 = CONICAL_SURFACE ( 'NONE', #152, 0.01148850000000000218, 0.1745329251994338915 ) ;
#182 =( NAMED_UNIT ( * ) SI_UNIT ( $, .STERADIAN. ) SOLID_ANGLE_UNIT ( ) );
#183 = VERTEX_POINT ( 'NONE', #86 ) ;
#184 = LENGTH_MEASURE_WITH_UNIT ( LENGTH_MEASURE( 0.02539999999999999897 ), #210 );
#185 = ORIENTED_EDGE ( 'NONE', *, *, #1, .T. ) ;
#186 =( NAMED_UNIT ( * ) PLANE_ANGLE_UNIT ( ) SI_UNIT ( $, .RADIAN. ) );
#187 = DIRECTION ( 'NONE',  ( -1.000000000000000000, 0.0000000000000000000, 0.0000000000000000000 ) ) ;
#188 = EDGE_LOOP ( 'NONE', ( #277, #223, #289, #9 ) ) ;
#189 = EDGE_CURVE ( 'NONE', #246, #143, #190, .T. ) ;
#190 = LINE ( 'NONE', #104, #245 ) ;
#191 = EDGE_LOOP ( 'NONE', ( #15, #108 ) ) ;
#192 = EDGE_LOOP ( 'NONE', ( #30, #37, #98, #234 ) ) ;
#193 = CIRCLE ( 'NONE', #257, 0.01148849999999999698 ) ;
#194 = DIRECTION ( 'NONE',  ( -1.000000000000000000, 0.0000000000000000000, 0.0000000000000000000 ) ) ;
#195 = EDGE_CURVE ( 'NONE', #81, #246, #47, .T. ) ;
#196 = CYLINDRICAL_SURFACE ( 'NONE', #279, 0.06250000000000002776 ) ;
#197 =( GEOMETRIC_REPRESENTATION_CONTEXT ( 3 ) GLOBAL_UNCERTAINTY_ASSIGNED_CONTEXT ( ( #298 ) ) GLOBAL_UNIT_ASSIGNED_CONTEXT ( ( #140, #186, #33 ) ) REPRESENTATION_CONTEXT ( 'NONE', 'WORKASPACE' ) );
#198 = LINE ( 'NONE', #170, #164 ) ;
#199 = SURFACE_STYLE_USAGE ( .BOTH. , #219 ) ;
#200 = MECHANICAL_DESIGN_GEOMETRIC_PRESENTATION_REPRESENTATION (  '', ( #76 ), #135 ) ;
#201 = EDGE_LOOP ( 'NONE', ( #79, #130, #65, #213 ) ) ;
#202 = DIRECTION ( 'NONE',  ( -1.224646799147353454E-16, -0.0000000000000000000, -1.000000000000000000 ) ) ;
#203 = ORIENTED_EDGE ( 'NONE', *, *, #1, .F. ) ;
#204 = VERTEX_POINT ( 'NONE', #288 ) ;
#205 = COLOUR_RGB ( '',0.7921568627450980005, 0.8196078431372548767, 0.9333333333333333481 ) ;
#206 = CARTESIAN_POINT ( 'NONE',  ( 0.0000000000000000000, 0.0000000000000000000, 1.500000000000000222 ) ) ;
#207 = ORIENTED_EDGE ( 'NONE', *, *, #189, .T. ) ;
#208 = DIRECTION ( 'NONE',  ( -1.000000000000000000, 0.0000000000000000000, 0.0000000000000000000 ) ) ;
#209 = ORIENTED_EDGE ( 'NONE', *, *, #107, .F. ) ;
#210 =( LENGTH_UNIT ( ) NAMED_UNIT ( * ) SI_UNIT ( $, .METRE. ) );
#211 = PRODUCT_DEFINITION_FORMATION_WITH_SPECIFIED_SOURCE ( 'ANY', '', #266, .NOT_KNOWN. ) ;
#212 = ORIENTED_EDGE ( 'NONE', *, *, #107, .T. ) ;
#213 = ORIENTED_EDGE ( 'NONE', *, *, #262, .F. ) ;
#214 = ADVANCED_FACE ( 'NONE', ( #78 ), #156, .T. ) ;
#215 = DIRECTION ( 'NONE',  ( 1.000000000000000000, 0.0000000000000000000, 0.0000000000000000000 ) ) ;
#216 = SURFACE_STYLE_FILL_AREA ( #6 ) ;
#217 = CIRCLE ( 'NONE', #286, 0.06250000000000002776 ) ;
#218 = PRESENTATION_LAYER_ASSIGNMENT (  '', '', ( #147 ) ) ;
#219 = SURFACE_SIDE_STYLE ('',( #216 ) ) ;
#220 = AXIS2_PLACEMENT_3D ( 'NONE', #282, #144, #21 ) ;
#221 = ORIENTED_EDGE ( 'NONE', *, *, #195, .F. ) ;
#222 = DIRECTION ( 'NONE',  ( 1.224646799147353454E-16, 0.0000000000000000000, 1.000000000000000000 ) ) ;
#223 = ORIENTED_EDGE ( 'NONE', *, *, #63, .T. ) ;
#224 = DIRECTION ( 'NONE',  ( -1.000000000000000000, 0.0000000000000000000, 0.0000000000000000000 ) ) ;
#225 = DIRECTION ( 'NONE',  ( 1.000000000000000000, 0.0000000000000000000, -0.0000000000000000000 ) ) ;
#226 = VECTOR ( 'NONE', #202, 39.37007874015748143 ) ;
#227 = CARTESIAN_POINT ( 'NONE',  ( -0.06250000000000002776, 0.0000000000000000000, 1.485000000000000764 ) ) ;
#228 = LINE ( 'NONE', #55, #23 ) ;
#229 =( CONVERSION_BASED_UNIT ( 'INCH', #138 ) LENGTH_UNIT ( ) NAMED_UNIT ( #169 ) );
#230 = CARTESIAN_POINT ( 'NONE',  ( -0.01148849999999999351, 4.530488984935698628E-18, 0.06900000000000000577 ) ) ;
#231 = ORIENTED_EDGE ( 'NONE', *, *, #262, .T. ) ;
#232 = FILL_AREA_STYLE_COLOUR ( '', #118 ) ;
#233 = FACE_OUTER_BOUND ( 'NONE', #102, .T. ) ;
#234 = ORIENTED_EDGE ( 'NONE', *, *, #63, .F. ) ;
#235 = DIMENSIONAL_EXPONENTS ( 1.000000000000000000, 0.0000000000000000000, 0.0000000000000000000, 0.0000000000000000000, 0.0000000000000000000, 0.0000000000000000000, 0.0000000000000000000 ) ;
#236 = CONICAL_SURFACE ( 'NONE', #11, 0.04750000000000064587, 0.7853981633974466137 ) ;
#237 = ORIENTED_EDGE ( 'NONE', *, *, #84, .T. ) ;
#238 = DIRECTION ( 'NONE',  ( -0.0000000000000000000, -0.0000000000000000000, -1.000000000000000000 ) ) ;
#239 =( NAMED_UNIT ( * ) PLANE_ANGLE_UNIT ( ) SI_UNIT ( $, .RADIAN. ) );
#240 = DIRECTION ( 'NONE',  ( 1.224646799147353454E-16, 0.0000000000000000000, 1.000000000000000000 ) ) ;
#241 = CARTESIAN_POINT ( 'NONE',  ( 0.0000000000000000000, 0.0000000000000000000, 1.500000000000000222 ) ) ;
#242 = ORIENTED_EDGE ( 'NONE', *, *, #39, .T. ) ;
#243 = DIRECTION ( 'NONE',  ( -1.224646799147353454E-16, -0.0000000000000000000, -1.000000000000000000 ) ) ;
#244 = DIRECTION ( 'NONE',  ( -1.000000000000000000, 0.0000000000000000000, 0.0000000000000000000 ) ) ;
#245 = VECTOR ( 'NONE', #80, 39.37007874015747433 ) ;
#246 = VERTEX_POINT ( 'NONE', #230 ) ;
#247 = CARTESIAN_POINT ( 'NONE',  ( 0.0000000000000000000, 0.0000000000000000000, 0.0000000000000000000 ) ) ;
#248 = VERTEX_POINT ( 'NONE', #227 ) ;
#249 = PLANE ( 'NONE',  #151 ) ;
#250 = EDGE_CURVE ( 'NONE', #179, #143, #294, .T. ) ;
#251 = SURFACE_STYLE_USAGE ( .BOTH. , #162 ) ;
#252 = ADVANCED_FACE ( 'NONE', ( #145 ), #181, .T. ) ;
#253 = CARTESIAN_POINT ( 'NONE',  ( -0.01148849999999999871, 0.0000000000000000000, 1.406935475200436823E-18 ) ) ;
#254 = CARTESIAN_POINT ( 'NONE',  ( 0.0000000000000000000, 0.0000000000000000000, 1.500000000000000222 ) ) ;
#255 = CARTESIAN_POINT ( 'NONE',  ( -0.01148849999999999698, 0.0000000000000000000, 2.813870950400873261E-18 ) ) ;
#256 = DIRECTION ( 'NONE',  ( -0.0000000000000000000, -0.0000000000000000000, -1.000000000000000000 ) ) ;
#257 = AXIS2_PLACEMENT_3D ( 'NONE', #137, #64, #167 ) ;
#258 = AXIS2_PLACEMENT_3D ( 'NONE', #17, #114, #208 ) ;
#259 = FACE_OUTER_BOUND ( 'NONE', #188, .T. ) ;
#260 = DIRECTION ( 'NONE',  ( -1.224646799147353454E-16, -0.0000000000000000000, -1.000000000000000000 ) ) ;
#261 = ADVANCED_FACE ( 'NONE', ( #75 ), #2, .T. ) ;
#262 = EDGE_CURVE ( 'NONE', #117, #8, #112, .T. ) ;
#263 = EDGE_CURVE ( 'NONE', #81, #117, #97, .T. ) ;
#264 = CARTESIAN_POINT ( 'NONE',  ( 0.0000000000000000000, 0.0000000000000000000, 1.500000000000000222 ) ) ;
#265 = DIRECTION ( 'NONE',  ( 0.0000000000000000000, 0.0000000000000000000, 1.000000000000000000 ) ) ;
#266 = PRODUCT ( 'Micro_RME-023-2', 'Micro_RME-023-2', '', ( #153 ) ) ;
#267 = FILL_AREA_STYLE ('',( #232 ) ) ;
#268 = DIRECTION ( 'NONE',  ( 1.000000000000000000, 0.0000000000000000000, -0.0000000000000000000 ) ) ;
#269 = CARTESIAN_POINT ( 'NONE',  ( -0.04750000000000064587, 0.0000000000000000000, 1.500000000000000222 ) ) ;
#270 = SURFACE_STYLE_FILL_AREA ( #267 ) ;
#271 = DIRECTION ( 'NONE',  ( 0.7071067811865462405, 8.659560562354916834E-17, -0.7071067811865486830 ) ) ;
#272 = AXIS2_PLACEMENT_3D ( 'NONE', #247, #34, #136 ) ;
#273 = CARTESIAN_POINT ( 'NONE',  ( 0.0000000000000000000, 0.0000000000000000000, 0.0000000000000000000 ) ) ;
#274 = PRODUCT_DEFINITION ( 'UNKNOWN', '', #211, #120 ) ;
#275 = CARTESIAN_POINT ( 'NONE',  ( 8.450062914116739989E-18, 0.0000000000000000000, 0.06900000000000000577 ) ) ;
#276 = CIRCLE ( 'NONE', #220, 0.06250000000000002776 ) ;
#277 = ORIENTED_EDGE ( 'NONE', *, *, #19, .F. ) ;
#278 = ORIENTED_EDGE ( 'NONE', *, *, #84, .F. ) ;
#279 = AXIS2_PLACEMENT_3D ( 'NONE', #126, #3, #244 ) ;
#280 = LENGTH_MEASURE_WITH_UNIT ( LENGTH_MEASURE( 0.02539999999999999897 ), #49 );
#281 = CARTESIAN_POINT ( 'NONE',  ( -0.04750000000000064587, 0.0000000000000000000, 1.500000000000000222 ) ) ;
#282 = CARTESIAN_POINT ( 'NONE',  ( 4.387916737884590977E-17, 0.0000000000000000000, 0.3583005925414273762 ) ) ;
#283 = PRESENTATION_STYLE_ASSIGNMENT (( #199 ) ) ;
#284 = ORIENTED_EDGE ( 'NONE', *, *, #172, .F. ) ;
#285 = ORIENTED_EDGE ( 'NONE', *, *, #39, .F. ) ;
#286 = AXIS2_PLACEMENT_3D ( 'NONE', #72, #73, #121 ) ;
#287 = CARTESIAN_POINT ( 'NONE',  ( 0.06250000000000002776, 7.654042494670959086E-18, 1.500000000000000222 ) ) ;
#288 = CARTESIAN_POINT ( 'NONE',  ( 0.04750000000000064587, 6.735557395310483192E-18, 1.500000000000000222 ) ) ;
#289 = ORIENTED_EDGE ( 'NONE', *, *, #61, .T. ) ;
#290 = CLOSED_SHELL ( 'NONE', ( #214, #252, #178, #106, #100, #38, #149, #261, #46, #22 ) ) ;
#291 = FACE_OUTER_BOUND ( 'NONE', #161, .T. ) ;
#292 =( LENGTH_UNIT ( ) NAMED_UNIT ( * ) SI_UNIT ( $, .METRE. ) );
#293 = CARTESIAN_POINT ( 'NONE',  ( 0.06250000000000006939, 7.654042494670963708E-18, 0.3583005925414273762 ) ) ;
#294 = CIRCLE ( 'NONE', #101, 0.06250000000000002776 ) ;
#295 =( NAMED_UNIT ( * ) SI_UNIT ( $, .STERADIAN. ) SOLID_ANGLE_UNIT ( ) );
#296 = EDGE_CURVE ( 'NONE', #204, #28, #29, .T. ) ;
#297 = ORIENTED_EDGE ( 'NONE', *, *, #189, .F. ) ;
#298 = UNCERTAINTY_MEASURE_WITH_UNIT (LENGTH_MEASURE( 1.000000000000000082E-05 ), #140, 'distance_accuracy_value', 'NONE');
#299 = ORIENTED_EDGE ( 'NONE', *, *, #94, .F. ) ;
ENDSEC;
END-ISO-10303-21;
