ISO-10303-21;
HEADER;
FILE_DESCRIPTION (( 'STEP AP214' ),
    '1' );
FILE_NAME ('30377.STEP',
    '2023-06-22T18:27:07',
    ( '' ),
    ( '' ),
    'SwSTEP 2.0',
    'SolidWorks 2023',
    '' );
FILE_SCHEMA (( 'AUTOMOTIVE_DESIGN' ));
ENDSEC;

DATA;
#1 =( GEOMETRIC_REPRESENTATION_CONTEXT ( 3 ) GLOBAL_UNCERTAINTY_ASSIGNED_CONTEXT ( ( #255 ) ) GLOBAL_UNIT_ASSIGNED_CONTEXT ( ( #169, #333, #243 ) ) REPRESENTATION_CONTEXT ( 'NONE', 'WORKASPACE' ) );
#2 = LINE ( 'NONE', #61, #343 ) ;
#3 = ORIENTED_EDGE ( 'NONE', *, *, #101, .T. ) ;
#4 = CARTESIAN_POINT ( 'NONE',  ( 3.061616997868392262E-17, 2.750000000000000000, 0.000000000000000000 ) ) ;
#5 = CIRCLE ( 'NONE', #287, 0.2031250000000000000 ) ;
#6 = DIRECTION ( 'NONE',  ( -1.000000000000000000, 1.689167998823940410E-17, 0.000000000000000000 ) ) ;
#7 = FACE_OUTER_BOUND ( 'NONE', #31, .T. ) ;
#8 = CARTESIAN_POINT ( 'NONE',  ( 0.2187500000000000278, 2.750000000000000000, 0.000000000000000000 ) ) ;
#9 = STYLED_ITEM ( 'NONE', ( #258 ), #157 ) ;
#10 = APPLICATION_PROTOCOL_DEFINITION ( 'draft international standard', 'automotive_design', 1998, #320 ) ;
#11 = CARTESIAN_POINT ( 'NONE',  ( 2.487563810768061395E-17, 0.000000000000000000, 0.2031250000000000000 ) ) ;
#12 = LENGTH_MEASURE_WITH_UNIT ( LENGTH_MEASURE( 0.02539999999999999897 ), #15 );
#13 = EDGE_CURVE ( 'NONE', #162, #82, #19, .T. ) ;
#14 = COLOUR_RGB ( '',0.7921568627450980005, 0.8196078431372548767, 0.9333333333333333481 ) ;
#15 =( LENGTH_UNIT ( ) NAMED_UNIT ( * ) SI_UNIT ( $, .METRE. ) );
#16 = FACE_OUTER_BOUND ( 'NONE', #222, .T. ) ;
#17 = EDGE_LOOP ( 'NONE', ( #54, #186 ) ) ;
#18 =( NAMED_UNIT ( * ) SI_UNIT ( $, .STERADIAN. ) SOLID_ANGLE_UNIT ( ) );
#19 = CIRCLE ( 'NONE', #336, 0.2187500000000000000 ) ;
#20 =( LENGTH_UNIT ( ) NAMED_UNIT ( * ) SI_UNIT ( $, .METRE. ) );
#21 = AXIS2_PLACEMENT_3D ( 'NONE', #223, #202, #152 ) ;
#22 = MANIFOLD_SOLID_BREP ( 'Revolve - Cutting Edge', #269 ) ;
#23 = ADVANCED_FACE ( 'NONE', ( #113 ), #174, .F. ) ;
#24 = SURFACE_STYLE_FILL_AREA ( #281 ) ;
#25 = LINE ( 'NONE', #275, #302 ) ;
#26 = AXIS2_PLACEMENT_3D ( 'NONE', #289, #90, #256 ) ;
#27 = CARTESIAN_POINT ( 'NONE',  ( 2.897871161504795522E-35, 0.9375000000000000000, 0.000000000000000000 ) ) ;
#28 = FILL_AREA_STYLE ('',( #146 ) ) ;
#29 = PRODUCT_DEFINITION ( 'UNKNOWN', '', #207, #105 ) ;
#30 = CARTESIAN_POINT ( 'NONE',  ( -0.2031250000000000000, 0.9375000000000000000, 0.000000000000000000 ) ) ;
#31 = EDGE_LOOP ( 'NONE', ( #60, #49, #357, #192 ) ) ;
#32 = LENGTH_MEASURE_WITH_UNIT ( LENGTH_MEASURE( 0.02539999999999999897 ), #119 );
#33 = APPLICATION_CONTEXT ( 'automotive_design' ) ;
#34 = STYLED_ITEM ( 'NONE', ( #310 ), #284 ) ;
#35 = SURFACE_SIDE_STYLE ('',( #176 ) ) ;
#36 = CARTESIAN_POINT ( 'NONE',  ( 0.2031250000000000000, 0.9375000000000000000, 2.487563810768061395E-17 ) ) ;
#37 = DIRECTION ( 'NONE',  ( -1.000000000000000000, 0.000000000000000000, 0.000000000000000000 ) ) ;
#38 = DIRECTION ( 'NONE',  ( -0.000000000000000000, -1.000000000000000000, -0.000000000000000000 ) ) ;
#39 = UNCERTAINTY_MEASURE_WITH_UNIT (LENGTH_MEASURE( 1.000000000000000082E-05 ), #334, 'distance_accuracy_value', 'NONE');
#40 = MECHANICAL_DESIGN_GEOMETRIC_PRESENTATION_REPRESENTATION (  '', ( #56 ), #81 ) ;
#41 = CARTESIAN_POINT ( 'NONE',  ( 0.000000000000000000, 0.000000000000000000, 0.000000000000000000 ) ) ;
#42 = MECHANICAL_DESIGN_GEOMETRIC_PRESENTATION_REPRESENTATION (  '', ( #62 ), #291 ) ;
#43 = MECHANICAL_DESIGN_GEOMETRIC_PRESENTATION_REPRESENTATION (  '', ( #34 ), #200 ) ;
#44 = PRESENTATION_STYLE_ASSIGNMENT (( #181 ) ) ;
#45 =( CONVERSION_BASED_UNIT ( 'INCH', #213 ) LENGTH_UNIT ( ) NAMED_UNIT ( #182 ) );
#46 =( LENGTH_UNIT ( ) NAMED_UNIT ( * ) SI_UNIT ( $, .METRE. ) );
#47 = EDGE_LOOP ( 'NONE', ( #76, #85 ) ) ;
#48 =( CONVERSION_BASED_UNIT ( 'INCH', #298 ) LENGTH_UNIT ( ) NAMED_UNIT ( #359 ) );
#49 = ORIENTED_EDGE ( 'NONE', *, *, #57, .T. ) ;
#50 = AXIS2_PLACEMENT_3D ( 'NONE', #84, #195, #305 ) ;
#51 = AXIS2_PLACEMENT_3D ( 'NONE', #98, #257, #232 ) ;
#52 = UNCERTAINTY_MEASURE_WITH_UNIT (LENGTH_MEASURE( 1.000000000000000082E-05 ), #48, 'distance_accuracy_value', 'NONE');
#53 =( NAMED_UNIT ( * ) PLANE_ANGLE_UNIT ( ) SI_UNIT ( $, .RADIAN. ) );
#54 = ORIENTED_EDGE ( 'NONE', *, *, #69, .F. ) ;
#55 = ORIENTED_EDGE ( 'NONE', *, *, #178, .F. ) ;
#56 = STYLED_ITEM ( 'NONE', ( #226 ), #22 ) ;
#57 = EDGE_CURVE ( 'NONE', #220, #245, #5, .T. ) ;
#58 = ORIENTED_EDGE ( 'NONE', *, *, #264, .T. ) ;
#59 = DIMENSIONAL_EXPONENTS ( 1.000000000000000000, 0.000000000000000000, 0.000000000000000000, 0.000000000000000000, 0.000000000000000000, 0.000000000000000000, 0.000000000000000000 ) ;
#60 = ORIENTED_EDGE ( 'NONE', *, *, #161, .F. ) ;
#61 = CARTESIAN_POINT ( 'NONE',  ( -0.2187499999999999445, 2.750000000000000000, 0.000000000000000000 ) ) ;
#62 = STYLED_ITEM ( 'NONE', ( #44 ), #155 ) ;
#63 = VERTEX_POINT ( 'NONE', #233 ) ;
#64 =( NAMED_UNIT ( * ) SI_UNIT ( $, .STERADIAN. ) SOLID_ANGLE_UNIT ( ) );
#65 = CARTESIAN_POINT ( 'NONE',  ( 0.000000000000000000, 0.000000000000000000, -0.2031250000000000000 ) ) ;
#66 = ADVANCED_FACE ( 'NONE', ( #123 ), #252, .T. ) ;
#67 = COLOUR_RGB ( '',1.000000000000000000, 0.000000000000000000, 0.000000000000000000 ) ;
#68 = CARTESIAN_POINT ( 'NONE',  ( 7.251485835053345100E-19, 0.9804293346789784147, 0.000000000000000000 ) ) ;
#69 = EDGE_CURVE ( 'NONE', #245, #220, #77, .T. ) ;
#70 = PRESENTATION_LAYER_ASSIGNMENT (  '', '', ( #56 ) ) ;
#71 = DIRECTION ( 'NONE',  ( -1.000000000000000000, 0.000000000000000000, 0.000000000000000000 ) ) ;
#72 = PRESENTATION_LAYER_ASSIGNMENT (  '', '', ( #34 ) ) ;
#73 =( LENGTH_UNIT ( ) NAMED_UNIT ( * ) SI_UNIT ( $, .METRE. ) );
#74 = CARTESIAN_POINT ( 'NONE',  ( -0.2187500000000000000, 0.9804293346789784147, 0.000000000000000000 ) ) ;
#75 = EDGE_CURVE ( 'NONE', #166, #63, #260, .T. ) ;
#76 = ORIENTED_EDGE ( 'NONE', *, *, #80, .F. ) ;
#77 = CIRCLE ( 'NONE', #277, 0.2031250000000000000 ) ;
#78 = LINE ( 'NONE', #188, #191 ) ;
#79 = FILL_AREA_STYLE_COLOUR ( '', #137 ) ;
#80 = EDGE_CURVE ( 'NONE', #242, #322, #227, .T. ) ;
#81 =( GEOMETRIC_REPRESENTATION_CONTEXT ( 3 ) GLOBAL_UNCERTAINTY_ASSIGNED_CONTEXT ( ( #39 ) ) GLOBAL_UNIT_ASSIGNED_CONTEXT ( ( #334, #140, #64 ) ) REPRESENTATION_CONTEXT ( 'NONE', 'WORKASPACE' ) );
#82 = VERTEX_POINT ( 'NONE', #153 ) ;
#83 = DIRECTION ( 'NONE',  ( 1.689167998823940410E-17, 1.000000000000000000, -0.000000000000000000 ) ) ;
#84 = CARTESIAN_POINT ( 'NONE',  ( 0.000000000000000000, 0.9375000000000000000, 0.000000000000000000 ) ) ;
#85 = ORIENTED_EDGE ( 'NONE', *, *, #264, .F. ) ;
#86 =( NAMED_UNIT ( * ) PLANE_ANGLE_UNIT ( ) SI_UNIT ( $, .RADIAN. ) );
#87 =( GEOMETRIC_REPRESENTATION_CONTEXT ( 3 ) GLOBAL_UNCERTAINTY_ASSIGNED_CONTEXT ( ( #128 ) ) GLOBAL_UNIT_ASSIGNED_CONTEXT ( ( #139, #239, #107 ) ) REPRESENTATION_CONTEXT ( 'NONE', 'WORKASPACE' ) );
#88 = MECHANICAL_DESIGN_GEOMETRIC_PRESENTATION_REPRESENTATION (  '', ( #104 ), #87 ) ;
#89 = DIRECTION ( 'NONE',  ( 1.689167998823940410E-17, 1.000000000000000000, -0.000000000000000000 ) ) ;
#90 = DIRECTION ( 'NONE',  ( 1.689167998823940410E-17, 1.000000000000000000, -0.000000000000000000 ) ) ;
#91 = DIRECTION ( 'NONE',  ( 0.000000000000000000, 0.000000000000000000, -1.000000000000000000 ) ) ;
#92 = ADVANCED_FACE ( 'NONE', ( #205 ), #240, .T. ) ;
#93 = EDGE_CURVE ( 'NONE', #82, #162, #96, .T. ) ;
#94 = COLOUR_RGB ( '',1.000000000000000000, 0.000000000000000000, 0.000000000000000000 ) ;
#95 = DIRECTION ( 'NONE',  ( 0.000000000000000000, 0.000000000000000000, -1.000000000000000000 ) ) ;
#96 = CIRCLE ( 'NONE', #130, 0.2187500000000000000 ) ;
#97 = SURFACE_STYLE_USAGE ( .BOTH. , #301 ) ;
#98 = CARTESIAN_POINT ( 'NONE',  ( 0.000000000000000000, 0.000000000000000000, 0.000000000000000000 ) ) ;
#99 = FILL_AREA_STYLE_COLOUR ( '', #94 ) ;
#100 = DIRECTION ( 'NONE',  ( 0.000000000000000000, 0.000000000000000000, -1.000000000000000000 ) ) ;
#101 = EDGE_CURVE ( 'NONE', #267, #145, #142, .T. ) ;
#102 =( NAMED_UNIT ( * ) PLANE_ANGLE_UNIT ( ) SI_UNIT ( $, .RADIAN. ) );
#103 = PRESENTATION_LAYER_ASSIGNMENT (  '', '', ( #9 ) ) ;
#104 = STYLED_ITEM ( 'NONE', ( #268 ), #209 ) ;
#105 = PRODUCT_DEFINITION_CONTEXT ( 'detailed design', #33, 'design' ) ;
#106 = DIRECTION ( 'NONE',  ( -0.3420201433256695456, 0.9396926207859080948, 0.000000000000000000 ) ) ;
#107 =( NAMED_UNIT ( * ) SI_UNIT ( $, .STERADIAN. ) SOLID_ANGLE_UNIT ( ) );
#108 = ORIENTED_EDGE ( 'NONE', *, *, #280, .F. ) ;
#109 = CARTESIAN_POINT ( 'NONE',  ( 3.061616997868392262E-17, 2.750000000000000000, 0.000000000000000000 ) ) ;
#110 = EDGE_CURVE ( 'NONE', #63, #162, #179, .T. ) ;
#111 = AXIS2_PLACEMENT_3D ( 'NONE', #356, #325, #323 ) ;
#112 = DIRECTION ( 'NONE',  ( -0.000000000000000000, -1.000000000000000000, -0.000000000000000000 ) ) ;
#113 = FACE_OUTER_BOUND ( 'NONE', #47, .T. ) ;
#114 = CARTESIAN_POINT ( 'NONE',  ( 0.000000000000000000, 0.000000000000000000, 0.000000000000000000 ) ) ;
#115 = ORIENTED_EDGE ( 'NONE', *, *, #13, .F. ) ;
#116 = CARTESIAN_POINT ( 'NONE',  ( 7.251485835053345100E-19, 0.9804293346789784147, 0.000000000000000000 ) ) ;
#117 = LENGTH_MEASURE_WITH_UNIT ( LENGTH_MEASURE( 0.02539999999999999897 ), #46 );
#118 = EDGE_LOOP ( 'NONE', ( #201, #295, #164, #55 ) ) ;
#119 =( LENGTH_UNIT ( ) NAMED_UNIT ( * ) SI_UNIT ( $, .METRE. ) );
#120 =( GEOMETRIC_REPRESENTATION_CONTEXT ( 3 ) GLOBAL_UNCERTAINTY_ASSIGNED_CONTEXT ( ( #52 ) ) GLOBAL_UNIT_ASSIGNED_CONTEXT ( ( #48, #53, #163 ) ) REPRESENTATION_CONTEXT ( 'NONE', 'WORKASPACE' ) );
#121 = DIRECTION ( 'NONE',  ( 1.689167998823940410E-17, 1.000000000000000000, -0.000000000000000000 ) ) ;
#122 = UNCERTAINTY_MEASURE_WITH_UNIT (LENGTH_MEASURE( 1.000000000000000082E-05 ), #133, 'distance_accuracy_value', 'NONE');
#123 = FACE_OUTER_BOUND ( 'NONE', #135, .T. ) ;
#124 = CARTESIAN_POINT ( 'NONE',  ( 0.000000000000000000, 0.9375000000000000000, 0.000000000000000000 ) ) ;
#125 = COLOUR_RGB ( '',1.000000000000000000, 0.000000000000000000, 0.000000000000000000 ) ;
#126 = DIRECTION ( 'NONE',  ( 1.000000000000000000, -1.689167998823940410E-17, 0.000000000000000000 ) ) ;
#127 = SURFACE_STYLE_FILL_AREA ( #150 ) ;
#128 = UNCERTAINTY_MEASURE_WITH_UNIT (LENGTH_MEASURE( 1.000000000000000082E-05 ), #139, 'distance_accuracy_value', 'NONE');
#129 = FILL_AREA_STYLE_COLOUR ( '', #14 ) ;
#130 = AXIS2_PLACEMENT_3D ( 'NONE', #345, #311, #37 ) ;
#131 = AXIS2_PLACEMENT_3D ( 'NONE', #198, #89, #246 ) ;
#132 = ADVANCED_FACE ( 'NONE', ( #290 ), #156, .F. ) ;
#133 =( CONVERSION_BASED_UNIT ( 'INCH', #12 ) LENGTH_UNIT ( ) NAMED_UNIT ( #278 ) );
#134 = SURFACE_SIDE_STYLE ('',( #218 ) ) ;
#135 = EDGE_LOOP ( 'NONE', ( #148, #273, #170, #115 ) ) ;
#136 = DIRECTION ( 'NONE',  ( -0.000000000000000000, -1.000000000000000000, -0.000000000000000000 ) ) ;
#137 = COLOUR_RGB ( '',1.000000000000000000, 0.000000000000000000, 0.000000000000000000 ) ;
#138 = ORIENTED_EDGE ( 'NONE', *, *, #337, .F. ) ;
#139 =( CONVERSION_BASED_UNIT ( 'INCH', #187 ) LENGTH_UNIT ( ) NAMED_UNIT ( #307 ) );
#140 =( NAMED_UNIT ( * ) PLANE_ANGLE_UNIT ( ) SI_UNIT ( $, .RADIAN. ) );
#141 =( LENGTH_UNIT ( ) NAMED_UNIT ( * ) SI_UNIT ( $, .METRE. ) );
#142 = CIRCLE ( 'NONE', #183, 0.2031250000000000000 ) ;
#143 = SURFACE_SIDE_STYLE ('',( #194 ) ) ;
#144 = DIMENSIONAL_EXPONENTS ( 1.000000000000000000, 0.000000000000000000, 0.000000000000000000, 0.000000000000000000, 0.000000000000000000, 0.000000000000000000, 0.000000000000000000 ) ;
#145 = VERTEX_POINT ( 'NONE', #11 ) ;
#146 = FILL_AREA_STYLE_COLOUR ( '', #67 ) ;
#147 = DIRECTION ( 'NONE',  ( 1.689167998823940410E-17, 1.000000000000000000, -0.000000000000000000 ) ) ;
#148 = ORIENTED_EDGE ( 'NONE', *, *, #110, .F. ) ;
#149 = AXIS2_PLACEMENT_3D ( 'NONE', #114, #339, #91 ) ;
#150 = FILL_AREA_STYLE ('',( #99 ) ) ;
#151 = DIRECTION ( 'NONE',  ( -1.000000000000000000, 0.000000000000000000, 0.000000000000000000 ) ) ;
#152 = DIRECTION ( 'NONE',  ( 0.000000000000000000, 0.000000000000000000, -1.000000000000000000 ) ) ;
#153 = CARTESIAN_POINT ( 'NONE',  ( -0.2187499999999999445, 2.750000000000000000, 0.000000000000000000 ) ) ;
#154 =( NAMED_UNIT ( * ) SI_UNIT ( $, .STERADIAN. ) SOLID_ANGLE_UNIT ( ) );
#155 = MANIFOLD_SOLID_BREP ( 'Revolve - Tool Body (Reduced Cut Diameter)', #206 ) ;
#156 = PLANE ( 'NONE',  #297 ) ;
#157 = ADVANCED_FACE ( 'NONE', ( #16 ), #266, .T. ) ;
#158 = VECTOR ( 'NONE', #106, 39.37007874015748143 ) ;
#159 = CARTESIAN_POINT ( 'NONE',  ( 0.2187500000000000278, 2.750000000000000000, 2.678914873134835064E-17 ) ) ;
#160 = EDGE_CURVE ( 'NONE', #145, #267, #349, .T. ) ;
#161 = EDGE_CURVE ( 'NONE', #220, #145, #78, .T. ) ;
#162 = VERTEX_POINT ( 'NONE', #214 ) ;
#163 =( NAMED_UNIT ( * ) SI_UNIT ( $, .STERADIAN. ) SOLID_ANGLE_UNIT ( ) );
#164 = ORIENTED_EDGE ( 'NONE', *, *, #75, .F. ) ;
#165 = UNCERTAINTY_MEASURE_WITH_UNIT (LENGTH_MEASURE( 1.000000000000000082E-05 ), #45, 'distance_accuracy_value', 'NONE');
#166 = VERTEX_POINT ( 'NONE', #74 ) ;
#167 = AXIS2_PLACEMENT_3D ( 'NONE', #230, #315, #71 ) ;
#168 = ORIENTED_EDGE ( 'NONE', *, *, #13, .T. ) ;
#169 =( CONVERSION_BASED_UNIT ( 'INCH', #117 ) LENGTH_UNIT ( ) NAMED_UNIT ( #197 ) );
#170 = ORIENTED_EDGE ( 'NONE', *, *, #285, .T. ) ;
#171 = CARTESIAN_POINT ( 'NONE',  ( 3.791200677927629740E-33, 0.9375000000000000000, 0.000000000000000000 ) ) ;
#172 = ORIENTED_EDGE ( 'NONE', *, *, #75, .T. ) ;
#173 = DIRECTION ( 'NONE',  ( 0.3420201433256695456, 0.9396926207859080948, 4.188538737677001626E-17 ) ) ;
#174 = PLANE ( 'NONE',  #249 ) ;
#175 = DIRECTION ( 'NONE',  ( -1.000000000000000000, 0.000000000000000000, 0.000000000000000000 ) ) ;
#176 = SURFACE_STYLE_FILL_AREA ( #210 ) ;
#177 = CYLINDRICAL_SURFACE ( 'NONE', #149, 0.2031250000000000000 ) ;
#178 = EDGE_CURVE ( 'NONE', #242, #166, #294, .T. ) ;
#179 = LINE ( 'NONE', #159, #329 ) ;
#180 = MECHANICAL_DESIGN_GEOMETRIC_PRESENTATION_REPRESENTATION (  '', ( #354 ), #1 ) ;
#181 = SURFACE_STYLE_USAGE ( .BOTH. , #35 ) ;
#182 = DIMENSIONAL_EXPONENTS ( 1.000000000000000000, 0.000000000000000000, 0.000000000000000000, 0.000000000000000000, 0.000000000000000000, 0.000000000000000000, 0.000000000000000000 ) ;
#183 = AXIS2_PLACEMENT_3D ( 'NONE', #41, #208, #314 ) ;
#184 = FILL_AREA_STYLE ('',( #79 ) ) ;
#185 = CIRCLE ( 'NONE', #131, 0.2031250000000000000 ) ;
#186 = ORIENTED_EDGE ( 'NONE', *, *, #57, .F. ) ;
#187 = LENGTH_MEASURE_WITH_UNIT ( LENGTH_MEASURE( 0.02539999999999999897 ), #20 );
#188 = CARTESIAN_POINT ( 'NONE',  ( 2.487563810768061395E-17, 0.000000000000000000, 0.2031250000000000000 ) ) ;
#189 = ADVANCED_FACE ( 'NONE', ( #321 ), #327, .T. ) ;
#190 = SURFACE_STYLE_FILL_AREA ( #184 ) ;
#191 = VECTOR ( 'NONE', #235, 39.37007874015748143 ) ;
#192 = ORIENTED_EDGE ( 'NONE', *, *, #160, .F. ) ;
#193 = ADVANCED_BREP_SHAPE_REPRESENTATION ( '30377', ( #22, #155, #51 ), #270 ) ;
#194 = SURFACE_STYLE_FILL_AREA ( #28 ) ;
#195 = DIRECTION ( 'NONE',  ( 0.000000000000000000, 1.000000000000000000, 0.000000000000000000 ) ) ;
#196 = DIRECTION ( 'NONE',  ( 1.689167998823940410E-17, 1.000000000000000000, -0.000000000000000000 ) ) ;
#197 = DIMENSIONAL_EXPONENTS ( 1.000000000000000000, 0.000000000000000000, 0.000000000000000000, 0.000000000000000000, 0.000000000000000000, 0.000000000000000000, 0.000000000000000000 ) ;
#198 = CARTESIAN_POINT ( 'NONE',  ( 3.791200677927629740E-33, 0.9375000000000000000, 0.000000000000000000 ) ) ;
#199 = DIRECTION ( 'NONE',  ( 1.689167998823940410E-17, 1.000000000000000000, -0.000000000000000000 ) ) ;
#200 =( GEOMETRIC_REPRESENTATION_CONTEXT ( 3 ) GLOBAL_UNCERTAINTY_ASSIGNED_CONTEXT ( ( #352 ) ) GLOBAL_UNIT_ASSIGNED_CONTEXT ( ( #204, #86, #244 ) ) REPRESENTATION_CONTEXT ( 'NONE', 'WORKASPACE' ) );
#201 = ORIENTED_EDGE ( 'NONE', *, *, #80, .T. ) ;
#202 = DIRECTION ( 'NONE',  ( 0.000000000000000000, -1.000000000000000000, -0.000000000000000000 ) ) ;
#203 = DIRECTION ( 'NONE',  ( -1.689167998823940410E-17, -1.000000000000000000, 0.000000000000000000 ) ) ;
#204 =( CONVERSION_BASED_UNIT ( 'INCH', #32 ) LENGTH_UNIT ( ) NAMED_UNIT ( #59 ) );
#205 = FACE_OUTER_BOUND ( 'NONE', #118, .T. ) ;
#206 = CLOSED_SHELL ( 'NONE', ( #238, #92, #23, #316, #66, #132 ) ) ;
#207 = PRODUCT_DEFINITION_FORMATION_WITH_SPECIFIED_SOURCE ( 'ANY', '', #272, .NOT_KNOWN. ) ;
#208 = DIRECTION ( 'NONE',  ( -0.000000000000000000, -1.000000000000000000, -0.000000000000000000 ) ) ;
#209 = ADVANCED_FACE ( 'NONE', ( #308 ), #276, .T. ) ;
#210 = FILL_AREA_STYLE ('',( #129 ) ) ;
#211 = AXIS2_PLACEMENT_3D ( 'NONE', #317, #121, #151 ) ;
#212 = PRESENTATION_STYLE_ASSIGNMENT (( #97 ) ) ;
#213 = LENGTH_MEASURE_WITH_UNIT ( LENGTH_MEASURE( 0.02539999999999999897 ), #341 );
#214 = CARTESIAN_POINT ( 'NONE',  ( 0.2187500000000000278, 2.750000000000000000, 2.678914873134835064E-17 ) ) ;
#215 = ORIENTED_EDGE ( 'NONE', *, *, #93, .F. ) ;
#216 = CARTESIAN_POINT ( 'NONE',  ( 0.000000000000000000, 0.000000000000000000, 0.000000000000000000 ) ) ;
#217 = AXIS2_PLACEMENT_3D ( 'NONE', #216, #136, #100 ) ;
#218 = SURFACE_STYLE_FILL_AREA ( #262 ) ;
#219 = DIRECTION ( 'NONE',  ( -1.000000000000000000, 0.000000000000000000, 0.000000000000000000 ) ) ;
#220 = VERTEX_POINT ( 'NONE', #331 ) ;
#221 = CARTESIAN_POINT ( 'NONE',  ( 0.000000000000000000, 0.9375000000000000000, -0.2031250000000000000 ) ) ;
#222 = EDGE_LOOP ( 'NONE', ( #306, #247, #274, #263 ) ) ;
#223 = CARTESIAN_POINT ( 'NONE',  ( 0.000000000000000000, 0.000000000000000000, 0.000000000000000000 ) ) ;
#224 = SURFACE_STYLE_USAGE ( .BOTH. , #328 ) ;
#225 = DIRECTION ( 'NONE',  ( 1.689167998823940410E-17, 1.000000000000000000, -0.000000000000000000 ) ) ;
#226 = PRESENTATION_STYLE_ASSIGNMENT (( #224 ) ) ;
#227 = CIRCLE ( 'NONE', #211, 0.2031250000000000000 ) ;
#228 = CYLINDRICAL_SURFACE ( 'NONE', #292, 0.2187500000000000000 ) ;
#229 = SURFACE_STYLE_USAGE ( .BOTH. , #143 ) ;
#230 = CARTESIAN_POINT ( 'NONE',  ( 3.061616997868392262E-17, 2.750000000000000000, 0.000000000000000000 ) ) ;
#231 = CARTESIAN_POINT ( 'NONE',  ( 0.000000000000000000, 0.9375000000000000000, 0.000000000000000000 ) ) ;
#232 = DIRECTION ( 'NONE',  ( 1.000000000000000000, 0.000000000000000000, 0.000000000000000000 ) ) ;
#233 = CARTESIAN_POINT ( 'NONE',  ( 0.2187500000000000000, 0.9804293346789784147, 2.678914873134835064E-17 ) ) ;
#234 = SURFACE_SIDE_STYLE ('',( #127 ) ) ;
#235 = DIRECTION ( 'NONE',  ( -0.000000000000000000, -1.000000000000000000, -0.000000000000000000 ) ) ;
#236 = COLOUR_RGB ( '',0.7921568627450980005, 0.8196078431372548767, 0.9333333333333333481 ) ;
#237 = EDGE_CURVE ( 'NONE', #245, #267, #25, .T. ) ;
#238 = ADVANCED_FACE ( 'NONE', ( #338 ), #228, .T. ) ;
#239 =( NAMED_UNIT ( * ) PLANE_ANGLE_UNIT ( ) SI_UNIT ( $, .RADIAN. ) );
#240 = CONICAL_SURFACE ( 'NONE', #26, 0.2031250000000000000, 0.3490658503988667838 ) ;
#241 = MECHANICAL_DESIGN_GEOMETRIC_PRESENTATION_REPRESENTATION (  '', ( #9 ), #120 ) ;
#242 = VERTEX_POINT ( 'NONE', #30 ) ;
#243 =( NAMED_UNIT ( * ) SI_UNIT ( $, .STERADIAN. ) SOLID_ANGLE_UNIT ( ) );
#244 =( NAMED_UNIT ( * ) SI_UNIT ( $, .STERADIAN. ) SOLID_ANGLE_UNIT ( ) );
#245 = VERTEX_POINT ( 'NONE', #221 ) ;
#246 = DIRECTION ( 'NONE',  ( -1.000000000000000000, 0.000000000000000000, 0.000000000000000000 ) ) ;
#247 = ORIENTED_EDGE ( 'NONE', *, *, #161, .T. ) ;
#248 = DIRECTION ( 'NONE',  ( -1.000000000000000000, 0.000000000000000000, 0.000000000000000000 ) ) ;
#249 = AXIS2_PLACEMENT_3D ( 'NONE', #27, #196, #6 ) ;
#250 = DIRECTION ( 'NONE',  ( 0.000000000000000000, 0.000000000000000000, -1.000000000000000000 ) ) ;
#251 = DIRECTION ( 'NONE',  ( 1.689167998823940410E-17, 1.000000000000000000, -0.000000000000000000 ) ) ;
#252 = CYLINDRICAL_SURFACE ( 'NONE', #167, 0.2187500000000000000 ) ;
#253 =( NAMED_UNIT ( * ) PLANE_ANGLE_UNIT ( ) SI_UNIT ( $, .RADIAN. ) );
#254 = DIRECTION ( 'NONE',  ( 1.689167998823940410E-17, 1.000000000000000000, -0.000000000000000000 ) ) ;
#255 = UNCERTAINTY_MEASURE_WITH_UNIT (LENGTH_MEASURE( 1.000000000000000082E-05 ), #169, 'distance_accuracy_value', 'NONE');
#256 = DIRECTION ( 'NONE',  ( -1.000000000000000000, 0.000000000000000000, 0.000000000000000000 ) ) ;
#257 = DIRECTION ( 'NONE',  ( 0.000000000000000000, 0.000000000000000000, 1.000000000000000000 ) ) ;
#258 = PRESENTATION_STYLE_ASSIGNMENT (( #299 ) ) ;
#259 = PRODUCT_DEFINITION_SHAPE ( 'NONE', 'NONE',  #29 ) ;
#260 = CIRCLE ( 'NONE', #318, 0.2187500000000000000 ) ;
#261 = AXIS2_PLACEMENT_3D ( 'NONE', #116, #83, #283 ) ;
#262 = FILL_AREA_STYLE ('',( #286 ) ) ;
#263 = ORIENTED_EDGE ( 'NONE', *, *, #237, .F. ) ;
#264 = EDGE_CURVE ( 'NONE', #322, #242, #185, .T. ) ;
#265 = ORIENTED_EDGE ( 'NONE', *, *, #285, .F. ) ;
#266 = CYLINDRICAL_SURFACE ( 'NONE', #217, 0.2031250000000000000 ) ;
#267 = VERTEX_POINT ( 'NONE', #65 ) ;
#268 = PRESENTATION_STYLE_ASSIGNMENT (( #296 ) ) ;
#269 = CLOSED_SHELL ( 'NONE', ( #157, #189, #284, #209 ) ) ;
#270 =( GEOMETRIC_REPRESENTATION_CONTEXT ( 3 ) GLOBAL_UNCERTAINTY_ASSIGNED_CONTEXT ( ( #165 ) ) GLOBAL_UNIT_ASSIGNED_CONTEXT ( ( #45, #253, #154 ) ) REPRESENTATION_CONTEXT ( 'NONE', 'WORKASPACE' ) );
#271 = EDGE_LOOP ( 'NONE', ( #172, #304, #215, #265 ) ) ;
#272 = PRODUCT ( '30377', '30377', '', ( #346 ) ) ;
#273 = ORIENTED_EDGE ( 'NONE', *, *, #280, .T. ) ;
#274 = ORIENTED_EDGE ( 'NONE', *, *, #101, .F. ) ;
#275 = CARTESIAN_POINT ( 'NONE',  ( 0.000000000000000000, 0.000000000000000000, -0.2031250000000000000 ) ) ;
#276 = PLANE ( 'NONE',  #21 ) ;
#277 = AXIS2_PLACEMENT_3D ( 'NONE', #231, #38, #95 ) ;
#278 = DIMENSIONAL_EXPONENTS ( 1.000000000000000000, 0.000000000000000000, 0.000000000000000000, 0.000000000000000000, 0.000000000000000000, 0.000000000000000000, 0.000000000000000000 ) ;
#279 = FACE_OUTER_BOUND ( 'NONE', #358, .T. ) ;
#280 = EDGE_CURVE ( 'NONE', #63, #166, #319, .T. ) ;
#281 = FILL_AREA_STYLE ('',( #330 ) ) ;
#282 = ORIENTED_EDGE ( 'NONE', *, *, #93, .T. ) ;
#283 = DIRECTION ( 'NONE',  ( -1.000000000000000000, 0.000000000000000000, 0.000000000000000000 ) ) ;
#284 = ADVANCED_FACE ( 'NONE', ( #7 ), #177, .T. ) ;
#285 = EDGE_CURVE ( 'NONE', #166, #82, #2, .T. ) ;
#286 = FILL_AREA_STYLE_COLOUR ( '', #125 ) ;
#287 = AXIS2_PLACEMENT_3D ( 'NONE', #124, #340, #250 ) ;
#288 = LINE ( 'NONE', #36, #293 ) ;
#289 = CARTESIAN_POINT ( 'NONE',  ( 3.791200677927629740E-33, 0.9375000000000000000, 0.000000000000000000 ) ) ;
#290 = FACE_OUTER_BOUND ( 'NONE', #351, .T. ) ;
#291 =( GEOMETRIC_REPRESENTATION_CONTEXT ( 3 ) GLOBAL_UNCERTAINTY_ASSIGNED_CONTEXT ( ( #122 ) ) GLOBAL_UNIT_ASSIGNED_CONTEXT ( ( #133, #102, #18 ) ) REPRESENTATION_CONTEXT ( 'NONE', 'WORKASPACE' ) );
#292 = AXIS2_PLACEMENT_3D ( 'NONE', #4, #251, #175 ) ;
#293 = VECTOR ( 'NONE', #173, 39.37007874015748143 ) ;
#294 = LINE ( 'NONE', #347, #158 ) ;
#295 = ORIENTED_EDGE ( 'NONE', *, *, #337, .T. ) ;
#296 = SURFACE_STYLE_USAGE ( .BOTH. , #234 ) ;
#297 = AXIS2_PLACEMENT_3D ( 'NONE', #8, #203, #126 ) ;
#298 = LENGTH_MEASURE_WITH_UNIT ( LENGTH_MEASURE( 0.02539999999999999897 ), #73 );
#299 = SURFACE_STYLE_USAGE ( .BOTH. , #134 ) ;
#300 = ORIENTED_EDGE ( 'NONE', *, *, #160, .T. ) ;
#301 = SURFACE_SIDE_STYLE ('',( #190 ) ) ;
#302 = VECTOR ( 'NONE', #112, 39.37007874015748143 ) ;
#303 = LENGTH_MEASURE_WITH_UNIT ( LENGTH_MEASURE( 0.02539999999999999897 ), #141 );
#304 = ORIENTED_EDGE ( 'NONE', *, *, #110, .T. ) ;
#305 = DIRECTION ( 'NONE',  ( 0.000000000000000000, -0.000000000000000000, 1.000000000000000000 ) ) ;
#306 = ORIENTED_EDGE ( 'NONE', *, *, #69, .T. ) ;
#307 = DIMENSIONAL_EXPONENTS ( 1.000000000000000000, 0.000000000000000000, 0.000000000000000000, 0.000000000000000000, 0.000000000000000000, 0.000000000000000000, 0.000000000000000000 ) ;
#308 = FACE_OUTER_BOUND ( 'NONE', #332, .T. ) ;
#309 = PRESENTATION_LAYER_ASSIGNMENT (  '', '', ( #62 ) ) ;
#310 = PRESENTATION_STYLE_ASSIGNMENT (( #229 ) ) ;
#311 = DIRECTION ( 'NONE',  ( 1.689167998823940410E-17, 1.000000000000000000, -0.000000000000000000 ) ) ;
#312 = CARTESIAN_POINT ( 'NONE',  ( 0.2031250000000000000, 0.9375000000000000000, 2.583239341951447921E-17 ) ) ;
#313 = PRESENTATION_LAYER_ASSIGNMENT (  '', '', ( #354 ) ) ;
#314 = DIRECTION ( 'NONE',  ( 0.000000000000000000, 0.000000000000000000, -1.000000000000000000 ) ) ;
#315 = DIRECTION ( 'NONE',  ( 1.689167998823940410E-17, 1.000000000000000000, -0.000000000000000000 ) ) ;
#316 = ADVANCED_FACE ( 'NONE', ( #279 ), #350, .T. ) ;
#317 = CARTESIAN_POINT ( 'NONE',  ( 3.791200677927629740E-33, 0.9375000000000000000, 0.000000000000000000 ) ) ;
#318 = AXIS2_PLACEMENT_3D ( 'NONE', #68, #342, #248 ) ;
#319 = CIRCLE ( 'NONE', #261, 0.2187500000000000000 ) ;
#320 = APPLICATION_CONTEXT ( 'automotive_design' ) ;
#321 = FACE_OUTER_BOUND ( 'NONE', #17, .T. ) ;
#322 = VERTEX_POINT ( 'NONE', #312 ) ;
#323 = DIRECTION ( 'NONE',  ( 0.000000000000000000, 0.000000000000000000, -1.000000000000000000 ) ) ;
#324 = AXIS2_PLACEMENT_3D ( 'NONE', #171, #225, #335 ) ;
#325 = DIRECTION ( 'NONE',  ( -0.000000000000000000, -1.000000000000000000, -0.000000000000000000 ) ) ;
#326 = PRODUCT_RELATED_PRODUCT_CATEGORY ( 'part', '', ( #272 ) ) ;
#327 = PLANE ( 'NONE',  #50 ) ;
#328 = SURFACE_SIDE_STYLE ('',( #24 ) ) ;
#329 = VECTOR ( 'NONE', #254, 39.37007874015748143 ) ;
#330 = FILL_AREA_STYLE_COLOUR ( '', #236 ) ;
#331 = CARTESIAN_POINT ( 'NONE',  ( 2.487563810768061395E-17, 0.9375000000000000000, 0.2031250000000000000 ) ) ;
#332 = EDGE_LOOP ( 'NONE', ( #3, #300 ) ) ;
#333 =( NAMED_UNIT ( * ) PLANE_ANGLE_UNIT ( ) SI_UNIT ( $, .RADIAN. ) );
#334 =( CONVERSION_BASED_UNIT ( 'INCH', #303 ) LENGTH_UNIT ( ) NAMED_UNIT ( #144 ) );
#335 = DIRECTION ( 'NONE',  ( -1.000000000000000000, 0.000000000000000000, 0.000000000000000000 ) ) ;
#336 = AXIS2_PLACEMENT_3D ( 'NONE', #109, #199, #219 ) ;
#337 = EDGE_CURVE ( 'NONE', #322, #63, #288, .T. ) ;
#338 = FACE_OUTER_BOUND ( 'NONE', #271, .T. ) ;
#339 = DIRECTION ( 'NONE',  ( -0.000000000000000000, -1.000000000000000000, -0.000000000000000000 ) ) ;
#340 = DIRECTION ( 'NONE',  ( -0.000000000000000000, -1.000000000000000000, -0.000000000000000000 ) ) ;
#341 =( LENGTH_UNIT ( ) NAMED_UNIT ( * ) SI_UNIT ( $, .METRE. ) );
#342 = DIRECTION ( 'NONE',  ( 1.689167998823940410E-17, 1.000000000000000000, -0.000000000000000000 ) ) ;
#343 = VECTOR ( 'NONE', #147, 39.37007874015748143 ) ;
#344 = APPLICATION_PROTOCOL_DEFINITION ( 'draft international standard', 'automotive_design', 1998, #33 ) ;
#345 = CARTESIAN_POINT ( 'NONE',  ( 3.061616997868392262E-17, 2.750000000000000000, 0.000000000000000000 ) ) ;
#346 = PRODUCT_CONTEXT ( 'NONE', #320, 'mechanical' ) ;
#347 = CARTESIAN_POINT ( 'NONE',  ( -0.2031250000000000000, 0.9375000000000000000, 0.000000000000000000 ) ) ;
#348 = SHAPE_DEFINITION_REPRESENTATION ( #259, #193 ) ;
#349 = CIRCLE ( 'NONE', #111, 0.2031250000000000000 ) ;
#350 = CONICAL_SURFACE ( 'NONE', #324, 0.2031250000000000000, 0.3490658503988667838 ) ;
#351 = EDGE_LOOP ( 'NONE', ( #282, #168 ) ) ;
#352 = UNCERTAINTY_MEASURE_WITH_UNIT (LENGTH_MEASURE( 1.000000000000000082E-05 ), #204, 'distance_accuracy_value', 'NONE');
#353 = ORIENTED_EDGE ( 'NONE', *, *, #178, .T. ) ;
#354 = STYLED_ITEM ( 'NONE', ( #212 ), #189 ) ;
#355 = PRESENTATION_LAYER_ASSIGNMENT (  '', '', ( #104 ) ) ;
#356 = CARTESIAN_POINT ( 'NONE',  ( 0.000000000000000000, 0.000000000000000000, 0.000000000000000000 ) ) ;
#357 = ORIENTED_EDGE ( 'NONE', *, *, #237, .T. ) ;
#358 = EDGE_LOOP ( 'NONE', ( #138, #58, #353, #108 ) ) ;
#359 = DIMENSIONAL_EXPONENTS ( 1.000000000000000000, 0.000000000000000000, 0.000000000000000000, 0.000000000000000000, 0.000000000000000000, 0.000000000000000000, 0.000000000000000000 ) ;
ENDSEC;
END-ISO-10303-21;
