ISO-10303-21;
HEADER;
FILE_DESCRIPTION (( 'STEP AP214' ),
    '1' );
FILE_NAME ('Micro_SD-218.STEP',
    '2021-09-02T13:23:22',
    ( '' ),
    ( '' ),
    'SwSTEP 2.0',
    'SolidWorks 2020',
    '' );
FILE_SCHEMA (( 'AUTOMOTIVE_DESIGN' ));
ENDSEC;

DATA;
#1 = SURFACE_SIDE_STYLE ('',( #121 ) ) ;
#2 = EDGE_LOOP ( 'NONE', ( #67, #310, #13 ) ) ;
#3 = AXIS2_PLACEMENT_3D ( 'NONE', #267, #50, #142 ) ;
#4 = CARTESIAN_POINT ( 'NONE',  ( 0.0000000000000000000, 0.0000000000000000000, 1.985000000000000098 ) ) ;
#5 = CARTESIAN_POINT ( 'NONE',  ( 0.0000000000000000000, 0.0000000000000000000, 1.985000000000000098 ) ) ;
#6 = DIRECTION ( 'NONE',  ( 0.0000000000000000000, 0.0000000000000000000, 1.000000000000000000 ) ) ;
#7 = CARTESIAN_POINT ( 'NONE',  ( 0.0000000000000000000, 0.0000000000000000000, 0.0000000000000000000 ) ) ;
#8 = LINE ( 'NONE', #87, #99 ) ;
#9 = VECTOR ( 'NONE', #155, 39.37007874015748143 ) ;
#10 =( NAMED_UNIT ( * ) PLANE_ANGLE_UNIT ( ) SI_UNIT ( $, .RADIAN. ) );
#11 = DIRECTION ( 'NONE',  ( -0.0000000000000000000, -0.0000000000000000000, -1.000000000000000000 ) ) ;
#12 = EDGE_CURVE ( 'NONE', #91, #166, #272, .T. ) ;
#13 = ORIENTED_EDGE ( 'NONE', *, *, #226, .T. ) ;
#14 = VECTOR ( 'NONE', #150, 39.37007874015748143 ) ;
#15 = LINE ( 'NONE', #139, #41 ) ;
#16 = ORIENTED_EDGE ( 'NONE', *, *, #241, .T. ) ;
#17 = DIRECTION ( 'NONE',  ( 0.7071067811865491270, 8.659560562354951347E-17, -0.7071067811865459074 ) ) ;
#18 = CARTESIAN_POINT ( 'NONE',  ( 0.0000000000000000000, 0.0000000000000000000, 0.6189999999999999947 ) ) ;
#19 = STYLED_ITEM ( 'NONE', ( #27 ), #214 ) ;
#20 = ADVANCED_FACE ( 'NONE', ( #216 ), #112, .T. ) ;
#21 = FACE_OUTER_BOUND ( 'NONE', #246, .T. ) ;
#22 = APPLICATION_CONTEXT ( 'automotive_design' ) ;
#23 = ORIENTED_EDGE ( 'NONE', *, *, #208, .F. ) ;
#24 = EDGE_CURVE ( 'NONE', #68, #212, #15, .T. ) ;
#25 = PRESENTATION_LAYER_ASSIGNMENT (  '', '', ( #320 ) ) ;
#26 = CONICAL_SURFACE ( 'NONE', #204, 0.1093500000000000721, 0.7853981633974521648 ) ;
#27 = PRESENTATION_STYLE_ASSIGNMENT (( #220 ) ) ;
#28 = PRODUCT_DEFINITION ( 'UNKNOWN', '', #102, #82 ) ;
#29 = CARTESIAN_POINT ( 'NONE',  ( 0.0000000000000000000, 0.0000000000000000000, 0.6190499999999998781 ) ) ;
#30 = AXIS2_PLACEMENT_3D ( 'NONE', #234, #11, #231 ) ;
#31 = DIRECTION ( 'NONE',  ( -1.000000000000000000, 0.0000000000000000000, 0.0000000000000000000 ) ) ;
#32 = CIRCLE ( 'NONE', #257, 0.1093999999999999972 ) ;
#33 = DIRECTION ( 'NONE',  ( 1.000000000000000000, 0.0000000000000000000, -0.0000000000000000000 ) ) ;
#34 = CARTESIAN_POINT ( 'NONE',  ( 0.0000000000000000000, 0.0000000000000000000, 0.0000000000000000000 ) ) ;
#35 = ADVANCED_FACE ( 'NONE', ( #116 ), #100, .T. ) ;
#36 = AXIS2_PLACEMENT_3D ( 'NONE', #34, #156, #109 ) ;
#37 = LENGTH_MEASURE_WITH_UNIT ( LENGTH_MEASURE( 0.02539999999999999897 ), #210 );
#38 = LENGTH_MEASURE_WITH_UNIT ( LENGTH_MEASURE( 0.02539999999999999897 ), #103 );
#39 = CONICAL_SURFACE ( 'NONE', #152, 65.52281426576882950, 1.029744258676657198 ) ;
#40 = DIRECTION ( 'NONE',  ( -0.0000000000000000000, -0.0000000000000000000, -1.000000000000000000 ) ) ;
#41 = VECTOR ( 'NONE', #266, 39.37007874015748143 ) ;
#42 = EDGE_CURVE ( 'NONE', #68, #218, #237, .T. ) ;
#43 = ORIENTED_EDGE ( 'NONE', *, *, #173, .T. ) ;
#44 =( NAMED_UNIT ( * ) SI_UNIT ( $, .STERADIAN. ) SOLID_ANGLE_UNIT ( ) );
#45 = CARTESIAN_POINT ( 'NONE',  ( 0.0000000000000000000, 0.0000000000000000000, 2.000000000000000000 ) ) ;
#46 = EDGE_LOOP ( 'NONE', ( #93, #117, #198, #113 ) ) ;
#47 = CARTESIAN_POINT ( 'NONE',  ( -0.1093500000000000721, 1.339151274867631711E-17, 0.6189999999999999947 ) ) ;
#48 = LENGTH_MEASURE_WITH_UNIT ( LENGTH_MEASURE( 0.02539999999999999897 ), #119 );
#49 = EDGE_CURVE ( 'NONE', #166, #76, #141, .T. ) ;
#50 = DIRECTION ( 'NONE',  ( -0.0000000000000000000, -0.0000000000000000000, -1.000000000000000000 ) ) ;
#51 = FILL_AREA_STYLE ('',( #140 ) ) ;
#52 = DIMENSIONAL_EXPONENTS ( 1.000000000000000000, 0.0000000000000000000, 0.0000000000000000000, 0.0000000000000000000, 0.0000000000000000000, 0.0000000000000000000, 0.0000000000000000000 ) ;
#53 = FILL_AREA_STYLE_COLOUR ( '', #159 ) ;
#54 = DIRECTION ( 'NONE',  ( -1.000000000000000000, 0.0000000000000000000, 0.0000000000000000000 ) ) ;
#55 = LINE ( 'NONE', #85, #94 ) ;
#56 = ORIENTED_EDGE ( 'NONE', *, *, #79, .F. ) ;
#57 = CARTESIAN_POINT ( 'NONE',  ( -0.1093999999999999972, 0.0000000000000000000, 1.985000000000000098 ) ) ;
#58 = DIRECTION ( 'NONE',  ( -0.0000000000000000000, -0.0000000000000000000, -1.000000000000000000 ) ) ;
#59 = FACE_OUTER_BOUND ( 'NONE', #104, .T. ) ;
#60 =( GEOMETRIC_REPRESENTATION_CONTEXT ( 3 ) GLOBAL_UNCERTAINTY_ASSIGNED_CONTEXT ( ( #161 ) ) GLOBAL_UNIT_ASSIGNED_CONTEXT ( ( #299, #10, #177 ) ) REPRESENTATION_CONTEXT ( 'NONE', 'WORKASPACE' ) );
#61 = FACE_OUTER_BOUND ( 'NONE', #260, .T. ) ;
#62 = CYLINDRICAL_SURFACE ( 'NONE', #222, 0.1093500000000000444 ) ;
#63 = ORIENTED_EDGE ( 'NONE', *, *, #24, .T. ) ;
#64 = APPLICATION_PROTOCOL_DEFINITION ( 'draft international standard', 'automotive_design', 1998, #191 ) ;
#65 = ORIENTED_EDGE ( 'NONE', *, *, #12, .T. ) ;
#66 = UNCERTAINTY_MEASURE_WITH_UNIT (LENGTH_MEASURE( 1.000000000000000082E-05 ), #131, 'distance_accuracy_value', 'NONE');
#67 = ORIENTED_EDGE ( 'NONE', *, *, #241, .F. ) ;
#68 = VERTEX_POINT ( 'NONE', #188 ) ;
#69 = ORIENTED_EDGE ( 'NONE', *, *, #247, .F. ) ;
#70 =( NAMED_UNIT ( * ) PLANE_ANGLE_UNIT ( ) SI_UNIT ( $, .RADIAN. ) );
#71 = EDGE_CURVE ( 'NONE', #315, #68, #75, .T. ) ;
#72 = CARTESIAN_POINT ( 'NONE',  ( 0.0000000000000000000, 0.0000000000000000000, 2.000000000000000000 ) ) ;
#73 =( GEOMETRIC_REPRESENTATION_CONTEXT ( 3 ) GLOBAL_UNCERTAINTY_ASSIGNED_CONTEXT ( ( #199 ) ) GLOBAL_UNIT_ASSIGNED_CONTEXT ( ( #314, #239, #96 ) ) REPRESENTATION_CONTEXT ( 'NONE', 'WORKASPACE' ) );
#74 = CARTESIAN_POINT ( 'NONE',  ( 0.0000000000000000000, 0.0000000000000000000, 2.000000000000000000 ) ) ;
#75 = CIRCLE ( 'NONE', #3, 0.1093500000000000721 ) ;
#76 = VERTEX_POINT ( 'NONE', #309 ) ;
#77 = AXIS2_PLACEMENT_3D ( 'NONE', #5, #158, #258 ) ;
#78 = AXIS2_PLACEMENT_3D ( 'NONE', #276, #248, #193 ) ;
#79 = EDGE_CURVE ( 'NONE', #315, #291, #201, .T. ) ;
#80 = DIRECTION ( 'NONE',  ( -1.000000000000000000, 0.0000000000000000000, 0.0000000000000000000 ) ) ;
#81 = ORIENTED_EDGE ( 'NONE', *, *, #111, .T. ) ;
#82 = PRODUCT_DEFINITION_CONTEXT ( 'detailed design', #191, 'design' ) ;
#83 = DIRECTION ( 'NONE',  ( 0.0000000000000000000, 0.0000000000000000000, -1.000000000000000000 ) ) ;
#84 = ADVANCED_FACE ( 'NONE', ( #21 ), #301, .T. ) ;
#85 = CARTESIAN_POINT ( 'NONE',  ( 0.1093500000000000721, 0.0000000000000000000, 0.6189999999999999947 ) ) ;
#86 = CIRCLE ( 'NONE', #126, 0.1093500000000000028 ) ;
#87 = CARTESIAN_POINT ( 'NONE',  ( 0.0000000000000000000, 0.0000000000000000000, 0.0000000000000000000 ) ) ;
#88 = LINE ( 'NONE', #90, #14 ) ;
#89 = DIMENSIONAL_EXPONENTS ( 1.000000000000000000, 0.0000000000000000000, 0.0000000000000000000, 0.0000000000000000000, 0.0000000000000000000, 0.0000000000000000000, 0.0000000000000000000 ) ;
#90 = CARTESIAN_POINT ( 'NONE',  ( 0.1093999999999999972, 1.339763598267204431E-17, 2.000000000000000000 ) ) ;
#91 = VERTEX_POINT ( 'NONE', #319 ) ;
#92 = ORIENTED_EDGE ( 'NONE', *, *, #226, .F. ) ;
#93 = ORIENTED_EDGE ( 'NONE', *, *, #101, .T. ) ;
#94 = VECTOR ( 'NONE', #269, 39.37007874015748143 ) ;
#95 = ORIENTED_EDGE ( 'NONE', *, *, #323, .F. ) ;
#96 =( NAMED_UNIT ( * ) SI_UNIT ( $, .STERADIAN. ) SOLID_ANGLE_UNIT ( ) );
#97 = DIRECTION ( 'NONE',  ( -0.0000000000000000000, -0.0000000000000000000, -1.000000000000000000 ) ) ;
#98 = CARTESIAN_POINT ( 'NONE',  ( -0.09439999999999995617, 0.0000000000000000000, 2.000000000000000000 ) ) ;
#99 = VECTOR ( 'NONE', #281, 39.37007874015748854 ) ;
#100 = CONICAL_SURFACE ( 'NONE', #242, 0.09439999999999995617, 0.7853981633974506105 ) ;
#101 = EDGE_CURVE ( 'NONE', #223, #76, #322, .T. ) ;
#102 = PRODUCT_DEFINITION_FORMATION_WITH_SPECIFIED_SOURCE ( 'ANY', '', #273, .NOT_KNOWN. ) ;
#103 =( LENGTH_UNIT ( ) NAMED_UNIT ( * ) SI_UNIT ( $, .METRE. ) );
#104 = EDGE_LOOP ( 'NONE', ( #56, #196, #63, #95 ) ) ;
#105 = LINE ( 'NONE', #98, #9 ) ;
#106 = CARTESIAN_POINT ( 'NONE',  ( 0.1093500000000000721, 0.0000000000000000000, 0.6189999999999999947 ) ) ;
#107 = CARTESIAN_POINT ( 'NONE',  ( 0.0000000000000000000, 0.0000000000000000000, 39.37007874015748143 ) ) ;
#108 =( GEOMETRIC_REPRESENTATION_CONTEXT ( 3 ) GLOBAL_UNCERTAINTY_ASSIGNED_CONTEXT ( ( #66 ) ) GLOBAL_UNIT_ASSIGNED_CONTEXT ( ( #131, #70, #44 ) ) REPRESENTATION_CONTEXT ( 'NONE', 'WORKASPACE' ) );
#109 = DIRECTION ( 'NONE',  ( -1.000000000000000000, 0.0000000000000000000, 0.0000000000000000000 ) ) ;
#110 = VECTOR ( 'NONE', #167, 39.37007874015748143 ) ;
#111 = EDGE_CURVE ( 'NONE', #166, #91, #123, .T. ) ;
#112 = CYLINDRICAL_SURFACE ( 'NONE', #259, 0.1093999999999999972 ) ;
#113 = ORIENTED_EDGE ( 'NONE', *, *, #233, .F. ) ;
#114 = APPLICATION_PROTOCOL_DEFINITION ( 'draft international standard', 'automotive_design', 1998, #22 ) ;
#115 = VECTOR ( 'NONE', #17, 39.37007874015748143 ) ;
#116 = FACE_OUTER_BOUND ( 'NONE', #317, .T. ) ;
#117 = ORIENTED_EDGE ( 'NONE', *, *, #247, .T. ) ;
#118 = DIRECTION ( 'NONE',  ( 0.0000000000000000000, 0.0000000000000000000, 1.000000000000000000 ) ) ;
#119 =( LENGTH_UNIT ( ) NAMED_UNIT ( * ) SI_UNIT ( $, .METRE. ) );
#120 = FACE_OUTER_BOUND ( 'NONE', #270, .T. ) ;
#121 = SURFACE_STYLE_FILL_AREA ( #245 ) ;
#122 = ORIENTED_EDGE ( 'NONE', *, *, #136, .F. ) ;
#123 = CIRCLE ( 'NONE', #165, 0.09439999999999995617 ) ;
#124 = ORIENTED_EDGE ( 'NONE', *, *, #136, .T. ) ;
#125 = ADVANCED_FACE ( 'NONE', ( #295 ), #268, .T. ) ;
#126 = AXIS2_PLACEMENT_3D ( 'NONE', #232, #284, #202 ) ;
#127 = DIRECTION ( 'NONE',  ( -1.000000000000000000, 0.0000000000000000000, 0.0000000000000000000 ) ) ;
#128 = DIRECTION ( 'NONE',  ( 0.0000000000000000000, 0.0000000000000000000, 1.000000000000000000 ) ) ;
#129 = LINE ( 'NONE', #308, #224 ) ;
#130 = CARTESIAN_POINT ( 'NONE',  ( -0.1093999999999999972, 0.0000000000000000000, 2.000000000000000000 ) ) ;
#131 =( CONVERSION_BASED_UNIT ( 'INCH', #37 ) LENGTH_UNIT ( ) NAMED_UNIT ( #282 ) );
#132 = AXIS2_PLACEMENT_3D ( 'NONE', #18, #180, #54 ) ;
#133 = ADVANCED_FACE ( 'NONE', ( #120 ), #26, .T. ) ;
#134 = ORIENTED_EDGE ( 'NONE', *, *, #49, .F. ) ;
#135 = SHAPE_DEFINITION_REPRESENTATION ( #225, #178 ) ;
#136 = EDGE_CURVE ( 'NONE', #91, #223, #105, .T. ) ;
#137 = DIRECTION ( 'NONE',  ( -0.0000000000000000000, -0.0000000000000000000, -1.000000000000000000 ) ) ;
#138 = SURFACE_STYLE_USAGE ( .BOTH. , #168 ) ;
#139 = CARTESIAN_POINT ( 'NONE',  ( -0.1093500000000000444, 0.0000000000000000000, 0.0000000000000000000 ) ) ;
#140 = FILL_AREA_STYLE_COLOUR ( '', #277 ) ;
#141 = LINE ( 'NONE', #238, #115 ) ;
#142 = DIRECTION ( 'NONE',  ( -1.000000000000000000, 0.0000000000000000000, 0.0000000000000000000 ) ) ;
#143 = VECTOR ( 'NONE', #219, 39.37007874015748143 ) ;
#144 = FACE_OUTER_BOUND ( 'NONE', #263, .T. ) ;
#145 = ADVANCED_FACE ( 'NONE', ( #61 ), #243, .T. ) ;
#146 = DIRECTION ( 'NONE',  ( 0.0000000000000000000, 0.0000000000000000000, -1.000000000000000000 ) ) ;
#147 = ORIENTED_EDGE ( 'NONE', *, *, #154, .F. ) ;
#148 = DIRECTION ( 'NONE',  ( -0.0000000000000000000, -0.0000000000000000000, -1.000000000000000000 ) ) ;
#149 = ORIENTED_EDGE ( 'NONE', *, *, #24, .F. ) ;
#150 = DIRECTION ( 'NONE',  ( -0.0000000000000000000, -0.0000000000000000000, -1.000000000000000000 ) ) ;
#151 = CARTESIAN_POINT ( 'NONE',  ( 0.0000000000000000000, 0.0000000000000000000, 0.6190499999999998781 ) ) ;
#152 = AXIS2_PLACEMENT_3D ( 'NONE', #107, #306, #304 ) ;
#153 = CARTESIAN_POINT ( 'NONE',  ( -0.1093999999999999972, 0.0000000000000000000, 0.6190499999999998781 ) ) ;
#154 = EDGE_CURVE ( 'NONE', #315, #285, #55, .T. ) ;
#155 = DIRECTION ( 'NONE',  ( -0.7071067811865491270, 0.0000000000000000000, -0.7071067811865459074 ) ) ;
#156 = DIRECTION ( 'NONE',  ( -0.0000000000000000000, -0.0000000000000000000, -1.000000000000000000 ) ) ;
#157 = FACE_OUTER_BOUND ( 'NONE', #2, .T. ) ;
#158 = DIRECTION ( 'NONE',  ( 0.0000000000000000000, 0.0000000000000000000, -1.000000000000000000 ) ) ;
#159 = COLOUR_RGB ( '',0.7921568627450980005, 0.8196078431372548767, 0.9333333333333333481 ) ;
#160 = EDGE_LOOP ( 'NONE', ( #163, #244, #289, #147 ) ) ;
#161 = UNCERTAINTY_MEASURE_WITH_UNIT (LENGTH_MEASURE( 1.000000000000000082E-05 ), #299, 'distance_accuracy_value', 'NONE');
#162 = EDGE_LOOP ( 'NONE', ( #43, #213, #92, #149 ) ) ;
#163 = ORIENTED_EDGE ( 'NONE', *, *, #173, .F. ) ;
#164 = DIRECTION ( 'NONE',  ( 1.000000000000000000, 0.0000000000000000000, 0.0000000000000000000 ) ) ;
#165 = AXIS2_PLACEMENT_3D ( 'NONE', #227, #274, #203 ) ;
#166 = VERTEX_POINT ( 'NONE', #179 ) ;
#167 = DIRECTION ( 'NONE',  ( -0.7071067811865502373, 8.659560562354966138E-17, 0.7071067811865447972 ) ) ;
#168 = SURFACE_SIDE_STYLE ('',( #262 ) ) ;
#169 = DIRECTION ( 'NONE',  ( 1.000000000000000000, 0.0000000000000000000, 0.0000000000000000000 ) ) ;
#170 = AXIS2_PLACEMENT_3D ( 'NONE', #280, #148, #80 ) ;
#171 = CARTESIAN_POINT ( 'NONE',  ( 0.0000000000000000000, 0.0000000000000000000, 0.6189999999999999947 ) ) ;
#172 = AXIS2_PLACEMENT_3D ( 'NONE', #29, #58, #169 ) ;
#173 = EDGE_CURVE ( 'NONE', #68, #315, #271, .T. ) ;
#174 = AXIS2_PLACEMENT_3D ( 'NONE', #261, #118, #240 ) ;
#175 = CARTESIAN_POINT ( 'NONE',  ( 0.1093500000000000444, 1.339151274867631249E-17, 0.0000000000000000000 ) ) ;
#176 = ORIENTED_EDGE ( 'NONE', *, *, #12, .F. ) ;
#177 =( NAMED_UNIT ( * ) SI_UNIT ( $, .STERADIAN. ) SOLID_ANGLE_UNIT ( ) );
#178 = ADVANCED_BREP_SHAPE_REPRESENTATION ( 'Micro_SD-218', ( #214, #186 ), #108 ) ;
#179 = CARTESIAN_POINT ( 'NONE',  ( 0.09439999999999995617, 1.247915088331152528E-17, 2.000000000000000000 ) ) ;
#180 = DIRECTION ( 'NONE',  ( -0.0000000000000000000, -0.0000000000000000000, -1.000000000000000000 ) ) ;
#181 = CARTESIAN_POINT ( 'NONE',  ( 0.0000000000000000000, 0.0000000000000000000, 39.37007874015748143 ) ) ;
#182 = ORIENTED_EDGE ( 'NONE', *, *, #265, .F. ) ;
#183 = PRESENTATION_LAYER_ASSIGNMENT (  '', '', ( #19 ) ) ;
#184 = ORIENTED_EDGE ( 'NONE', *, *, #42, .F. ) ;
#185 = CARTESIAN_POINT ( 'NONE',  ( 0.0000000000000000000, 0.0000000000000000000, 2.000000000000000000 ) ) ;
#186 = AXIS2_PLACEMENT_3D ( 'NONE', #264, #316, #164 ) ;
#187 = DIRECTION ( 'NONE',  ( -1.000000000000000000, 0.0000000000000000000, 0.0000000000000000000 ) ) ;
#188 = CARTESIAN_POINT ( 'NONE',  ( -0.1093500000000000721, 1.339457436567418148E-17, 0.6189999999999999947 ) ) ;
#189 = ADVANCED_FACE ( 'NONE', ( #144 ), #39, .T. ) ;
#190 = DIRECTION ( 'NONE',  ( 1.000000000000000000, 0.0000000000000000000, 0.0000000000000000000 ) ) ;
#191 = APPLICATION_CONTEXT ( 'automotive_design' ) ;
#192 = ADVANCED_FACE ( 'NONE', ( #318 ), #217, .T. ) ;
#193 = DIRECTION ( 'NONE',  ( 1.000000000000000000, 0.0000000000000000000, 0.0000000000000000000 ) ) ;
#194 = CIRCLE ( 'NONE', #172, 0.1093999999999999972 ) ;
#195 = ORIENTED_EDGE ( 'NONE', *, *, #294, .F. ) ;
#196 = ORIENTED_EDGE ( 'NONE', *, *, #71, .T. ) ;
#197 = AXIS2_PLACEMENT_3D ( 'NONE', #181, #305, #283 ) ;
#198 = ORIENTED_EDGE ( 'NONE', *, *, #200, .F. ) ;
#199 = UNCERTAINTY_MEASURE_WITH_UNIT (LENGTH_MEASURE( 1.000000000000000082E-05 ), #314, 'distance_accuracy_value', 'NONE');
#200 = EDGE_CURVE ( 'NONE', #218, #285, #194, .T. ) ;
#201 = LINE ( 'NONE', #175, #143 ) ;
#202 = DIRECTION ( 'NONE',  ( -1.000000000000000000, 0.0000000000000000000, 0.0000000000000000000 ) ) ;
#203 = DIRECTION ( 'NONE',  ( 1.000000000000000000, 0.0000000000000000000, 0.0000000000000000000 ) ) ;
#204 = AXIS2_PLACEMENT_3D ( 'NONE', #171, #6, #252 ) ;
#205 = CARTESIAN_POINT ( 'NONE',  ( 0.1093999999999999972, 1.339763598267204431E-17, 0.6190499999999998781 ) ) ;
#206 = CLOSED_SHELL ( 'NONE', ( #298, #256, #192, #125, #20, #145, #84, #35, #133, #303, #189 ) ) ;
#207 = CYLINDRICAL_SURFACE ( 'NONE', #36, 0.1093500000000000444 ) ;
#208 = EDGE_CURVE ( 'NONE', #285, #218, #32, .T. ) ;
#209 = DIRECTION ( 'NONE',  ( 0.0000000000000000000, 0.0000000000000000000, -1.000000000000000000 ) ) ;
#210 =( LENGTH_UNIT ( ) NAMED_UNIT ( * ) SI_UNIT ( $, .METRE. ) );
#211 = ORIENTED_EDGE ( 'NONE', *, *, #233, .T. ) ;
#212 = VERTEX_POINT ( 'NONE', #292 ) ;
#213 = ORIENTED_EDGE ( 'NONE', *, *, #79, .T. ) ;
#214 = MANIFOLD_SOLID_BREP ( 'Cut-Revolve2', #206 ) ;
#215 = CIRCLE ( 'NONE', #77, 0.1093999999999999972 ) ;
#216 = FACE_OUTER_BOUND ( 'NONE', #46, .T. ) ;
#217 = CONICAL_SURFACE ( 'NONE', #78, 0.1093500000000000721, 0.7853981633974521648 ) ;
#218 = VERTEX_POINT ( 'NONE', #153 ) ;
#219 = DIRECTION ( 'NONE',  ( -0.0000000000000000000, -0.0000000000000000000, -1.000000000000000000 ) ) ;
#220 = SURFACE_STYLE_USAGE ( .BOTH. , #1 ) ;
#221 = VERTEX_POINT ( 'NONE', #7 ) ;
#222 = AXIS2_PLACEMENT_3D ( 'NONE', #229, #40, #31 ) ;
#223 = VERTEX_POINT ( 'NONE', #57 ) ;
#224 = VECTOR ( 'NONE', #250, 39.37007874015748854 ) ;
#225 = PRODUCT_DEFINITION_SHAPE ( 'NONE', 'NONE',  #28 ) ;
#226 = EDGE_CURVE ( 'NONE', #212, #291, #86, .T. ) ;
#227 = CARTESIAN_POINT ( 'NONE',  ( 0.0000000000000000000, 0.0000000000000000000, 2.000000000000000000 ) ) ;
#228 = MECHANICAL_DESIGN_GEOMETRIC_PRESENTATION_REPRESENTATION (  '', ( #19 ), #60 ) ;
#229 = CARTESIAN_POINT ( 'NONE',  ( 0.0000000000000000000, 0.0000000000000000000, 0.0000000000000000000 ) ) ;
#230 = DIRECTION ( 'NONE',  ( 1.000000000000000000, 0.0000000000000000000, 0.0000000000000000000 ) ) ;
#231 = DIRECTION ( 'NONE',  ( -1.000000000000000000, 0.0000000000000000000, 0.0000000000000000000 ) ) ;
#232 = CARTESIAN_POINT ( 'NONE',  ( 0.0000000000000000000, 0.0000000000000000000, 0.06570410869066331538 ) ) ;
#233 = EDGE_CURVE ( 'NONE', #223, #218, #307, .T. ) ;
#234 = CARTESIAN_POINT ( 'NONE',  ( 0.0000000000000000000, 0.0000000000000000000, 0.06570410869066331538 ) ) ;
#235 = EDGE_LOOP ( 'NONE', ( #321, #302, #275, #122 ) ) ;
#236 = ORIENTED_EDGE ( 'NONE', *, *, #265, .T. ) ;
#237 = LINE ( 'NONE', #47, #110 ) ;
#238 = CARTESIAN_POINT ( 'NONE',  ( 0.09439999999999995617, 1.156066578395100932E-17, 2.000000000000000000 ) ) ;
#239 =( NAMED_UNIT ( * ) PLANE_ANGLE_UNIT ( ) SI_UNIT ( $, .RADIAN. ) );
#240 = DIRECTION ( 'NONE',  ( 1.000000000000000000, 0.0000000000000000000, 0.0000000000000000000 ) ) ;
#241 = EDGE_CURVE ( 'NONE', #221, #291, #8, .T. ) ;
#242 = AXIS2_PLACEMENT_3D ( 'NONE', #185, #209, #287 ) ;
#243 = CYLINDRICAL_SURFACE ( 'NONE', #170, 0.1093999999999999972 ) ;
#244 = ORIENTED_EDGE ( 'NONE', *, *, #42, .T. ) ;
#245 = FILL_AREA_STYLE ('',( #53 ) ) ;
#246 = EDGE_LOOP ( 'NONE', ( #65, #81 ) ) ;
#247 = EDGE_CURVE ( 'NONE', #76, #285, #88, .T. ) ;
#248 = DIRECTION ( 'NONE',  ( 0.0000000000000000000, 0.0000000000000000000, 1.000000000000000000 ) ) ;
#249 = ORIENTED_EDGE ( 'NONE', *, *, #208, .T. ) ;
#250 = DIRECTION ( 'NONE',  ( -0.8571673007021137769, 1.049727191138620298E-16, 0.5150380749100518241 ) ) ;
#251 = VECTOR ( 'NONE', #278, 39.37007874015748143 ) ;
#252 = DIRECTION ( 'NONE',  ( 1.000000000000000000, 0.0000000000000000000, 0.0000000000000000000 ) ) ;
#253 = CARTESIAN_POINT ( 'NONE',  ( 0.1093500000000000028, 1.339151274867631095E-17, 0.06570410869066331538 ) ) ;
#254 = FACE_OUTER_BOUND ( 'NONE', #162, .T. ) ;
#255 = CONICAL_SURFACE ( 'NONE', #197, 65.52281426576882950, 1.029744258676657198 ) ;
#256 = ADVANCED_FACE ( 'NONE', ( #254 ), #207, .T. ) ;
#257 = AXIS2_PLACEMENT_3D ( 'NONE', #151, #97, #190 ) ;
#258 = DIRECTION ( 'NONE',  ( 1.000000000000000000, 0.0000000000000000000, 0.0000000000000000000 ) ) ;
#259 = AXIS2_PLACEMENT_3D ( 'NONE', #45, #137, #187 ) ;
#260 = EDGE_LOOP ( 'NONE', ( #69, #236, #211, #23 ) ) ;
#261 = CARTESIAN_POINT ( 'NONE',  ( 0.0000000000000000000, 0.0000000000000000000, 2.000000000000000000 ) ) ;
#262 = SURFACE_STYLE_FILL_AREA ( #51 ) ;
#263 = EDGE_LOOP ( 'NONE', ( #195, #16, #313 ) ) ;
#264 = CARTESIAN_POINT ( 'NONE',  ( 0.0000000000000000000, 0.0000000000000000000, 0.0000000000000000000 ) ) ;
#265 = EDGE_CURVE ( 'NONE', #76, #223, #215, .T. ) ;
#266 = DIRECTION ( 'NONE',  ( -0.0000000000000000000, -0.0000000000000000000, -1.000000000000000000 ) ) ;
#267 = CARTESIAN_POINT ( 'NONE',  ( 0.0000000000000000000, 0.0000000000000000000, 0.6189999999999999947 ) ) ;
#268 = CONICAL_SURFACE ( 'NONE', #279, 0.09439999999999995617, 0.7853981633974506105 ) ;
#269 = DIRECTION ( 'NONE',  ( 0.7071067811865502373, 0.0000000000000000000, 0.7071067811865447972 ) ) ;
#270 = EDGE_LOOP ( 'NONE', ( #184, #286, #297, #249 ) ) ;
#271 = CIRCLE ( 'NONE', #132, 0.1093500000000000721 ) ;
#272 = CIRCLE ( 'NONE', #174, 0.09439999999999995617 ) ;
#273 = PRODUCT ( 'Micro_SD-218', 'Micro_SD-218', '', ( #290 ) ) ;
#274 = DIRECTION ( 'NONE',  ( 0.0000000000000000000, 0.0000000000000000000, 1.000000000000000000 ) ) ;
#275 = ORIENTED_EDGE ( 'NONE', *, *, #101, .F. ) ;
#276 = CARTESIAN_POINT ( 'NONE',  ( 0.0000000000000000000, 0.0000000000000000000, 0.6189999999999999947 ) ) ;
#277 = COLOUR_RGB ( '',0.7921568627450980005, 0.8196078431372548767, 0.9333333333333333481 ) ;
#278 = DIRECTION ( 'NONE',  ( -0.0000000000000000000, -0.0000000000000000000, -1.000000000000000000 ) ) ;
#279 = AXIS2_PLACEMENT_3D ( 'NONE', #74, #146, #127 ) ;
#280 = CARTESIAN_POINT ( 'NONE',  ( 0.0000000000000000000, 0.0000000000000000000, 2.000000000000000000 ) ) ;
#281 = DIRECTION ( 'NONE',  ( 0.8571673007021137769, 0.0000000000000000000, 0.5150380749100518241 ) ) ;
#282 = DIMENSIONAL_EXPONENTS ( 1.000000000000000000, 0.0000000000000000000, 0.0000000000000000000, 0.0000000000000000000, 0.0000000000000000000, 0.0000000000000000000, 0.0000000000000000000 ) ;
#283 = DIRECTION ( 'NONE',  ( 1.000000000000000000, 0.0000000000000000000, 0.0000000000000000000 ) ) ;
#284 = DIRECTION ( 'NONE',  ( -0.0000000000000000000, -0.0000000000000000000, -1.000000000000000000 ) ) ;
#285 = VERTEX_POINT ( 'NONE', #205 ) ;
#286 = ORIENTED_EDGE ( 'NONE', *, *, #71, .F. ) ;
#287 = DIRECTION ( 'NONE',  ( -1.000000000000000000, 0.0000000000000000000, 0.0000000000000000000 ) ) ;
#288 = MECHANICAL_DESIGN_GEOMETRIC_PRESENTATION_REPRESENTATION (  '', ( #320 ), #73 ) ;
#289 = ORIENTED_EDGE ( 'NONE', *, *, #200, .T. ) ;
#290 = PRODUCT_CONTEXT ( 'NONE', #22, 'mechanical' ) ;
#291 = VERTEX_POINT ( 'NONE', #253 ) ;
#292 = CARTESIAN_POINT ( 'NONE',  ( -0.1093500000000000028, 0.0000000000000000000, 0.06570410869066331538 ) ) ;
#293 = CIRCLE ( 'NONE', #30, 0.1093500000000000028 ) ;
#294 = EDGE_CURVE ( 'NONE', #221, #212, #129, .T. ) ;
#295 = FACE_OUTER_BOUND ( 'NONE', #235, .T. ) ;
#296 = AXIS2_PLACEMENT_3D ( 'NONE', #72, #128, #33 ) ;
#297 = ORIENTED_EDGE ( 'NONE', *, *, #154, .T. ) ;
#298 = ADVANCED_FACE ( 'NONE', ( #157 ), #255, .T. ) ;
#299 =( CONVERSION_BASED_UNIT ( 'INCH', #38 ) LENGTH_UNIT ( ) NAMED_UNIT ( #89 ) );
#300 = AXIS2_PLACEMENT_3D ( 'NONE', #4, #83, #230 ) ;
#301 = PLANE ( 'NONE',  #296 ) ;
#302 = ORIENTED_EDGE ( 'NONE', *, *, #49, .T. ) ;
#303 = ADVANCED_FACE ( 'NONE', ( #59 ), #62, .T. ) ;
#304 = DIRECTION ( 'NONE',  ( 1.000000000000000000, 0.0000000000000000000, 0.0000000000000000000 ) ) ;
#305 = DIRECTION ( 'NONE',  ( 0.0000000000000000000, 0.0000000000000000000, 1.000000000000000000 ) ) ;
#306 = DIRECTION ( 'NONE',  ( 0.0000000000000000000, 0.0000000000000000000, 1.000000000000000000 ) ) ;
#307 = LINE ( 'NONE', #130, #251 ) ;
#308 = CARTESIAN_POINT ( 'NONE',  ( 0.0000000000000000000, 0.0000000000000000000, 0.0000000000000000000 ) ) ;
#309 = CARTESIAN_POINT ( 'NONE',  ( 0.1093999999999999972, 1.339763598267204431E-17, 1.985000000000000098 ) ) ;
#310 = ORIENTED_EDGE ( 'NONE', *, *, #294, .T. ) ;
#311 = PRESENTATION_STYLE_ASSIGNMENT (( #138 ) ) ;
#312 = PRODUCT_RELATED_PRODUCT_CATEGORY ( 'part', '', ( #273 ) ) ;
#313 = ORIENTED_EDGE ( 'NONE', *, *, #323, .T. ) ;
#314 =( CONVERSION_BASED_UNIT ( 'INCH', #48 ) LENGTH_UNIT ( ) NAMED_UNIT ( #52 ) );
#315 = VERTEX_POINT ( 'NONE', #106 ) ;
#316 = DIRECTION ( 'NONE',  ( 0.0000000000000000000, 0.0000000000000000000, 1.000000000000000000 ) ) ;
#317 = EDGE_LOOP ( 'NONE', ( #134, #176, #124, #182 ) ) ;
#318 = FACE_OUTER_BOUND ( 'NONE', #160, .T. ) ;
#319 = CARTESIAN_POINT ( 'NONE',  ( -0.09439999999999995617, 0.0000000000000000000, 2.000000000000000000 ) ) ;
#320 = STYLED_ITEM ( 'NONE', ( #311 ), #178 ) ;
#321 = ORIENTED_EDGE ( 'NONE', *, *, #111, .F. ) ;
#322 = CIRCLE ( 'NONE', #300, 0.1093999999999999972 ) ;
#323 = EDGE_CURVE ( 'NONE', #291, #212, #293, .T. ) ;
ENDSEC;
END-ISO-10303-21;
