ISO-10303-21;
HEADER;
FILE_DESCRIPTION (( 'STEP AP214' ),
    '1' );
FILE_NAME ('81942.STEP',
    '2023-06-23T04:03:46',
    ( '' ),
    ( '' ),
    'SwSTEP 2.0',
    'SolidWorks 2023',
    '' );
FILE_SCHEMA (( 'AUTOMOTIVE_DESIGN' ));
ENDSEC;

DATA;
#1 = CARTESIAN_POINT ( 'NONE',  ( 0.000000000000000000, 0.000000000000000000, 0.000000000000000000 ) ) ;
#2 =( NAMED_UNIT ( * ) SI_UNIT ( $, .STERADIAN. ) SOLID_ANGLE_UNIT ( ) );
#3 = CARTESIAN_POINT ( 'NONE',  ( 0.000000000000000000, 1.250000000000000000, 0.000000000000000000 ) ) ;
#4 = LINE ( 'NONE', #277, #112 ) ;
#5 =( LENGTH_UNIT ( ) NAMED_UNIT ( * ) SI_UNIT ( $, .METRE. ) );
#6 =( GEOMETRIC_REPRESENTATION_CONTEXT ( 3 ) GLOBAL_UNCERTAINTY_ASSIGNED_CONTEXT ( ( #184 ) ) GLOBAL_UNIT_ASSIGNED_CONTEXT ( ( #33, #10, #252 ) ) REPRESENTATION_CONTEXT ( 'NONE', 'WORKASPACE' ) );
#7 =( NAMED_UNIT ( * ) SI_UNIT ( $, .STERADIAN. ) SOLID_ANGLE_UNIT ( ) );
#8 = PRODUCT_DEFINITION_CONTEXT ( 'detailed design', #75, 'design' ) ;
#9 = LENGTH_MEASURE_WITH_UNIT ( LENGTH_MEASURE( 0.02539999999999999897 ), #222 );
#10 =( NAMED_UNIT ( * ) PLANE_ANGLE_UNIT ( ) SI_UNIT ( $, .RADIAN. ) );
#11 = VERTEX_POINT ( 'NONE', #38 ) ;
#12 =( GEOMETRIC_REPRESENTATION_CONTEXT ( 3 ) GLOBAL_UNCERTAINTY_ASSIGNED_CONTEXT ( ( #168 ) ) GLOBAL_UNIT_ASSIGNED_CONTEXT ( ( #72, #156, #266 ) ) REPRESENTATION_CONTEXT ( 'NONE', 'WORKASPACE' ) );
#13 = LENGTH_MEASURE_WITH_UNIT ( LENGTH_MEASURE( 0.02539999999999999897 ), #53 );
#14 = ORIENTED_EDGE ( 'NONE', *, *, #46, .F. ) ;
#15 = EDGE_LOOP ( 'NONE', ( #17, #118, #101, #300 ) ) ;
#16 = AXIS2_PLACEMENT_3D ( 'NONE', #155, #242, #106 ) ;
#17 = ORIENTED_EDGE ( 'NONE', *, *, #220, .F. ) ;
#18 = SURFACE_SIDE_STYLE ('',( #35 ) ) ;
#19 = PRESENTATION_LAYER_ASSIGNMENT (  '', '', ( #180 ) ) ;
#20 = ADVANCED_FACE ( 'NONE', ( #281 ), #143, .F. ) ;
#21 = DIMENSIONAL_EXPONENTS ( 1.000000000000000000, 0.000000000000000000, 0.000000000000000000, 0.000000000000000000, 0.000000000000000000, 0.000000000000000000, 0.000000000000000000 ) ;
#22 = DIRECTION ( 'NONE',  ( 2.721437331438560697E-17, -1.000000000000000000, 0.000000000000000000 ) ) ;
#23 = CARTESIAN_POINT ( 'NONE',  ( -6.123233995736759873E-17, 3.500000000000000000, 0.000000000000000000 ) ) ;
#24 = AXIS2_PLACEMENT_3D ( 'NONE', #205, #80, #83 ) ;
#25 = CARTESIAN_POINT ( 'NONE',  ( 0.000000000000000000, 1.250000000000000000, 0.000000000000000000 ) ) ;
#26 = FILL_AREA_STYLE ('',( #135 ) ) ;
#27 = DIRECTION ( 'NONE',  ( 0.000000000000000000, 1.000000000000000000, 0.000000000000000000 ) ) ;
#28 = DIRECTION ( 'NONE',  ( -0.000000000000000000, -1.000000000000000000, -0.000000000000000000 ) ) ;
#29 = VERTEX_POINT ( 'NONE', #40 ) ;
#30 = PRESENTATION_STYLE_ASSIGNMENT (( #273 ) ) ;
#31 = EDGE_LOOP ( 'NONE', ( #208, #14 ) ) ;
#32 = APPLICATION_PROTOCOL_DEFINITION ( 'draft international standard', 'automotive_design', 1998, #75 ) ;
#33 =( CONVERSION_BASED_UNIT ( 'INCH', #249 ) LENGTH_UNIT ( ) NAMED_UNIT ( #63 ) );
#34 = COLOUR_RGB ( '',0.7921568627450980005, 0.8196078431372548767, 0.9333333333333333481 ) ;
#35 = SURFACE_STYLE_FILL_AREA ( #278 ) ;
#36 = UNCERTAINTY_MEASURE_WITH_UNIT (LENGTH_MEASURE( 1.000000000000000082E-05 ), #287, 'distance_accuracy_value', 'NONE');
#37 = PLANE ( 'NONE',  #128 ) ;
#38 = CARTESIAN_POINT ( 'NONE',  ( 0.3125000000000000000, 1.250000000000000000, 3.827021247335478926E-17 ) ) ;
#39 = VECTOR ( 'NONE', #280, 39.37007874015748143 ) ;
#40 = CARTESIAN_POINT ( 'NONE',  ( -0.3125000000000000000, 1.250000000000000000, 0.000000000000000000 ) ) ;
#41 = LENGTH_MEASURE_WITH_UNIT ( LENGTH_MEASURE( 0.02539999999999999897 ), #292 );
#42 = DIMENSIONAL_EXPONENTS ( 1.000000000000000000, 0.000000000000000000, 0.000000000000000000, 0.000000000000000000, 0.000000000000000000, 0.000000000000000000, 0.000000000000000000 ) ;
#43 = DIRECTION ( 'NONE',  ( -1.000000000000000000, 0.000000000000000000, 0.000000000000000000 ) ) ;
#44 = CARTESIAN_POINT ( 'NONE',  ( 0.000000000000000000, 0.000000000000000000, 0.000000000000000000 ) ) ;
#45 =( CONVERSION_BASED_UNIT ( 'INCH', #41 ) LENGTH_UNIT ( ) NAMED_UNIT ( #130 ) );
#46 = EDGE_CURVE ( 'NONE', #86, #102, #62, .T. ) ;
#47 = DIRECTION ( 'NONE',  ( -1.000000000000000000, 0.000000000000000000, 0.000000000000000000 ) ) ;
#48 = CARTESIAN_POINT ( 'NONE',  ( 0.000000000000000000, 0.000000000000000000, 0.000000000000000000 ) ) ;
#49 = FILL_AREA_STYLE ('',( #82 ) ) ;
#50 = AXIS2_PLACEMENT_3D ( 'NONE', #215, #120, #307 ) ;
#51 = PRESENTATION_LAYER_ASSIGNMENT (  '', '', ( #221 ) ) ;
#52 = SURFACE_SIDE_STYLE ('',( #91 ) ) ;
#53 =( LENGTH_UNIT ( ) NAMED_UNIT ( * ) SI_UNIT ( $, .METRE. ) );
#54 = EDGE_LOOP ( 'NONE', ( #164, #269 ) ) ;
#55 = DIRECTION ( 'NONE',  ( -2.721437331438560697E-17, 1.000000000000000000, -0.000000000000000000 ) ) ;
#56 = AXIS2_PLACEMENT_3D ( 'NONE', #206, #223, #296 ) ;
#57 = COLOUR_RGB ( '',0.7921568627450980005, 0.8196078431372548767, 0.9333333333333333481 ) ;
#58 = ORIENTED_EDGE ( 'NONE', *, *, #297, .F. ) ;
#59 = ORIENTED_EDGE ( 'NONE', *, *, #148, .T. ) ;
#60 = SURFACE_STYLE_USAGE ( .BOTH. , #257 ) ;
#61 = PRODUCT ( '81942', '81942', '', ( #137 ) ) ;
#62 = CIRCLE ( 'NONE', #94, 0.3125000000000000000 ) ;
#63 = DIMENSIONAL_EXPONENTS ( 1.000000000000000000, 0.000000000000000000, 0.000000000000000000, 0.000000000000000000, 0.000000000000000000, 0.000000000000000000, 0.000000000000000000 ) ;
#64 = SURFACE_STYLE_USAGE ( .BOTH. , #18 ) ;
#65 = ADVANCED_FACE ( 'NONE', ( #306 ), #37, .F. ) ;
#66 = DIRECTION ( 'NONE',  ( -0.000000000000000000, -1.000000000000000000, -0.000000000000000000 ) ) ;
#67 = PRODUCT_DEFINITION_SHAPE ( 'NONE', 'NONE',  #160 ) ;
#68 = PRESENTATION_LAYER_ASSIGNMENT (  '', '', ( #111 ) ) ;
#69 =( GEOMETRIC_REPRESENTATION_CONTEXT ( 3 ) GLOBAL_UNCERTAINTY_ASSIGNED_CONTEXT ( ( #36 ) ) GLOBAL_UNIT_ASSIGNED_CONTEXT ( ( #287, #201, #7 ) ) REPRESENTATION_CONTEXT ( 'NONE', 'WORKASPACE' ) );
#70 = FACE_OUTER_BOUND ( 'NONE', #15, .T. ) ;
#71 =( CONVERSION_BASED_UNIT ( 'INCH', #176 ) LENGTH_UNIT ( ) NAMED_UNIT ( #107 ) );
#72 =( CONVERSION_BASED_UNIT ( 'INCH', #264 ) LENGTH_UNIT ( ) NAMED_UNIT ( #103 ) );
#73 = FILL_AREA_STYLE ('',( #288 ) ) ;
#74 = COLOUR_RGB ( '',1.000000000000000000, 0.000000000000000000, 0.000000000000000000 ) ;
#75 = APPLICATION_CONTEXT ( 'automotive_design' ) ;
#76 = CIRCLE ( 'NONE', #133, 0.3125000000000000000 ) ;
#77 = EDGE_CURVE ( 'NONE', #102, #115, #165, .T. ) ;
#78 = DIRECTION ( 'NONE',  ( -2.721437331438560389E-17, 1.000000000000000000, -0.000000000000000000 ) ) ;
#79 = DIRECTION ( 'NONE',  ( 0.000000000000000000, 0.000000000000000000, -1.000000000000000000 ) ) ;
#80 = DIRECTION ( 'NONE',  ( -2.721437331438560389E-17, 1.000000000000000000, -0.000000000000000000 ) ) ;
#81 = ADVANCED_BREP_SHAPE_REPRESENTATION ( '81942', ( #188, #191, #119 ), #69 ) ;
#82 = FILL_AREA_STYLE_COLOUR ( '', #57 ) ;
#83 = DIRECTION ( 'NONE',  ( -1.000000000000000000, 0.000000000000000000, 0.000000000000000000 ) ) ;
#84 = PRODUCT_RELATED_PRODUCT_CATEGORY ( 'part', '', ( #61 ) ) ;
#85 = DIRECTION ( 'NONE',  ( -0.000000000000000000, -1.000000000000000000, -0.000000000000000000 ) ) ;
#86 = VERTEX_POINT ( 'NONE', #284 ) ;
#87 = STYLED_ITEM ( 'NONE', ( #226 ), #191 ) ;
#88 = DIRECTION ( 'NONE',  ( 0.000000000000000000, 0.000000000000000000, 1.000000000000000000 ) ) ;
#89 = SURFACE_STYLE_USAGE ( .BOTH. , #114 ) ;
#90 = SHAPE_DEFINITION_REPRESENTATION ( #67, #81 ) ;
#91 = SURFACE_STYLE_FILL_AREA ( #116 ) ;
#92 = DIRECTION ( 'NONE',  ( -0.000000000000000000, -1.000000000000000000, -0.000000000000000000 ) ) ;
#93 = EDGE_LOOP ( 'NONE', ( #158, #59 ) ) ;
#94 = AXIS2_PLACEMENT_3D ( 'NONE', #303, #66, #259 ) ;
#95 = MECHANICAL_DESIGN_GEOMETRIC_PRESENTATION_REPRESENTATION (  '', ( #221 ), #12 ) ;
#96 = EDGE_LOOP ( 'NONE', ( #58, #250 ) ) ;
#97 = DIRECTION ( 'NONE',  ( 1.000000000000000000, 2.721437331438560697E-17, 0.000000000000000000 ) ) ;
#98 = ADVANCED_FACE ( 'NONE', ( #70 ), #145, .T. ) ;
#99 = ORIENTED_EDGE ( 'NONE', *, *, #193, .T. ) ;
#100 = PRESENTATION_LAYER_ASSIGNMENT (  '', '', ( #309 ) ) ;
#101 = ORIENTED_EDGE ( 'NONE', *, *, #77, .T. ) ;
#102 = VERTEX_POINT ( 'NONE', #171 ) ;
#103 = DIMENSIONAL_EXPONENTS ( 1.000000000000000000, 0.000000000000000000, 0.000000000000000000, 0.000000000000000000, 0.000000000000000000, 0.000000000000000000, 0.000000000000000000 ) ;
#104 = DIRECTION ( 'NONE',  ( -1.000000000000000000, 0.000000000000000000, 0.000000000000000000 ) ) ;
#105 = DIRECTION ( 'NONE',  ( 0.000000000000000000, -1.000000000000000000, -0.000000000000000000 ) ) ;
#106 = DIRECTION ( 'NONE',  ( -1.000000000000000000, 0.000000000000000000, 0.000000000000000000 ) ) ;
#107 = DIMENSIONAL_EXPONENTS ( 1.000000000000000000, 0.000000000000000000, 0.000000000000000000, 0.000000000000000000, 0.000000000000000000, 0.000000000000000000, 0.000000000000000000 ) ;
#108 = PRESENTATION_STYLE_ASSIGNMENT (( #219 ) ) ;
#109 = ADVANCED_FACE ( 'NONE', ( #210 ), #147, .T. ) ;
#110 =( LENGTH_UNIT ( ) NAMED_UNIT ( * ) SI_UNIT ( $, .METRE. ) );
#111 = STYLED_ITEM ( 'NONE', ( #166 ), #109 ) ;
#112 = VECTOR ( 'NONE', #55, 39.37007874015748143 ) ;
#113 = DIRECTION ( 'NONE',  ( 0.000000000000000000, -0.000000000000000000, 1.000000000000000000 ) ) ;
#114 = SURFACE_SIDE_STYLE ('',( #127 ) ) ;
#115 = VERTEX_POINT ( 'NONE', #262 ) ;
#116 = FILL_AREA_STYLE ('',( #117 ) ) ;
#117 = FILL_AREA_STYLE_COLOUR ( '', #149 ) ;
#118 = ORIENTED_EDGE ( 'NONE', *, *, #46, .T. ) ;
#119 = AXIS2_PLACEMENT_3D ( 'NONE', #44, #88, #298 ) ;
#120 = DIRECTION ( 'NONE',  ( -0.000000000000000000, -1.000000000000000000, -0.000000000000000000 ) ) ;
#121 = EDGE_CURVE ( 'NONE', #224, #182, #179, .T. ) ;
#122 = ORIENTED_EDGE ( 'NONE', *, *, #142, .F. ) ;
#123 = STYLED_ITEM ( 'NONE', ( #282 ), #98 ) ;
#124 = ORIENTED_EDGE ( 'NONE', *, *, #274, .F. ) ;
#125 = FILL_AREA_STYLE_COLOUR ( '', #74 ) ;
#126 = DIMENSIONAL_EXPONENTS ( 1.000000000000000000, 0.000000000000000000, 0.000000000000000000, 0.000000000000000000, 0.000000000000000000, 0.000000000000000000, 0.000000000000000000 ) ;
#127 = SURFACE_STYLE_FILL_AREA ( #49 ) ;
#128 = AXIS2_PLACEMENT_3D ( 'NONE', #214, #22, #97 ) ;
#129 = CARTESIAN_POINT ( 'NONE',  ( 0.000000000000000000, 1.250000000000000000, 0.000000000000000000 ) ) ;
#130 = DIMENSIONAL_EXPONENTS ( 1.000000000000000000, 0.000000000000000000, 0.000000000000000000, 0.000000000000000000, 0.000000000000000000, 0.000000000000000000, 0.000000000000000000 ) ;
#131 =( NAMED_UNIT ( * ) SI_UNIT ( $, .STERADIAN. ) SOLID_ANGLE_UNIT ( ) );
#132 = CARTESIAN_POINT ( 'NONE',  ( -0.3125000000000000555, 3.500000000000000000, 0.000000000000000000 ) ) ;
#133 = AXIS2_PLACEMENT_3D ( 'NONE', #3, #78, #47 ) ;
#134 = UNCERTAINTY_MEASURE_WITH_UNIT (LENGTH_MEASURE( 1.000000000000000082E-05 ), #136, 'distance_accuracy_value', 'NONE');
#135 = FILL_AREA_STYLE_COLOUR ( '', #260 ) ;
#136 =( CONVERSION_BASED_UNIT ( 'INCH', #13 ) LENGTH_UNIT ( ) NAMED_UNIT ( #21 ) );
#137 = PRODUCT_CONTEXT ( 'NONE', #229, 'mechanical' ) ;
#138 = CIRCLE ( 'NONE', #162, 0.3125000000000000000 ) ;
#139 = EDGE_CURVE ( 'NONE', #11, #29, #138, .T. ) ;
#140 = ORIENTED_EDGE ( 'NONE', *, *, #197, .T. ) ;
#141 = ORIENTED_EDGE ( 'NONE', *, *, #274, .T. ) ;
#142 = EDGE_CURVE ( 'NONE', #115, #302, #276, .T. ) ;
#143 = PLANE ( 'NONE',  #263 ) ;
#144 = DIRECTION ( 'NONE',  ( -1.000000000000000000, -2.721437331438560697E-17, 0.000000000000000000 ) ) ;
#145 = CYLINDRICAL_SURFACE ( 'NONE', #50, 0.3125000000000000000 ) ;
#146 = AXIS2_PLACEMENT_3D ( 'NONE', #299, #92, #254 ) ;
#147 = PLANE ( 'NONE',  #153 ) ;
#148 = EDGE_CURVE ( 'NONE', #182, #224, #305, .T. ) ;
#149 = COLOUR_RGB ( '',1.000000000000000000, 0.000000000000000000, 0.000000000000000000 ) ;
#150 =( NAMED_UNIT ( * ) PLANE_ANGLE_UNIT ( ) SI_UNIT ( $, .RADIAN. ) );
#151 = CARTESIAN_POINT ( 'NONE',  ( 3.827021247335478926E-17, 0.000000000000000000, 0.3125000000000000000 ) ) ;
#152 = CARTESIAN_POINT ( 'NONE',  ( 0.000000000000000000, 0.000000000000000000, 0.000000000000000000 ) ) ;
#153 = AXIS2_PLACEMENT_3D ( 'NONE', #129, #27, #113 ) ;
#154 = PRODUCT_DEFINITION_FORMATION_WITH_SPECIFIED_SOURCE ( 'ANY', '', #61, .NOT_KNOWN. ) ;
#155 = CARTESIAN_POINT ( 'NONE',  ( -6.123233995736759873E-17, 3.500000000000000000, 0.000000000000000000 ) ) ;
#156 =( NAMED_UNIT ( * ) PLANE_ANGLE_UNIT ( ) SI_UNIT ( $, .RADIAN. ) );
#157 =( LENGTH_UNIT ( ) NAMED_UNIT ( * ) SI_UNIT ( $, .METRE. ) );
#158 = ORIENTED_EDGE ( 'NONE', *, *, #121, .T. ) ;
#159 = UNCERTAINTY_MEASURE_WITH_UNIT (LENGTH_MEASURE( 1.000000000000000082E-05 ), #45, 'distance_accuracy_value', 'NONE');
#160 = PRODUCT_DEFINITION ( 'UNKNOWN', '', #154, #8 ) ;
#161 =( GEOMETRIC_REPRESENTATION_CONTEXT ( 3 ) GLOBAL_UNCERTAINTY_ASSIGNED_CONTEXT ( ( #231 ) ) GLOBAL_UNIT_ASSIGNED_CONTEXT ( ( #189, #234, #304 ) ) REPRESENTATION_CONTEXT ( 'NONE', 'WORKASPACE' ) );
#162 = AXIS2_PLACEMENT_3D ( 'NONE', #25, #178, #200 ) ;
#163 = CYLINDRICAL_SURFACE ( 'NONE', #146, 0.3125000000000000000 ) ;
#164 = ORIENTED_EDGE ( 'NONE', *, *, #142, .T. ) ;
#165 = LINE ( 'NONE', #167, #39 ) ;
#166 = PRESENTATION_STYLE_ASSIGNMENT (( #64 ) ) ;
#167 = CARTESIAN_POINT ( 'NONE',  ( 0.000000000000000000, 0.000000000000000000, -0.3125000000000000000 ) ) ;
#168 = UNCERTAINTY_MEASURE_WITH_UNIT (LENGTH_MEASURE( 1.000000000000000082E-05 ), #72, 'distance_accuracy_value', 'NONE');
#169 = ORIENTED_EDGE ( 'NONE', *, *, #297, .T. ) ;
#170 = MECHANICAL_DESIGN_GEOMETRIC_PRESENTATION_REPRESENTATION (  '', ( #87 ), #196 ) ;
#171 = CARTESIAN_POINT ( 'NONE',  ( 0.000000000000000000, 1.250000000000000000, -0.3125000000000000000 ) ) ;
#172 = ADVANCED_FACE ( 'NONE', ( #244 ), #218, .T. ) ;
#173 = SURFACE_STYLE_USAGE ( .BOTH. , #237 ) ;
#174 = APPLICATION_PROTOCOL_DEFINITION ( 'draft international standard', 'automotive_design', 1998, #229 ) ;
#175 = DIRECTION ( 'NONE',  ( -2.721437331438560697E-17, 1.000000000000000000, -0.000000000000000000 ) ) ;
#176 = LENGTH_MEASURE_WITH_UNIT ( LENGTH_MEASURE( 0.02539999999999999897 ), #110 );
#177 = FACE_OUTER_BOUND ( 'NONE', #248, .T. ) ;
#178 = DIRECTION ( 'NONE',  ( -2.721437331438560389E-17, 1.000000000000000000, -0.000000000000000000 ) ) ;
#179 = CIRCLE ( 'NONE', #16, 0.3125000000000000555 ) ;
#180 = STYLED_ITEM ( 'NONE', ( #30 ), #207 ) ;
#181 =( NAMED_UNIT ( * ) PLANE_ANGLE_UNIT ( ) SI_UNIT ( $, .RADIAN. ) );
#182 = VERTEX_POINT ( 'NONE', #286 ) ;
#183 = FACE_OUTER_BOUND ( 'NONE', #227, .T. ) ;
#184 = UNCERTAINTY_MEASURE_WITH_UNIT (LENGTH_MEASURE( 1.000000000000000082E-05 ), #33, 'distance_accuracy_value', 'NONE');
#185 = CIRCLE ( 'NONE', #56, 0.3125000000000000000 ) ;
#186 = ORIENTED_EDGE ( 'NONE', *, *, #193, .F. ) ;
#187 = ORIENTED_EDGE ( 'NONE', *, *, #148, .F. ) ;
#188 = MANIFOLD_SOLID_BREP ( 'Revolve - Cutting Edge', #301 ) ;
#189 =( CONVERSION_BASED_UNIT ( 'INCH', #211 ) LENGTH_UNIT ( ) NAMED_UNIT ( #42 ) );
#190 =( LENGTH_UNIT ( ) NAMED_UNIT ( * ) SI_UNIT ( $, .METRE. ) );
#191 = MANIFOLD_SOLID_BREP ( 'Revolve - Tool Body (Straight Shanked)', #212 ) ;
#192 = DIRECTION ( 'NONE',  ( -2.721437331438560697E-17, 1.000000000000000000, 0.000000000000000000 ) ) ;
#193 = EDGE_CURVE ( 'NONE', #11, #182, #4, .T. ) ;
#194 = SURFACE_STYLE_FILL_AREA ( #230 ) ;
#195 = ORIENTED_EDGE ( 'NONE', *, *, #121, .F. ) ;
#196 =( GEOMETRIC_REPRESENTATION_CONTEXT ( 3 ) GLOBAL_UNCERTAINTY_ASSIGNED_CONTEXT ( ( #134 ) ) GLOBAL_UNIT_ASSIGNED_CONTEXT ( ( #136, #181, #270 ) ) REPRESENTATION_CONTEXT ( 'NONE', 'WORKASPACE' ) );
#197 = EDGE_CURVE ( 'NONE', #102, #86, #185, .T. ) ;
#198 = CARTESIAN_POINT ( 'NONE',  ( -6.123233995736759873E-17, 3.500000000000000000, 0.000000000000000000 ) ) ;
#199 = SURFACE_STYLE_FILL_AREA ( #26 ) ;
#200 = DIRECTION ( 'NONE',  ( -1.000000000000000000, 0.000000000000000000, 0.000000000000000000 ) ) ;
#201 =( NAMED_UNIT ( * ) PLANE_ANGLE_UNIT ( ) SI_UNIT ( $, .RADIAN. ) );
#202 = FACE_OUTER_BOUND ( 'NONE', #54, .T. ) ;
#203 = AXIS2_PLACEMENT_3D ( 'NONE', #48, #105, #285 ) ;
#204 = SURFACE_STYLE_FILL_AREA ( #73 ) ;
#205 = CARTESIAN_POINT ( 'NONE',  ( -6.123233995736759873E-17, 3.500000000000000000, 0.000000000000000000 ) ) ;
#206 = CARTESIAN_POINT ( 'NONE',  ( 0.000000000000000000, 1.250000000000000000, 0.000000000000000000 ) ) ;
#207 = ADVANCED_FACE ( 'NONE', ( #183 ), #163, .T. ) ;
#208 = ORIENTED_EDGE ( 'NONE', *, *, #197, .F. ) ;
#209 = EDGE_LOOP ( 'NONE', ( #186, #255, #141, #187 ) ) ;
#210 = FACE_OUTER_BOUND ( 'NONE', #31, .T. ) ;
#211 = LENGTH_MEASURE_WITH_UNIT ( LENGTH_MEASURE( 0.02539999999999999897 ), #190 );
#212 = CLOSED_SHELL ( 'NONE', ( #253, #20, #172, #65 ) ) ;
#213 = VECTOR ( 'NONE', #175, 39.37007874015748143 ) ;
#214 = CARTESIAN_POINT ( 'NONE',  ( 0.3125000000000000000, 3.500000000000000000, 0.000000000000000000 ) ) ;
#215 = CARTESIAN_POINT ( 'NONE',  ( 0.000000000000000000, 0.000000000000000000, 0.000000000000000000 ) ) ;
#216 =( NAMED_UNIT ( * ) PLANE_ANGLE_UNIT ( ) SI_UNIT ( $, .RADIAN. ) );
#217 = DIRECTION ( 'NONE',  ( -2.721437331438560389E-17, 1.000000000000000000, -0.000000000000000000 ) ) ;
#218 = CYLINDRICAL_SURFACE ( 'NONE', #251, 0.3125000000000000000 ) ;
#219 = SURFACE_STYLE_USAGE ( .BOTH. , #240 ) ;
#220 = EDGE_CURVE ( 'NONE', #86, #302, #246, .T. ) ;
#221 = STYLED_ITEM ( 'NONE', ( #108 ), #258 ) ;
#222 =( LENGTH_UNIT ( ) NAMED_UNIT ( * ) SI_UNIT ( $, .METRE. ) );
#223 = DIRECTION ( 'NONE',  ( -0.000000000000000000, -1.000000000000000000, -0.000000000000000000 ) ) ;
#224 = VERTEX_POINT ( 'NONE', #247 ) ;
#225 =( GEOMETRIC_REPRESENTATION_CONTEXT ( 3 ) GLOBAL_UNCERTAINTY_ASSIGNED_CONTEXT ( ( #159 ) ) GLOBAL_UNIT_ASSIGNED_CONTEXT ( ( #45, #150, #131 ) ) REPRESENTATION_CONTEXT ( 'NONE', 'WORKASPACE' ) );
#226 = PRESENTATION_STYLE_ASSIGNMENT (( #89 ) ) ;
#227 = EDGE_LOOP ( 'NONE', ( #140, #271, #122, #228 ) ) ;
#228 = ORIENTED_EDGE ( 'NONE', *, *, #77, .F. ) ;
#229 = APPLICATION_CONTEXT ( 'automotive_design' ) ;
#230 = FILL_AREA_STYLE ('',( #125 ) ) ;
#231 = UNCERTAINTY_MEASURE_WITH_UNIT (LENGTH_MEASURE( 1.000000000000000082E-05 ), #189, 'distance_accuracy_value', 'NONE');
#232 = CARTESIAN_POINT ( 'NONE',  ( 1.157222054523036369E-34, 1.250000000000000000, 0.000000000000000000 ) ) ;
#233 = COLOUR_RGB ( '',1.000000000000000000, 0.000000000000000000, 0.000000000000000000 ) ;
#234 =( NAMED_UNIT ( * ) PLANE_ANGLE_UNIT ( ) SI_UNIT ( $, .RADIAN. ) );
#235 = CIRCLE ( 'NONE', #256, 0.3125000000000000000 ) ;
#236 = FILL_AREA_STYLE_COLOUR ( '', #233 ) ;
#237 = SURFACE_SIDE_STYLE ('',( #204 ) ) ;
#238 = VECTOR ( 'NONE', #85, 39.37007874015748143 ) ;
#239 = DIRECTION ( 'NONE',  ( -0.000000000000000000, -1.000000000000000000, -0.000000000000000000 ) ) ;
#240 = SURFACE_SIDE_STYLE ('',( #199 ) ) ;
#241 = EDGE_CURVE ( 'NONE', #302, #115, #235, .T. ) ;
#242 = DIRECTION ( 'NONE',  ( -2.721437331438560389E-17, 1.000000000000000000, -0.000000000000000000 ) ) ;
#243 = CYLINDRICAL_SURFACE ( 'NONE', #24, 0.3125000000000000000 ) ;
#244 = FACE_OUTER_BOUND ( 'NONE', #209, .T. ) ;
#245 = AXIS2_PLACEMENT_3D ( 'NONE', #23, #217, #104 ) ;
#246 = LINE ( 'NONE', #294, #238 ) ;
#247 = CARTESIAN_POINT ( 'NONE',  ( -0.3125000000000001665, 3.500000000000000000, 0.000000000000000000 ) ) ;
#248 = EDGE_LOOP ( 'NONE', ( #169, #99, #195, #124 ) ) ;
#249 = LENGTH_MEASURE_WITH_UNIT ( LENGTH_MEASURE( 0.02539999999999999897 ), #157 );
#250 = ORIENTED_EDGE ( 'NONE', *, *, #139, .F. ) ;
#251 = AXIS2_PLACEMENT_3D ( 'NONE', #198, #267, #43 ) ;
#252 =( NAMED_UNIT ( * ) SI_UNIT ( $, .STERADIAN. ) SOLID_ANGLE_UNIT ( ) );
#253 = ADVANCED_FACE ( 'NONE', ( #177 ), #243, .T. ) ;
#254 = DIRECTION ( 'NONE',  ( 0.000000000000000000, 0.000000000000000000, -1.000000000000000000 ) ) ;
#255 = ORIENTED_EDGE ( 'NONE', *, *, #139, .T. ) ;
#256 = AXIS2_PLACEMENT_3D ( 'NONE', #1, #28, #261 ) ;
#257 = SURFACE_SIDE_STYLE ('',( #194 ) ) ;
#258 = ADVANCED_FACE ( 'NONE', ( #202 ), #291, .T. ) ;
#259 = DIRECTION ( 'NONE',  ( 0.000000000000000000, 0.000000000000000000, -1.000000000000000000 ) ) ;
#260 = COLOUR_RGB ( '',1.000000000000000000, 0.000000000000000000, 0.000000000000000000 ) ;
#261 = DIRECTION ( 'NONE',  ( 0.000000000000000000, 0.000000000000000000, -1.000000000000000000 ) ) ;
#262 = CARTESIAN_POINT ( 'NONE',  ( 0.000000000000000000, 0.000000000000000000, -0.3125000000000000000 ) ) ;
#263 = AXIS2_PLACEMENT_3D ( 'NONE', #232, #192, #144 ) ;
#264 = LENGTH_MEASURE_WITH_UNIT ( LENGTH_MEASURE( 0.02539999999999999897 ), #5 );
#265 = PRESENTATION_STYLE_ASSIGNMENT (( #173 ) ) ;
#266 =( NAMED_UNIT ( * ) SI_UNIT ( $, .STERADIAN. ) SOLID_ANGLE_UNIT ( ) );
#267 = DIRECTION ( 'NONE',  ( -2.721437331438560389E-17, 1.000000000000000000, -0.000000000000000000 ) ) ;
#268 = AXIS2_PLACEMENT_3D ( 'NONE', #152, #239, #79 ) ;
#269 = ORIENTED_EDGE ( 'NONE', *, *, #241, .T. ) ;
#270 =( NAMED_UNIT ( * ) SI_UNIT ( $, .STERADIAN. ) SOLID_ANGLE_UNIT ( ) );
#271 = ORIENTED_EDGE ( 'NONE', *, *, #220, .T. ) ;
#272 = UNCERTAINTY_MEASURE_WITH_UNIT (LENGTH_MEASURE( 1.000000000000000082E-05 ), #71, 'distance_accuracy_value', 'NONE');
#273 = SURFACE_STYLE_USAGE ( .BOTH. , #52 ) ;
#274 = EDGE_CURVE ( 'NONE', #29, #224, #293, .T. ) ;
#275 = MECHANICAL_DESIGN_GEOMETRIC_PRESENTATION_REPRESENTATION (  '', ( #111 ), #283 ) ;
#276 = CIRCLE ( 'NONE', #268, 0.3125000000000000000 ) ;
#277 = CARTESIAN_POINT ( 'NONE',  ( 0.3124999999999999445, 3.500000000000000000, 3.827021247335478926E-17 ) ) ;
#278 = FILL_AREA_STYLE ('',( #236 ) ) ;
#279 = PRESENTATION_LAYER_ASSIGNMENT (  '', '', ( #87 ) ) ;
#280 = DIRECTION ( 'NONE',  ( -0.000000000000000000, -1.000000000000000000, -0.000000000000000000 ) ) ;
#281 = FACE_OUTER_BOUND ( 'NONE', #96, .T. ) ;
#282 = PRESENTATION_STYLE_ASSIGNMENT (( #60 ) ) ;
#283 =( GEOMETRIC_REPRESENTATION_CONTEXT ( 3 ) GLOBAL_UNCERTAINTY_ASSIGNED_CONTEXT ( ( #272 ) ) GLOBAL_UNIT_ASSIGNED_CONTEXT ( ( #71, #216, #2 ) ) REPRESENTATION_CONTEXT ( 'NONE', 'WORKASPACE' ) );
#284 = CARTESIAN_POINT ( 'NONE',  ( 3.827021247335478926E-17, 1.250000000000000000, 0.3125000000000000000 ) ) ;
#285 = DIRECTION ( 'NONE',  ( 0.000000000000000000, 0.000000000000000000, -1.000000000000000000 ) ) ;
#286 = CARTESIAN_POINT ( 'NONE',  ( 0.3125000000000000000, 3.500000000000000000, 3.827021247335478926E-17 ) ) ;
#287 =( CONVERSION_BASED_UNIT ( 'INCH', #9 ) LENGTH_UNIT ( ) NAMED_UNIT ( #126 ) );
#288 = FILL_AREA_STYLE_COLOUR ( '', #34 ) ;
#289 = MECHANICAL_DESIGN_GEOMETRIC_PRESENTATION_REPRESENTATION (  '', ( #123 ), #161 ) ;
#290 = MECHANICAL_DESIGN_GEOMETRIC_PRESENTATION_REPRESENTATION (  '', ( #180 ), #6 ) ;
#291 = PLANE ( 'NONE',  #203 ) ;
#292 =( LENGTH_UNIT ( ) NAMED_UNIT ( * ) SI_UNIT ( $, .METRE. ) );
#293 = LINE ( 'NONE', #132, #213 ) ;
#294 = CARTESIAN_POINT ( 'NONE',  ( 3.827021247335478926E-17, 0.000000000000000000, 0.3125000000000000000 ) ) ;
#295 = MECHANICAL_DESIGN_GEOMETRIC_PRESENTATION_REPRESENTATION (  '', ( #309 ), #225 ) ;
#296 = DIRECTION ( 'NONE',  ( 0.000000000000000000, 0.000000000000000000, -1.000000000000000000 ) ) ;
#297 = EDGE_CURVE ( 'NONE', #29, #11, #76, .T. ) ;
#298 = DIRECTION ( 'NONE',  ( 1.000000000000000000, 0.000000000000000000, 0.000000000000000000 ) ) ;
#299 = CARTESIAN_POINT ( 'NONE',  ( 0.000000000000000000, 0.000000000000000000, 0.000000000000000000 ) ) ;
#300 = ORIENTED_EDGE ( 'NONE', *, *, #241, .F. ) ;
#301 = CLOSED_SHELL ( 'NONE', ( #207, #109, #98, #258 ) ) ;
#302 = VERTEX_POINT ( 'NONE', #151 ) ;
#303 = CARTESIAN_POINT ( 'NONE',  ( 0.000000000000000000, 1.250000000000000000, 0.000000000000000000 ) ) ;
#304 =( NAMED_UNIT ( * ) SI_UNIT ( $, .STERADIAN. ) SOLID_ANGLE_UNIT ( ) );
#305 = CIRCLE ( 'NONE', #245, 0.3125000000000000555 ) ;
#306 = FACE_OUTER_BOUND ( 'NONE', #93, .T. ) ;
#307 = DIRECTION ( 'NONE',  ( 0.000000000000000000, 0.000000000000000000, -1.000000000000000000 ) ) ;
#308 = PRESENTATION_LAYER_ASSIGNMENT (  '', '', ( #123 ) ) ;
#309 = STYLED_ITEM ( 'NONE', ( #265 ), #188 ) ;
ENDSEC;
END-ISO-10303-21;
