ISO-10303-21;
HEADER;
FILE_DESCRIPTION (( 'STEP AP214' ),
    '1' );
FILE_NAME ('01610.STEP',
    '2023-06-22T14:39:37',
    ( '' ),
    ( '' ),
    'SwSTEP 2.0',
    'SolidWorks 2023',
    '' );
FILE_SCHEMA (( 'AUTOMOTIVE_DESIGN' ));
ENDSEC;

DATA;
#1 = DIMENSIONAL_EXPONENTS ( 1.000000000000000000, 0.000000000000000000, 0.000000000000000000, 0.000000000000000000, 0.000000000000000000, 0.000000000000000000, 0.000000000000000000 ) ;
#2 = ORIENTED_EDGE ( 'NONE', *, *, #80, .F. ) ;
#3 = SURFACE_SIDE_STYLE ('',( #238 ) ) ;
#4 = PRESENTATION_LAYER_ASSIGNMENT (  '', '', ( #222 ) ) ;
#5 = APPLICATION_CONTEXT ( 'automotive_design' ) ;
#6 = EDGE_LOOP ( 'NONE', ( #18, #176, #49, #104 ) ) ;
#7 = SURFACE_STYLE_FILL_AREA ( #30 ) ;
#8 = COLOUR_RGB ( '',1.000000000000000000, 0.000000000000000000, 0.000000000000000000 ) ;
#9 =( NAMED_UNIT ( * ) PLANE_ANGLE_UNIT ( ) SI_UNIT ( $, .RADIAN. ) );
#10 = CARTESIAN_POINT ( 'NONE',  ( 3.827021247335478926E-17, 3.250000000000000000, 0.3125000000000000000 ) ) ;
#11 = EDGE_CURVE ( 'NONE', #286, #50, #19, .T. ) ;
#12 = STYLED_ITEM ( 'NONE', ( #86 ), #96 ) ;
#13 = AXIS2_PLACEMENT_3D ( 'NONE', #295, #54, #275 ) ;
#14 = CARTESIAN_POINT ( 'NONE',  ( -1.224646799147354440E-16, 6.000000000000000888, 0.000000000000000000 ) ) ;
#15 = CARTESIAN_POINT ( 'NONE',  ( 0.000000000000000000, 0.000000000000000000, 0.000000000000000000 ) ) ;
#16 =( NAMED_UNIT ( * ) PLANE_ANGLE_UNIT ( ) SI_UNIT ( $, .RADIAN. ) );
#17 = DIRECTION ( 'NONE',  ( -0.000000000000000000, -1.000000000000000000, -0.000000000000000000 ) ) ;
#18 = ORIENTED_EDGE ( 'NONE', *, *, #195, .F. ) ;
#19 = CIRCLE ( 'NONE', #67, 0.3125000000000001665 ) ;
#20 = DIRECTION ( 'NONE',  ( -0.000000000000000000, -1.000000000000000000, -0.000000000000000000 ) ) ;
#21 = DIRECTION ( 'NONE',  ( -4.453261087808560759E-17, 1.000000000000000000, -0.000000000000000000 ) ) ;
#22 = DIMENSIONAL_EXPONENTS ( 1.000000000000000000, 0.000000000000000000, 0.000000000000000000, 0.000000000000000000, 0.000000000000000000, 0.000000000000000000, 0.000000000000000000 ) ;
#23 = CARTESIAN_POINT ( 'NONE',  ( 3.827021247335478926E-17, 0.000000000000000000, 0.3125000000000000000 ) ) ;
#24 = FILL_AREA_STYLE_COLOUR ( '', #289 ) ;
#25 = CYLINDRICAL_SURFACE ( 'NONE', #142, 0.3125000000000000000 ) ;
#26 = DIMENSIONAL_EXPONENTS ( 1.000000000000000000, 0.000000000000000000, 0.000000000000000000, 0.000000000000000000, 0.000000000000000000, 0.000000000000000000, 0.000000000000000000 ) ;
#27 = VERTEX_POINT ( 'NONE', #269 ) ;
#28 = EDGE_CURVE ( 'NONE', #221, #286, #110, .T. ) ;
#29 = EDGE_LOOP ( 'NONE', ( #267, #245 ) ) ;
#30 = FILL_AREA_STYLE ('',( #272 ) ) ;
#31 =( LENGTH_UNIT ( ) NAMED_UNIT ( * ) SI_UNIT ( $, .METRE. ) );
#32 = CARTESIAN_POINT ( 'NONE',  ( -1.224646799147354440E-16, 6.000000000000000888, 0.000000000000000000 ) ) ;
#33 = PRODUCT_RELATED_PRODUCT_CATEGORY ( 'part', '', ( #134 ) ) ;
#34 = FILL_AREA_STYLE_COLOUR ( '', #279 ) ;
#35 =( NAMED_UNIT ( * ) SI_UNIT ( $, .STERADIAN. ) SOLID_ANGLE_UNIT ( ) );
#36 = UNCERTAINTY_MEASURE_WITH_UNIT (LENGTH_MEASURE( 1.000000000000000082E-05 ), #260, 'distance_accuracy_value', 'NONE');
#37 =( CONVERSION_BASED_UNIT ( 'INCH', #225 ) LENGTH_UNIT ( ) NAMED_UNIT ( #22 ) );
#38 = DIRECTION ( 'NONE',  ( -0.000000000000000000, -1.000000000000000000, -0.000000000000000000 ) ) ;
#39 = SURFACE_STYLE_USAGE ( .BOTH. , #114 ) ;
#40 = AXIS2_PLACEMENT_3D ( 'NONE', #15, #115, #278 ) ;
#41 = FILL_AREA_STYLE ('',( #252 ) ) ;
#42 = DIRECTION ( 'NONE',  ( -1.000000000000000000, 0.000000000000000000, 0.000000000000000000 ) ) ;
#43 = DIRECTION ( 'NONE',  ( -1.000000000000000000, 0.000000000000000000, 0.000000000000000000 ) ) ;
#44 =( CONVERSION_BASED_UNIT ( 'INCH', #241 ) LENGTH_UNIT ( ) NAMED_UNIT ( #1 ) );
#45 =( GEOMETRIC_REPRESENTATION_CONTEXT ( 3 ) GLOBAL_UNCERTAINTY_ASSIGNED_CONTEXT ( ( #305 ) ) GLOBAL_UNIT_ASSIGNED_CONTEXT ( ( #37, #9, #209 ) ) REPRESENTATION_CONTEXT ( 'NONE', 'WORKASPACE' ) );
#46 = DIRECTION ( 'NONE',  ( 0.000000000000000000, 0.000000000000000000, -1.000000000000000000 ) ) ;
#47 = DIRECTION ( 'NONE',  ( 1.000000000000000000, 0.000000000000000000, 0.000000000000000000 ) ) ;
#48 = CARTESIAN_POINT ( 'NONE',  ( 3.827021247335478926E-17, 0.000000000000000000, 0.3125000000000000000 ) ) ;
#49 = ORIENTED_EDGE ( 'NONE', *, *, #235, .T. ) ;
#50 = VERTEX_POINT ( 'NONE', #211 ) ;
#51 = ORIENTED_EDGE ( 'NONE', *, *, #195, .T. ) ;
#52 = AXIS2_PLACEMENT_3D ( 'NONE', #194, #17, #276 ) ;
#53 = LINE ( 'NONE', #296, #119 ) ;
#54 = DIRECTION ( 'NONE',  ( -4.453261087808560759E-17, 1.000000000000000000, -0.000000000000000000 ) ) ;
#55 = CIRCLE ( 'NONE', #149, 0.3125000000000000000 ) ;
#56 = SURFACE_STYLE_USAGE ( .BOTH. , #268 ) ;
#57 = UNCERTAINTY_MEASURE_WITH_UNIT (LENGTH_MEASURE( 1.000000000000000082E-05 ), #181, 'distance_accuracy_value', 'NONE');
#58 =( LENGTH_UNIT ( ) NAMED_UNIT ( * ) SI_UNIT ( $, .METRE. ) );
#59 = FILL_AREA_STYLE_COLOUR ( '', #73 ) ;
#60 = MECHANICAL_DESIGN_GEOMETRIC_PRESENTATION_REPRESENTATION (  '', ( #12 ), #148 ) ;
#61 = SURFACE_STYLE_USAGE ( .BOTH. , #65 ) ;
#62 =( NAMED_UNIT ( * ) PLANE_ANGLE_UNIT ( ) SI_UNIT ( $, .RADIAN. ) );
#63 = ORIENTED_EDGE ( 'NONE', *, *, #80, .T. ) ;
#64 =( NAMED_UNIT ( * ) PLANE_ANGLE_UNIT ( ) SI_UNIT ( $, .RADIAN. ) );
#65 = SURFACE_SIDE_STYLE ('',( #213 ) ) ;
#66 = EDGE_CURVE ( 'NONE', #50, #286, #129, .T. ) ;
#67 = AXIS2_PLACEMENT_3D ( 'NONE', #263, #107, #140 ) ;
#68 = CARTESIAN_POINT ( 'NONE',  ( 0.3125000000000000000, 6.000000000000000888, 0.000000000000000000 ) ) ;
#69 = DIRECTION ( 'NONE',  ( 0.000000000000000000, 0.000000000000000000, 1.000000000000000000 ) ) ;
#70 =( NAMED_UNIT ( * ) SI_UNIT ( $, .STERADIAN. ) SOLID_ANGLE_UNIT ( ) );
#71 =( NAMED_UNIT ( * ) SI_UNIT ( $, .STERADIAN. ) SOLID_ANGLE_UNIT ( ) );
#72 = CLOSED_SHELL ( 'NONE', ( #232, #273, #180, #125 ) ) ;
#73 = COLOUR_RGB ( '',1.000000000000000000, 0.000000000000000000, 0.000000000000000000 ) ;
#74 =( CONVERSION_BASED_UNIT ( 'INCH', #152 ) LENGTH_UNIT ( ) NAMED_UNIT ( #103 ) );
#75 = ORIENTED_EDGE ( 'NONE', *, *, #244, .T. ) ;
#76 = VERTEX_POINT ( 'NONE', #113 ) ;
#77 = PRESENTATION_LAYER_ASSIGNMENT (  '', '', ( #190 ) ) ;
#78 = CYLINDRICAL_SURFACE ( 'NONE', #13, 0.3125000000000000555 ) ;
#79 = PLANE ( 'NONE',  #242 ) ;
#80 = EDGE_CURVE ( 'NONE', #27, #50, #53, .T. ) ;
#81 = CARTESIAN_POINT ( 'NONE',  ( 0.000000000000000000, 3.250000000000000000, 0.000000000000000000 ) ) ;
#82 = DIRECTION ( 'NONE',  ( -4.453261087808560759E-17, 1.000000000000000000, -0.000000000000000000 ) ) ;
#83 = PLANE ( 'NONE',  #248 ) ;
#84 = COLOUR_RGB ( '',1.000000000000000000, 0.000000000000000000, 0.000000000000000000 ) ;
#85 = PRODUCT_DEFINITION_FORMATION_WITH_SPECIFIED_SOURCE ( 'ANY', '', #134, .NOT_KNOWN. ) ;
#86 = PRESENTATION_STYLE_ASSIGNMENT (( #161 ) ) ;
#87 = DIRECTION ( 'NONE',  ( -1.000000000000000000, 0.000000000000000000, 0.000000000000000000 ) ) ;
#88 = FILL_AREA_STYLE ('',( #59 ) ) ;
#89 = UNCERTAINTY_MEASURE_WITH_UNIT (LENGTH_MEASURE( 1.000000000000000082E-05 ), #128, 'distance_accuracy_value', 'NONE');
#90 =( NAMED_UNIT ( * ) SI_UNIT ( $, .STERADIAN. ) SOLID_ANGLE_UNIT ( ) );
#91 = DIRECTION ( 'NONE',  ( -4.453261087808560759E-17, 1.000000000000000000, -0.000000000000000000 ) ) ;
#92 = MECHANICAL_DESIGN_GEOMETRIC_PRESENTATION_REPRESENTATION (  '', ( #222 ), #45 ) ;
#93 = ADVANCED_FACE ( 'NONE', ( #185 ), #291, .T. ) ;
#94 = CIRCLE ( 'NONE', #266, 0.3125000000000000000 ) ;
#95 = APPLICATION_PROTOCOL_DEFINITION ( 'draft international standard', 'automotive_design', 1998, #5 ) ;
#96 = MANIFOLD_SOLID_BREP ( 'Revolve - Cutting Edge', #72 ) ;
#97 = SURFACE_STYLE_FILL_AREA ( #281 ) ;
#98 = ORIENTED_EDGE ( 'NONE', *, *, #66, .F. ) ;
#99 = CARTESIAN_POINT ( 'NONE',  ( 0.000000000000000000, 0.000000000000000000, 0.000000000000000000 ) ) ;
#100 = FACE_OUTER_BOUND ( 'NONE', #219, .T. ) ;
#101 = DIRECTION ( 'NONE',  ( -0.000000000000000000, -1.000000000000000000, -0.000000000000000000 ) ) ;
#102 = MANIFOLD_SOLID_BREP ( 'Revolve - Tool Body (Straight Shanked)', #206 ) ;
#103 = DIMENSIONAL_EXPONENTS ( 1.000000000000000000, 0.000000000000000000, 0.000000000000000000, 0.000000000000000000, 0.000000000000000000, 0.000000000000000000, 0.000000000000000000 ) ;
#104 = ORIENTED_EDGE ( 'NONE', *, *, #244, .F. ) ;
#105 = DIMENSIONAL_EXPONENTS ( 1.000000000000000000, 0.000000000000000000, 0.000000000000000000, 0.000000000000000000, 0.000000000000000000, 0.000000000000000000, 0.000000000000000000 ) ;
#106 = ORIENTED_EDGE ( 'NONE', *, *, #246, .F. ) ;
#107 = DIRECTION ( 'NONE',  ( -4.453261087808560759E-17, 1.000000000000000000, -0.000000000000000000 ) ) ;
#108 = STYLED_ITEM ( 'NONE', ( #127 ), #232 ) ;
#109 =( NAMED_UNIT ( * ) SI_UNIT ( $, .STERADIAN. ) SOLID_ANGLE_UNIT ( ) );
#110 = LINE ( 'NONE', #208, #247 ) ;
#111 = AXIS2_PLACEMENT_3D ( 'NONE', #32, #212, #87 ) ;
#112 = ADVANCED_FACE ( 'NONE', ( #274 ), #79, .F. ) ;
#113 = CARTESIAN_POINT ( 'NONE',  ( 0.000000000000000000, 3.250000000000000000, -0.3125000000000000000 ) ) ;
#114 = SURFACE_SIDE_STYLE ('',( #165 ) ) ;
#115 = DIRECTION ( 'NONE',  ( 0.000000000000000000, -1.000000000000000000, -0.000000000000000000 ) ) ;
#116 = UNCERTAINTY_MEASURE_WITH_UNIT (LENGTH_MEASURE( 1.000000000000000082E-05 ), #184, 'distance_accuracy_value', 'NONE');
#117 =( NAMED_UNIT ( * ) SI_UNIT ( $, .STERADIAN. ) SOLID_ANGLE_UNIT ( ) );
#118 = ORIENTED_EDGE ( 'NONE', *, *, #146, .T. ) ;
#119 = VECTOR ( 'NONE', #82, 39.37007874015748143 ) ;
#120 = FILL_AREA_STYLE ('',( #220 ) ) ;
#121 =( LENGTH_UNIT ( ) NAMED_UNIT ( * ) SI_UNIT ( $, .METRE. ) );
#122 = APPLICATION_PROTOCOL_DEFINITION ( 'draft international standard', 'automotive_design', 1998, #160 ) ;
#123 = DIRECTION ( 'NONE',  ( 0.000000000000000000, 0.000000000000000000, -1.000000000000000000 ) ) ;
#124 = AXIS2_PLACEMENT_3D ( 'NONE', #150, #21, #43 ) ;
#125 = ADVANCED_FACE ( 'NONE', ( #259 ), #254, .T. ) ;
#126 = VERTEX_POINT ( 'NONE', #298 ) ;
#127 = PRESENTATION_STYLE_ASSIGNMENT (( #304 ) ) ;
#128 =( CONVERSION_BASED_UNIT ( 'INCH', #303 ) LENGTH_UNIT ( ) NAMED_UNIT ( #223 ) );
#129 = CIRCLE ( 'NONE', #111, 0.3125000000000001665 ) ;
#130 = ORIENTED_EDGE ( 'NONE', *, *, #28, .F. ) ;
#131 = CIRCLE ( 'NONE', #301, 0.3125000000000000000 ) ;
#132 = DIRECTION ( 'NONE',  ( -0.000000000000000000, -1.000000000000000000, -0.000000000000000000 ) ) ;
#133 = ORIENTED_EDGE ( 'NONE', *, *, #174, .T. ) ;
#134 = PRODUCT ( '01610', '01610', '', ( #240 ) ) ;
#135 = SURFACE_SIDE_STYLE ('',( #163 ) ) ;
#136 = STYLED_ITEM ( 'NONE', ( #191 ), #125 ) ;
#137 = MECHANICAL_DESIGN_GEOMETRIC_PRESENTATION_REPRESENTATION (  '', ( #230 ), #234 ) ;
#138 = FILL_AREA_STYLE ('',( #34 ) ) ;
#139 = DIRECTION ( 'NONE',  ( -1.000000000000000000, -4.453261087808560759E-17, 0.000000000000000000 ) ) ;
#140 = DIRECTION ( 'NONE',  ( -1.000000000000000000, 0.000000000000000000, 0.000000000000000000 ) ) ;
#141 =( LENGTH_UNIT ( ) NAMED_UNIT ( * ) SI_UNIT ( $, .METRE. ) );
#142 = AXIS2_PLACEMENT_3D ( 'NONE', #99, #236, #46 ) ;
#143 = UNCERTAINTY_MEASURE_WITH_UNIT (LENGTH_MEASURE( 1.000000000000000082E-05 ), #44, 'distance_accuracy_value', 'NONE');
#144 = CARTESIAN_POINT ( 'NONE',  ( 0.000000000000000000, 3.250000000000000000, 0.000000000000000000 ) ) ;
#145 =( LENGTH_UNIT ( ) NAMED_UNIT ( * ) SI_UNIT ( $, .METRE. ) );
#146 = EDGE_CURVE ( 'NONE', #221, #27, #217, .T. ) ;
#147 = DIRECTION ( 'NONE',  ( 0.000000000000000000, 0.000000000000000000, -1.000000000000000000 ) ) ;
#148 =( GEOMETRIC_REPRESENTATION_CONTEXT ( 3 ) GLOBAL_UNCERTAINTY_ASSIGNED_CONTEXT ( ( #57 ) ) GLOBAL_UNIT_ASSIGNED_CONTEXT ( ( #181, #290, #109 ) ) REPRESENTATION_CONTEXT ( 'NONE', 'WORKASPACE' ) );
#149 = AXIS2_PLACEMENT_3D ( 'NONE', #239, #215, #123 ) ;
#150 = CARTESIAN_POINT ( 'NONE',  ( 0.000000000000000000, 3.250000000000000000, 0.000000000000000000 ) ) ;
#151 = CARTESIAN_POINT ( 'NONE',  ( 0.000000000000000000, 0.000000000000000000, -0.3125000000000000000 ) ) ;
#152 = LENGTH_MEASURE_WITH_UNIT ( LENGTH_MEASURE( 0.02539999999999999897 ), #166 );
#153 = FACE_OUTER_BOUND ( 'NONE', #262, .T. ) ;
#154 =( LENGTH_UNIT ( ) NAMED_UNIT ( * ) SI_UNIT ( $, .METRE. ) );
#155 = MECHANICAL_DESIGN_GEOMETRIC_PRESENTATION_REPRESENTATION (  '', ( #190 ), #173 ) ;
#156 = CARTESIAN_POINT ( 'NONE',  ( -0.3125000000000000000, 3.250000000000000000, 0.000000000000000000 ) ) ;
#157 = VECTOR ( 'NONE', #169, 39.37007874015748143 ) ;
#158 = ORIENTED_EDGE ( 'NONE', *, *, #174, .F. ) ;
#159 = PRESENTATION_STYLE_ASSIGNMENT (( #56 ) ) ;
#160 = APPLICATION_CONTEXT ( 'automotive_design' ) ;
#161 = SURFACE_STYLE_USAGE ( .BOTH. , #135 ) ;
#162 = VECTOR ( 'NONE', #20, 39.37007874015748143 ) ;
#163 = SURFACE_STYLE_FILL_AREA ( #138 ) ;
#164 = EDGE_CURVE ( 'NONE', #282, #76, #288, .T. ) ;
#165 = SURFACE_STYLE_FILL_AREA ( #88 ) ;
#166 =( LENGTH_UNIT ( ) NAMED_UNIT ( * ) SI_UNIT ( $, .METRE. ) );
#167 = SHAPE_DEFINITION_REPRESENTATION ( #270, #216 ) ;
#168 = CARTESIAN_POINT ( 'NONE',  ( 0.000000000000000000, 0.000000000000000000, 0.000000000000000000 ) ) ;
#169 = DIRECTION ( 'NONE',  ( -0.000000000000000000, -1.000000000000000000, -0.000000000000000000 ) ) ;
#170 = PRESENTATION_STYLE_ASSIGNMENT (( #61 ) ) ;
#171 = AXIS2_PLACEMENT_3D ( 'NONE', #198, #69, #47 ) ;
#172 = SURFACE_SIDE_STYLE ('',( #97 ) ) ;
#173 =( GEOMETRIC_REPRESENTATION_CONTEXT ( 3 ) GLOBAL_UNCERTAINTY_ASSIGNED_CONTEXT ( ( #261 ) ) GLOBAL_UNIT_ASSIGNED_CONTEXT ( ( #74, #251, #117 ) ) REPRESENTATION_CONTEXT ( 'NONE', 'WORKASPACE' ) );
#174 = EDGE_CURVE ( 'NONE', #76, #282, #94, .T. ) ;
#175 = LINE ( 'NONE', #23, #162 ) ;
#176 = ORIENTED_EDGE ( 'NONE', *, *, #164, .T. ) ;
#177 = ORIENTED_EDGE ( 'NONE', *, *, #164, .F. ) ;
#178 =( GEOMETRIC_REPRESENTATION_CONTEXT ( 3 ) GLOBAL_UNCERTAINTY_ASSIGNED_CONTEXT ( ( #89 ) ) GLOBAL_UNIT_ASSIGNED_CONTEXT ( ( #128, #62, #90 ) ) REPRESENTATION_CONTEXT ( 'NONE', 'WORKASPACE' ) );
#179 = CIRCLE ( 'NONE', #292, 0.3125000000000000000 ) ;
#180 = ADVANCED_FACE ( 'NONE', ( #202 ), #233, .T. ) ;
#181 =( CONVERSION_BASED_UNIT ( 'INCH', #183 ) LENGTH_UNIT ( ) NAMED_UNIT ( #306 ) );
#182 = DIRECTION ( 'NONE',  ( 0.000000000000000000, -0.000000000000000000, 1.000000000000000000 ) ) ;
#183 = LENGTH_MEASURE_WITH_UNIT ( LENGTH_MEASURE( 0.02539999999999999897 ), #58 );
#184 =( CONVERSION_BASED_UNIT ( 'INCH', #253 ) LENGTH_UNIT ( ) NAMED_UNIT ( #105 ) );
#185 = FACE_OUTER_BOUND ( 'NONE', #214, .T. ) ;
#186 = DIRECTION ( 'NONE',  ( 0.000000000000000000, 0.000000000000000000, -1.000000000000000000 ) ) ;
#187 = CARTESIAN_POINT ( 'NONE',  ( 3.098677236904669840E-34, 3.250000000000000000, 0.000000000000000000 ) ) ;
#188 = DIRECTION ( 'NONE',  ( 1.000000000000000000, 4.453261087808560759E-17, 0.000000000000000000 ) ) ;
#189 = LENGTH_MEASURE_WITH_UNIT ( LENGTH_MEASURE( 0.02539999999999999897 ), #145 );
#190 = STYLED_ITEM ( 'NONE', ( #170 ), #180 ) ;
#191 = PRESENTATION_STYLE_ASSIGNMENT (( #300 ) ) ;
#192 = VERTEX_POINT ( 'NONE', #48 ) ;
#193 = LINE ( 'NONE', #151, #157 ) ;
#194 = CARTESIAN_POINT ( 'NONE',  ( 0.000000000000000000, 3.250000000000000000, 0.000000000000000000 ) ) ;
#195 = EDGE_CURVE ( 'NONE', #282, #192, #175, .T. ) ;
#196 = COLOUR_RGB ( '',0.7921568627450980005, 0.8196078431372548767, 0.9333333333333333481 ) ;
#197 = CARTESIAN_POINT ( 'NONE',  ( 0.000000000000000000, 0.000000000000000000, 0.000000000000000000 ) ) ;
#198 = CARTESIAN_POINT ( 'NONE',  ( 0.000000000000000000, 0.000000000000000000, 0.000000000000000000 ) ) ;
#199 = ORIENTED_EDGE ( 'NONE', *, *, #246, .T. ) ;
#200 =( NAMED_UNIT ( * ) PLANE_ANGLE_UNIT ( ) SI_UNIT ( $, .RADIAN. ) );
#201 = ORIENTED_EDGE ( 'NONE', *, *, #11, .T. ) ;
#202 = FACE_OUTER_BOUND ( 'NONE', #6, .T. ) ;
#203 = PRESENTATION_LAYER_ASSIGNMENT (  '', '', ( #12 ) ) ;
#204 = AXIS2_PLACEMENT_3D ( 'NONE', #168, #38, #186 ) ;
#205 = ORIENTED_EDGE ( 'NONE', *, *, #11, .F. ) ;
#206 = CLOSED_SHELL ( 'NONE', ( #255, #277, #93, #112 ) ) ;
#207 = MECHANICAL_DESIGN_GEOMETRIC_PRESENTATION_REPRESENTATION (  '', ( #108 ), #280 ) ;
#208 = CARTESIAN_POINT ( 'NONE',  ( -0.3125000000000002220, 6.000000000000000888, 0.000000000000000000 ) ) ;
#209 =( NAMED_UNIT ( * ) SI_UNIT ( $, .STERADIAN. ) SOLID_ANGLE_UNIT ( ) );
#210 = DIRECTION ( 'NONE',  ( -4.453261087808560759E-17, 1.000000000000000000, -0.000000000000000000 ) ) ;
#211 = CARTESIAN_POINT ( 'NONE',  ( 0.3125000000000000000, 6.000000000000000888, 3.827021247335479543E-17 ) ) ;
#212 = DIRECTION ( 'NONE',  ( -4.453261087808560759E-17, 1.000000000000000000, -0.000000000000000000 ) ) ;
#213 = SURFACE_STYLE_FILL_AREA ( #120 ) ;
#214 = EDGE_LOOP ( 'NONE', ( #2, #243, #309, #98 ) ) ;
#215 = DIRECTION ( 'NONE',  ( -0.000000000000000000, -1.000000000000000000, -0.000000000000000000 ) ) ;
#216 = ADVANCED_BREP_SHAPE_REPRESENTATION ( '01610', ( #96, #102, #171 ), #293 ) ;
#217 = CIRCLE ( 'NONE', #124, 0.3125000000000000000 ) ;
#218 = AXIS2_PLACEMENT_3D ( 'NONE', #187, #299, #139 ) ;
#219 = EDGE_LOOP ( 'NONE', ( #118, #63, #205, #130 ) ) ;
#220 = FILL_AREA_STYLE_COLOUR ( '', #8 ) ;
#221 = VERTEX_POINT ( 'NONE', #156 ) ;
#222 = STYLED_ITEM ( 'NONE', ( #159 ), #102 ) ;
#223 = DIMENSIONAL_EXPONENTS ( 1.000000000000000000, 0.000000000000000000, 0.000000000000000000, 0.000000000000000000, 0.000000000000000000, 0.000000000000000000, 0.000000000000000000 ) ;
#224 = EDGE_LOOP ( 'NONE', ( #201, #302 ) ) ;
#225 = LENGTH_MEASURE_WITH_UNIT ( LENGTH_MEASURE( 0.02539999999999999897 ), #31 );
#226 = PRODUCT_DEFINITION ( 'UNKNOWN', '', #85, #237 ) ;
#227 = DIRECTION ( 'NONE',  ( -4.453261087808560759E-17, 1.000000000000000000, -0.000000000000000000 ) ) ;
#228 = PRESENTATION_STYLE_ASSIGNMENT (( #39 ) ) ;
#229 = CARTESIAN_POINT ( 'NONE',  ( -0.3125000000000002776, 6.000000000000000888, 0.000000000000000000 ) ) ;
#230 = STYLED_ITEM ( 'NONE', ( #228 ), #273 ) ;
#231 = FACE_OUTER_BOUND ( 'NONE', #29, .T. ) ;
#232 = ADVANCED_FACE ( 'NONE', ( #153 ), #25, .T. ) ;
#233 = CYLINDRICAL_SURFACE ( 'NONE', #204, 0.3125000000000000000 ) ;
#234 =( GEOMETRIC_REPRESENTATION_CONTEXT ( 3 ) GLOBAL_UNCERTAINTY_ASSIGNED_CONTEXT ( ( #116 ) ) GLOBAL_UNIT_ASSIGNED_CONTEXT ( ( #184, #16, #35 ) ) REPRESENTATION_CONTEXT ( 'NONE', 'WORKASPACE' ) );
#235 = EDGE_CURVE ( 'NONE', #76, #126, #193, .T. ) ;
#236 = DIRECTION ( 'NONE',  ( -0.000000000000000000, -1.000000000000000000, -0.000000000000000000 ) ) ;
#237 = PRODUCT_DEFINITION_CONTEXT ( 'detailed design', #160, 'design' ) ;
#238 = SURFACE_STYLE_FILL_AREA ( #41 ) ;
#239 = CARTESIAN_POINT ( 'NONE',  ( 0.000000000000000000, 0.000000000000000000, 0.000000000000000000 ) ) ;
#240 = PRODUCT_CONTEXT ( 'NONE', #5, 'mechanical' ) ;
#241 = LENGTH_MEASURE_WITH_UNIT ( LENGTH_MEASURE( 0.02539999999999999897 ), #154 );
#242 = AXIS2_PLACEMENT_3D ( 'NONE', #68, #307, #188 ) ;
#243 = ORIENTED_EDGE ( 'NONE', *, *, #285, .T. ) ;
#244 = EDGE_CURVE ( 'NONE', #192, #126, #55, .T. ) ;
#245 = ORIENTED_EDGE ( 'NONE', *, *, #285, .F. ) ;
#246 = EDGE_CURVE ( 'NONE', #126, #192, #179, .T. ) ;
#247 = VECTOR ( 'NONE', #227, 39.37007874015748143 ) ;
#248 = AXIS2_PLACEMENT_3D ( 'NONE', #81, #297, #182 ) ;
#249 = CARTESIAN_POINT ( 'NONE',  ( 0.000000000000000000, 3.250000000000000000, 0.000000000000000000 ) ) ;
#250 = PLANE ( 'NONE',  #218 ) ;
#251 =( NAMED_UNIT ( * ) PLANE_ANGLE_UNIT ( ) SI_UNIT ( $, .RADIAN. ) );
#252 = FILL_AREA_STYLE_COLOUR ( '', #84 ) ;
#253 = LENGTH_MEASURE_WITH_UNIT ( LENGTH_MEASURE( 0.02539999999999999897 ), #141 );
#254 = PLANE ( 'NONE',  #40 ) ;
#255 = ADVANCED_FACE ( 'NONE', ( #100 ), #78, .T. ) ;
#256 = MECHANICAL_DESIGN_GEOMETRIC_PRESENTATION_REPRESENTATION (  '', ( #136 ), #178 ) ;
#257 = PRESENTATION_LAYER_ASSIGNMENT (  '', '', ( #136 ) ) ;
#258 = PRESENTATION_LAYER_ASSIGNMENT (  '', '', ( #230 ) ) ;
#259 = FACE_OUTER_BOUND ( 'NONE', #287, .T. ) ;
#260 =( CONVERSION_BASED_UNIT ( 'INCH', #189 ) LENGTH_UNIT ( ) NAMED_UNIT ( #26 ) );
#261 = UNCERTAINTY_MEASURE_WITH_UNIT (LENGTH_MEASURE( 1.000000000000000082E-05 ), #74, 'distance_accuracy_value', 'NONE');
#262 = EDGE_LOOP ( 'NONE', ( #133, #51, #106, #283 ) ) ;
#263 = CARTESIAN_POINT ( 'NONE',  ( -1.224646799147354440E-16, 6.000000000000000888, 0.000000000000000000 ) ) ;
#264 = EDGE_LOOP ( 'NONE', ( #158, #177 ) ) ;
#265 = DIRECTION ( 'NONE',  ( 0.000000000000000000, 0.000000000000000000, -1.000000000000000000 ) ) ;
#266 = AXIS2_PLACEMENT_3D ( 'NONE', #144, #101, #147 ) ;
#267 = ORIENTED_EDGE ( 'NONE', *, *, #146, .F. ) ;
#268 = SURFACE_SIDE_STYLE ('',( #7 ) ) ;
#269 = CARTESIAN_POINT ( 'NONE',  ( 0.3125000000000000000, 3.250000000000000000, 3.827021247335479543E-17 ) ) ;
#270 = PRODUCT_DEFINITION_SHAPE ( 'NONE', 'NONE',  #226 ) ;
#271 = FACE_OUTER_BOUND ( 'NONE', #264, .T. ) ;
#272 = FILL_AREA_STYLE_COLOUR ( '', #196 ) ;
#273 = ADVANCED_FACE ( 'NONE', ( #271 ), #83, .T. ) ;
#274 = FACE_OUTER_BOUND ( 'NONE', #224, .T. ) ;
#275 = DIRECTION ( 'NONE',  ( -1.000000000000000000, 0.000000000000000000, 0.000000000000000000 ) ) ;
#276 = DIRECTION ( 'NONE',  ( 0.000000000000000000, 0.000000000000000000, -1.000000000000000000 ) ) ;
#277 = ADVANCED_FACE ( 'NONE', ( #231 ), #250, .F. ) ;
#278 = DIRECTION ( 'NONE',  ( 0.000000000000000000, 0.000000000000000000, -1.000000000000000000 ) ) ;
#279 = COLOUR_RGB ( '',0.7921568627450980005, 0.8196078431372548767, 0.9333333333333333481 ) ;
#280 =( GEOMETRIC_REPRESENTATION_CONTEXT ( 3 ) GLOBAL_UNCERTAINTY_ASSIGNED_CONTEXT ( ( #143 ) ) GLOBAL_UNIT_ASSIGNED_CONTEXT ( ( #44, #64, #70 ) ) REPRESENTATION_CONTEXT ( 'NONE', 'WORKASPACE' ) );
#281 = FILL_AREA_STYLE ('',( #24 ) ) ;
#282 = VERTEX_POINT ( 'NONE', #10 ) ;
#283 = ORIENTED_EDGE ( 'NONE', *, *, #235, .F. ) ;
#284 = AXIS2_PLACEMENT_3D ( 'NONE', #14, #210, #294 ) ;
#285 = EDGE_CURVE ( 'NONE', #27, #221, #131, .T. ) ;
#286 = VERTEX_POINT ( 'NONE', #229 ) ;
#287 = EDGE_LOOP ( 'NONE', ( #199, #75 ) ) ;
#288 = CIRCLE ( 'NONE', #52, 0.3125000000000000000 ) ;
#289 = COLOUR_RGB ( '',1.000000000000000000, 0.000000000000000000, 0.000000000000000000 ) ;
#290 =( NAMED_UNIT ( * ) PLANE_ANGLE_UNIT ( ) SI_UNIT ( $, .RADIAN. ) );
#291 = CYLINDRICAL_SURFACE ( 'NONE', #284, 0.3125000000000000555 ) ;
#292 = AXIS2_PLACEMENT_3D ( 'NONE', #197, #132, #265 ) ;
#293 =( GEOMETRIC_REPRESENTATION_CONTEXT ( 3 ) GLOBAL_UNCERTAINTY_ASSIGNED_CONTEXT ( ( #36 ) ) GLOBAL_UNIT_ASSIGNED_CONTEXT ( ( #260, #200, #71 ) ) REPRESENTATION_CONTEXT ( 'NONE', 'WORKASPACE' ) );
#294 = DIRECTION ( 'NONE',  ( -1.000000000000000000, 0.000000000000000000, 0.000000000000000000 ) ) ;
#295 = CARTESIAN_POINT ( 'NONE',  ( -1.224646799147354440E-16, 6.000000000000000888, 0.000000000000000000 ) ) ;
#296 = CARTESIAN_POINT ( 'NONE',  ( 0.3124999999999999445, 6.000000000000000888, 3.827021247335479543E-17 ) ) ;
#297 = DIRECTION ( 'NONE',  ( 0.000000000000000000, 1.000000000000000000, 0.000000000000000000 ) ) ;
#298 = CARTESIAN_POINT ( 'NONE',  ( 0.000000000000000000, 0.000000000000000000, -0.3125000000000000000 ) ) ;
#299 = DIRECTION ( 'NONE',  ( -4.453261087808560759E-17, 1.000000000000000000, 0.000000000000000000 ) ) ;
#300 = SURFACE_STYLE_USAGE ( .BOTH. , #3 ) ;
#301 = AXIS2_PLACEMENT_3D ( 'NONE', #249, #91, #42 ) ;
#302 = ORIENTED_EDGE ( 'NONE', *, *, #66, .T. ) ;
#303 = LENGTH_MEASURE_WITH_UNIT ( LENGTH_MEASURE( 0.02539999999999999897 ), #121 );
#304 = SURFACE_STYLE_USAGE ( .BOTH. , #172 ) ;
#305 = UNCERTAINTY_MEASURE_WITH_UNIT (LENGTH_MEASURE( 1.000000000000000082E-05 ), #37, 'distance_accuracy_value', 'NONE');
#306 = DIMENSIONAL_EXPONENTS ( 1.000000000000000000, 0.000000000000000000, 0.000000000000000000, 0.000000000000000000, 0.000000000000000000, 0.000000000000000000, 0.000000000000000000 ) ;
#307 = DIRECTION ( 'NONE',  ( 4.453261087808560759E-17, -1.000000000000000000, 0.000000000000000000 ) ) ;
#308 = PRESENTATION_LAYER_ASSIGNMENT (  '', '', ( #108 ) ) ;
#309 = ORIENTED_EDGE ( 'NONE', *, *, #28, .T. ) ;
ENDSEC;
END-ISO-10303-21;
