ISO-10303-21;
HEADER;
FILE_DESCRIPTION (( 'STEP AP214' ),
    '1' );
FILE_NAME ('23170.STEP',
    '2023-06-22T16:38:40',
    ( '' ),
    ( '' ),
    'SwSTEP 2.0',
    'SolidWorks 2023',
    '' );
FILE_SCHEMA (( 'AUTOMOTIVE_DESIGN' ));
ENDSEC;

DATA;
#1 = LENGTH_MEASURE_WITH_UNIT ( LENGTH_MEASURE( 0.02539999999999999897 ), #116 );
#2 = DIRECTION ( 'NONE',  ( -6.997981709413449187E-17, 1.000000000000000000, -0.000000000000000000 ) ) ;
#3 = ORIENTED_EDGE ( 'NONE', *, *, #172, .T. ) ;
#4 = EDGE_CURVE ( 'NONE', #233, #177, #209, .T. ) ;
#5 = ORIENTED_EDGE ( 'NONE', *, *, #97, .T. ) ;
#6 = DIRECTION ( 'NONE',  ( 0.000000000000000000, 0.000000000000000000, -1.000000000000000000 ) ) ;
#7 = EDGE_LOOP ( 'NONE', ( #204, #59 ) ) ;
#8 =( LENGTH_UNIT ( ) NAMED_UNIT ( * ) SI_UNIT ( $, .METRE. ) );
#9 = ADVANCED_FACE ( 'NONE', ( #74 ), #199, .T. ) ;
#10 = CARTESIAN_POINT ( 'NONE',  ( 2.296212748401287726E-17, 1.250000000000000000, 0.1875000000000000278 ) ) ;
#11 = DIRECTION ( 'NONE',  ( -0.000000000000000000, -1.000000000000000000, -0.000000000000000000 ) ) ;
#12 = FILL_AREA_STYLE ('',( #111 ) ) ;
#13 =( GEOMETRIC_REPRESENTATION_CONTEXT ( 3 ) GLOBAL_UNCERTAINTY_ASSIGNED_CONTEXT ( ( #149 ) ) GLOBAL_UNIT_ASSIGNED_CONTEXT ( ( #254, #295, #228 ) ) REPRESENTATION_CONTEXT ( 'NONE', 'WORKASPACE' ) );
#14 = DIRECTION ( 'NONE',  ( 0.000000000000000000, 0.000000000000000000, -1.000000000000000000 ) ) ;
#15 = AXIS2_PLACEMENT_3D ( 'NONE', #121, #147, #200 ) ;
#16 = ORIENTED_EDGE ( 'NONE', *, *, #156, .T. ) ;
#17 = DIMENSIONAL_EXPONENTS ( 1.000000000000000000, 0.000000000000000000, 0.000000000000000000, 0.000000000000000000, 0.000000000000000000, 0.000000000000000000, 0.000000000000000000 ) ;
#18 =( LENGTH_UNIT ( ) NAMED_UNIT ( * ) SI_UNIT ( $, .METRE. ) );
#19 = PRESENTATION_STYLE_ASSIGNMENT (( #57 ) ) ;
#20 =( LENGTH_UNIT ( ) NAMED_UNIT ( * ) SI_UNIT ( $, .METRE. ) );
#21 = EDGE_LOOP ( 'NONE', ( #175, #84 ) ) ;
#22 = ADVANCED_FACE ( 'NONE', ( #261 ), #29, .T. ) ;
#23 = PRESENTATION_STYLE_ASSIGNMENT (( #79 ) ) ;
#24 = PRODUCT_DEFINITION_FORMATION_WITH_SPECIFIED_SOURCE ( 'ANY', '', #232, .NOT_KNOWN. ) ;
#25 = CARTESIAN_POINT ( 'NONE',  ( 0.1874999999999999445, 3.000000000000000444, 2.296212748401288342E-17 ) ) ;
#26 = DIRECTION ( 'NONE',  ( -6.997981709413449187E-17, 1.000000000000000000, -0.000000000000000000 ) ) ;
#27 = SURFACE_STYLE_USAGE ( .BOTH. , #263 ) ;
#28 = APPLICATION_CONTEXT ( 'automotive_design' ) ;
#29 = PLANE ( 'NONE',  #248 ) ;
#30 = PRESENTATION_LAYER_ASSIGNMENT (  '', '', ( #145 ) ) ;
#31 = ORIENTED_EDGE ( 'NONE', *, *, #207, .F. ) ;
#32 = UNCERTAINTY_MEASURE_WITH_UNIT (LENGTH_MEASURE( 1.000000000000000082E-05 ), #113, 'distance_accuracy_value', 'NONE');
#33 = FACE_OUTER_BOUND ( 'NONE', #231, .T. ) ;
#34 = CIRCLE ( 'NONE', #39, 0.1875000000000000278 ) ;
#35 = AXIS2_PLACEMENT_3D ( 'NONE', #176, #157, #294 ) ;
#36 = SURFACE_SIDE_STYLE ('',( #300 ) ) ;
#37 = DIRECTION ( 'NONE',  ( 1.000000000000000000, 0.000000000000000000, 0.000000000000000000 ) ) ;
#38 = CARTESIAN_POINT ( 'NONE',  ( 2.296212748401287726E-17, 0.000000000000000000, 0.1875000000000000278 ) ) ;
#39 = AXIS2_PLACEMENT_3D ( 'NONE', #225, #126, #14 ) ;
#40 = DIRECTION ( 'NONE',  ( 0.000000000000000000, 0.000000000000000000, -1.000000000000000000 ) ) ;
#41 = VERTEX_POINT ( 'NONE', #58 ) ;
#42 = SURFACE_SIDE_STYLE ('',( #308 ) ) ;
#43 = DIMENSIONAL_EXPONENTS ( 1.000000000000000000, 0.000000000000000000, 0.000000000000000000, 0.000000000000000000, 0.000000000000000000, 0.000000000000000000, 0.000000000000000000 ) ;
#44 = ORIENTED_EDGE ( 'NONE', *, *, #4, .F. ) ;
#45 = EDGE_LOOP ( 'NONE', ( #143, #3, #120, #178 ) ) ;
#46 = PLANE ( 'NONE',  #291 ) ;
#47 = AXIS2_PLACEMENT_3D ( 'NONE', #193, #223, #171 ) ;
#48 =( NAMED_UNIT ( * ) PLANE_ANGLE_UNIT ( ) SI_UNIT ( $, .RADIAN. ) );
#49 = UNCERTAINTY_MEASURE_WITH_UNIT (LENGTH_MEASURE( 1.000000000000000082E-05 ), #173, 'distance_accuracy_value', 'NONE');
#50 = SURFACE_STYLE_FILL_AREA ( #12 ) ;
#51 = PRESENTATION_STYLE_ASSIGNMENT (( #117 ) ) ;
#52 = ADVANCED_FACE ( 'NONE', ( #253 ), #163, .F. ) ;
#53 = VECTOR ( 'NONE', #98, 39.37007874015748143 ) ;
#54 =( LENGTH_UNIT ( ) NAMED_UNIT ( * ) SI_UNIT ( $, .METRE. ) );
#55 =( GEOMETRIC_REPRESENTATION_CONTEXT ( 3 ) GLOBAL_UNCERTAINTY_ASSIGNED_CONTEXT ( ( #279 ) ) GLOBAL_UNIT_ASSIGNED_CONTEXT ( ( #220, #68, #237 ) ) REPRESENTATION_CONTEXT ( 'NONE', 'WORKASPACE' ) );
#56 = EDGE_LOOP ( 'NONE', ( #260, #289, #183, #31 ) ) ;
#57 = SURFACE_STYLE_USAGE ( .BOTH. , #93 ) ;
#58 = CARTESIAN_POINT ( 'NONE',  ( 0.000000000000000000, 1.250000000000000000, -0.1875000000000000278 ) ) ;
#59 = ORIENTED_EDGE ( 'NONE', *, *, #69, .T. ) ;
#60 = PRESENTATION_LAYER_ASSIGNMENT (  '', '', ( #87 ) ) ;
#61 = AXIS2_PLACEMENT_3D ( 'NONE', #90, #138, #63 ) ;
#62 = DIRECTION ( 'NONE',  ( 6.997981709413449187E-17, -1.000000000000000000, 0.000000000000000000 ) ) ;
#63 = DIRECTION ( 'NONE',  ( -1.000000000000000000, 0.000000000000000000, 0.000000000000000000 ) ) ;
#64 = ORIENTED_EDGE ( 'NONE', *, *, #172, .F. ) ;
#65 = ADVANCED_FACE ( 'NONE', ( #82 ), #282, .F. ) ;
#66 = ORIENTED_EDGE ( 'NONE', *, *, #259, .F. ) ;
#67 = LINE ( 'NONE', #182, #303 ) ;
#68 =( NAMED_UNIT ( * ) PLANE_ANGLE_UNIT ( ) SI_UNIT ( $, .RADIAN. ) );
#69 = EDGE_CURVE ( 'NONE', #216, #122, #34, .T. ) ;
#70 =( NAMED_UNIT ( * ) SI_UNIT ( $, .STERADIAN. ) SOLID_ANGLE_UNIT ( ) );
#71 = PRESENTATION_LAYER_ASSIGNMENT (  '', '', ( #205 ) ) ;
#72 = PRODUCT_RELATED_PRODUCT_CATEGORY ( 'part', '', ( #232 ) ) ;
#73 = ORIENTED_EDGE ( 'NONE', *, *, #273, .F. ) ;
#74 = FACE_OUTER_BOUND ( 'NONE', #45, .T. ) ;
#75 = FACE_OUTER_BOUND ( 'NONE', #287, .T. ) ;
#76 = FACE_OUTER_BOUND ( 'NONE', #56, .T. ) ;
#77 = EDGE_LOOP ( 'NONE', ( #89, #236 ) ) ;
#78 = COLOUR_RGB ( '',1.000000000000000000, 0.000000000000000000, 0.000000000000000000 ) ;
#79 = SURFACE_STYLE_USAGE ( .BOTH. , #247 ) ;
#80 = AXIS2_PLACEMENT_3D ( 'NONE', #305, #26, #170 ) ;
#81 = CIRCLE ( 'NONE', #146, 0.1875000000000000278 ) ;
#82 = FACE_OUTER_BOUND ( 'NONE', #88, .T. ) ;
#83 = LINE ( 'NONE', #38, #53 ) ;
#84 = ORIENTED_EDGE ( 'NONE', *, *, #302, .F. ) ;
#85 = FILL_AREA_STYLE_COLOUR ( '', #186 ) ;
#86 = FILL_AREA_STYLE ('',( #264 ) ) ;
#87 = STYLED_ITEM ( 'NONE', ( #201 ), #114 ) ;
#88 = EDGE_LOOP ( 'NONE', ( #44, #73 ) ) ;
#89 = ORIENTED_EDGE ( 'NONE', *, *, #259, .T. ) ;
#90 = CARTESIAN_POINT ( 'NONE',  ( -1.224646799147353700E-16, 3.000000000000000444, 0.000000000000000000 ) ) ;
#91 = AXIS2_PLACEMENT_3D ( 'NONE', #110, #134, #6 ) ;
#92 = CYLINDRICAL_SURFACE ( 'NONE', #123, 0.1875000000000000278 ) ;
#93 = SURFACE_SIDE_STYLE ('',( #50 ) ) ;
#94 = DIRECTION ( 'NONE',  ( -6.997981709413449187E-17, 1.000000000000000000, -0.000000000000000000 ) ) ;
#95 = FILL_AREA_STYLE ('',( #301 ) ) ;
#96 = AXIS2_PLACEMENT_3D ( 'NONE', #265, #62, #229 ) ;
#97 = EDGE_CURVE ( 'NONE', #177, #141, #103, .T. ) ;
#98 = DIRECTION ( 'NONE',  ( -0.000000000000000000, -1.000000000000000000, -0.000000000000000000 ) ) ;
#99 = CARTESIAN_POINT ( 'NONE',  ( 0.000000000000000000, 1.250000000000000000, 0.000000000000000000 ) ) ;
#100 = DIMENSIONAL_EXPONENTS ( 1.000000000000000000, 0.000000000000000000, 0.000000000000000000, 0.000000000000000000, 0.000000000000000000, 0.000000000000000000, 0.000000000000000000 ) ;
#101 = SURFACE_SIDE_STYLE ('',( #249 ) ) ;
#102 = FILL_AREA_STYLE_COLOUR ( '', #78 ) ;
#103 = LINE ( 'NONE', #25, #167 ) ;
#104 = PRESENTATION_LAYER_ASSIGNMENT (  '', '', ( #262 ) ) ;
#105 = CARTESIAN_POINT ( 'NONE',  ( 2.296212748401287726E-17, 0.000000000000000000, 0.1875000000000000278 ) ) ;
#106 = AXIS2_PLACEMENT_3D ( 'NONE', #197, #151, #37 ) ;
#107 = PRODUCT_DEFINITION_CONTEXT ( 'detailed design', #28, 'design' ) ;
#108 = FILL_AREA_STYLE ('',( #85 ) ) ;
#109 = LINE ( 'NONE', #202, #190 ) ;
#110 = CARTESIAN_POINT ( 'NONE',  ( 0.000000000000000000, 1.250000000000000000, 0.000000000000000000 ) ) ;
#111 = FILL_AREA_STYLE_COLOUR ( '', #270 ) ;
#112 = MECHANICAL_DESIGN_GEOMETRIC_PRESENTATION_REPRESENTATION (  '', ( #205 ), #306 ) ;
#113 =( CONVERSION_BASED_UNIT ( 'INCH', #235 ) LENGTH_UNIT ( ) NAMED_UNIT ( #189 ) );
#114 = MANIFOLD_SOLID_BREP ( 'Revolve - Cutting Edge', #118 ) ;
#115 = DIRECTION ( 'NONE',  ( 0.000000000000000000, 0.000000000000000000, -1.000000000000000000 ) ) ;
#116 =( LENGTH_UNIT ( ) NAMED_UNIT ( * ) SI_UNIT ( $, .METRE. ) );
#117 = SURFACE_STYLE_USAGE ( .BOTH. , #36 ) ;
#118 = CLOSED_SHELL ( 'NONE', ( #9, #22, #165, #239 ) ) ;
#119 = EDGE_CURVE ( 'NONE', #233, #160, #109, .T. ) ;
#120 = ORIENTED_EDGE ( 'NONE', *, *, #252, .F. ) ;
#121 = CARTESIAN_POINT ( 'NONE',  ( 0.000000000000000000, 1.250000000000000000, 0.000000000000000000 ) ) ;
#122 = VERTEX_POINT ( 'NONE', #293 ) ;
#123 = AXIS2_PLACEMENT_3D ( 'NONE', #128, #304, #40 ) ;
#124 = LENGTH_MEASURE_WITH_UNIT ( LENGTH_MEASURE( 0.02539999999999999897 ), #18 );
#125 = LENGTH_MEASURE_WITH_UNIT ( LENGTH_MEASURE( 0.02539999999999999897 ), #20 );
#126 = DIRECTION ( 'NONE',  ( -0.000000000000000000, -1.000000000000000000, -0.000000000000000000 ) ) ;
#127 =( NAMED_UNIT ( * ) SI_UNIT ( $, .STERADIAN. ) SOLID_ANGLE_UNIT ( ) );
#128 = CARTESIAN_POINT ( 'NONE',  ( 0.000000000000000000, 0.000000000000000000, 0.000000000000000000 ) ) ;
#129 = CARTESIAN_POINT ( 'NONE',  ( 4.591101375495486296E-34, 1.250000000000000000, 0.000000000000000000 ) ) ;
#130 = AXIS2_PLACEMENT_3D ( 'NONE', #129, #280, #152 ) ;
#131 = CARTESIAN_POINT ( 'NONE',  ( 0.000000000000000000, 1.250000000000000000, 0.000000000000000000 ) ) ;
#132 = ORIENTED_EDGE ( 'NONE', *, *, #4, .T. ) ;
#133 = VERTEX_POINT ( 'NONE', #10 ) ;
#134 = DIRECTION ( 'NONE',  ( -0.000000000000000000, -1.000000000000000000, -0.000000000000000000 ) ) ;
#135 = CIRCLE ( 'NONE', #15, 0.1875000000000000278 ) ;
#136 = DIRECTION ( 'NONE',  ( -6.997981709413449187E-17, 1.000000000000000000, -0.000000000000000000 ) ) ;
#137 = UNCERTAINTY_MEASURE_WITH_UNIT (LENGTH_MEASURE( 1.000000000000000082E-05 ), #274, 'distance_accuracy_value', 'NONE');
#138 = DIRECTION ( 'NONE',  ( -6.997981709413449187E-17, 1.000000000000000000, -0.000000000000000000 ) ) ;
#139 = DIRECTION ( 'NONE',  ( 0.000000000000000000, 1.000000000000000000, 0.000000000000000000 ) ) ;
#140 = MECHANICAL_DESIGN_GEOMETRIC_PRESENTATION_REPRESENTATION (  '', ( #213 ), #142 ) ;
#141 = VERTEX_POINT ( 'NONE', #180 ) ;
#142 =( GEOMETRIC_REPRESENTATION_CONTEXT ( 3 ) GLOBAL_UNCERTAINTY_ASSIGNED_CONTEXT ( ( #277 ) ) GLOBAL_UNIT_ASSIGNED_CONTEXT ( ( #211, #215, #70 ) ) REPRESENTATION_CONTEXT ( 'NONE', 'WORKASPACE' ) );
#143 = ORIENTED_EDGE ( 'NONE', *, *, #218, .T. ) ;
#144 = ADVANCED_BREP_SHAPE_REPRESENTATION ( '23170', ( #114, #214, #106 ), #191 ) ;
#145 = STYLED_ITEM ( 'NONE', ( #275 ), #9 ) ;
#146 = AXIS2_PLACEMENT_3D ( 'NONE', #203, #11, #288 ) ;
#147 = DIRECTION ( 'NONE',  ( -0.000000000000000000, -1.000000000000000000, -0.000000000000000000 ) ) ;
#148 = DIMENSIONAL_EXPONENTS ( 1.000000000000000000, 0.000000000000000000, 0.000000000000000000, 0.000000000000000000, 0.000000000000000000, 0.000000000000000000, 0.000000000000000000 ) ;
#149 = UNCERTAINTY_MEASURE_WITH_UNIT (LENGTH_MEASURE( 1.000000000000000082E-05 ), #254, 'distance_accuracy_value', 'NONE');
#150 = DIRECTION ( 'NONE',  ( 0.000000000000000000, -0.000000000000000000, 1.000000000000000000 ) ) ;
#151 = DIRECTION ( 'NONE',  ( 0.000000000000000000, 0.000000000000000000, 1.000000000000000000 ) ) ;
#152 = DIRECTION ( 'NONE',  ( -1.000000000000000000, -6.997981709413449187E-17, 0.000000000000000000 ) ) ;
#153 = COLOUR_RGB ( '',0.7921568627450980005, 0.8196078431372548767, 0.9333333333333333481 ) ;
#154 = AXIS2_PLACEMENT_3D ( 'NONE', #285, #136, #208 ) ;
#155 = SURFACE_STYLE_USAGE ( .BOTH. , #42 ) ;
#156 = EDGE_CURVE ( 'NONE', #41, #122, #67, .T. ) ;
#157 = DIRECTION ( 'NONE',  ( -6.997981709413449187E-17, 1.000000000000000000, -0.000000000000000000 ) ) ;
#158 = ORIENTED_EDGE ( 'NONE', *, *, #302, .T. ) ;
#159 = DIRECTION ( 'NONE',  ( 0.000000000000000000, -1.000000000000000000, -0.000000000000000000 ) ) ;
#160 = VERTEX_POINT ( 'NONE', #212 ) ;
#161 = FILL_AREA_STYLE ('',( #102 ) ) ;
#162 = MECHANICAL_DESIGN_GEOMETRIC_PRESENTATION_REPRESENTATION (  '', ( #262 ), #244 ) ;
#163 = PLANE ( 'NONE',  #96 ) ;
#164 = CIRCLE ( 'NONE', #80, 0.1875000000000001388 ) ;
#165 = ADVANCED_FACE ( 'NONE', ( #75 ), #92, .T. ) ;
#166 = DIRECTION ( 'NONE',  ( -0.000000000000000000, -1.000000000000000000, -0.000000000000000000 ) ) ;
#167 = VECTOR ( 'NONE', #198, 39.37007874015748143 ) ;
#168 = LENGTH_MEASURE_WITH_UNIT ( LENGTH_MEASURE( 0.02539999999999999897 ), #271 );
#169 = SURFACE_STYLE_USAGE ( .BOTH. , #101 ) ;
#170 = DIRECTION ( 'NONE',  ( -1.000000000000000000, 0.000000000000000000, 0.000000000000000000 ) ) ;
#171 = DIRECTION ( 'NONE',  ( -1.000000000000000000, 0.000000000000000000, 0.000000000000000000 ) ) ;
#172 = EDGE_CURVE ( 'NONE', #133, #216, #83, .T. ) ;
#173 =( CONVERSION_BASED_UNIT ( 'INCH', #246 ) LENGTH_UNIT ( ) NAMED_UNIT ( #284 ) );
#174 = PRODUCT_CONTEXT ( 'NONE', #187, 'mechanical' ) ;
#175 = ORIENTED_EDGE ( 'NONE', *, *, #218, .F. ) ;
#176 = CARTESIAN_POINT ( 'NONE',  ( 0.000000000000000000, 1.250000000000000000, 0.000000000000000000 ) ) ;
#177 = VERTEX_POINT ( 'NONE', #272 ) ;
#178 = ORIENTED_EDGE ( 'NONE', *, *, #156, .F. ) ;
#179 = ORIENTED_EDGE ( 'NONE', *, *, #69, .F. ) ;
#180 = CARTESIAN_POINT ( 'NONE',  ( 0.1875000000000000278, 3.000000000000000444, 2.296212748401288650E-17 ) ) ;
#181 = APPLICATION_PROTOCOL_DEFINITION ( 'draft international standard', 'automotive_design', 1998, #187 ) ;
#182 = CARTESIAN_POINT ( 'NONE',  ( 0.000000000000000000, 0.000000000000000000, -0.1875000000000000278 ) ) ;
#183 = ORIENTED_EDGE ( 'NONE', *, *, #119, .T. ) ;
#184 = LENGTH_MEASURE_WITH_UNIT ( LENGTH_MEASURE( 0.02539999999999999897 ), #54 );
#185 = MECHANICAL_DESIGN_GEOMETRIC_PRESENTATION_REPRESENTATION (  '', ( #145 ), #226 ) ;
#186 = COLOUR_RGB ( '',0.7921568627450980005, 0.8196078431372548767, 0.9333333333333333481 ) ;
#187 = APPLICATION_CONTEXT ( 'automotive_design' ) ;
#188 = DIRECTION ( 'NONE',  ( -1.000000000000000000, 0.000000000000000000, 0.000000000000000000 ) ) ;
#189 = DIMENSIONAL_EXPONENTS ( 1.000000000000000000, 0.000000000000000000, 0.000000000000000000, 0.000000000000000000, 0.000000000000000000, 0.000000000000000000, 0.000000000000000000 ) ;
#190 = VECTOR ( 'NONE', #2, 39.37007874015748143 ) ;
#191 =( GEOMETRIC_REPRESENTATION_CONTEXT ( 3 ) GLOBAL_UNCERTAINTY_ASSIGNED_CONTEXT ( ( #32 ) ) GLOBAL_UNIT_ASSIGNED_CONTEXT ( ( #113, #48, #230 ) ) REPRESENTATION_CONTEXT ( 'NONE', 'WORKASPACE' ) );
#192 = CARTESIAN_POINT ( 'NONE',  ( 0.000000000000000000, 0.000000000000000000, 0.000000000000000000 ) ) ;
#193 = CARTESIAN_POINT ( 'NONE',  ( -1.224646799147353700E-16, 3.000000000000000444, 0.000000000000000000 ) ) ;
#194 = ADVANCED_FACE ( 'NONE', ( #76 ), #227, .T. ) ;
#195 =( LENGTH_UNIT ( ) NAMED_UNIT ( * ) SI_UNIT ( $, .METRE. ) );
#196 =( CONVERSION_BASED_UNIT ( 'INCH', #124 ) LENGTH_UNIT ( ) NAMED_UNIT ( #148 ) );
#197 = CARTESIAN_POINT ( 'NONE',  ( 0.000000000000000000, 0.000000000000000000, 0.000000000000000000 ) ) ;
#198 = DIRECTION ( 'NONE',  ( -6.997981709413449187E-17, 1.000000000000000000, -0.000000000000000000 ) ) ;
#199 = CYLINDRICAL_SURFACE ( 'NONE', #217, 0.1875000000000000278 ) ;
#200 = DIRECTION ( 'NONE',  ( 0.000000000000000000, 0.000000000000000000, -1.000000000000000000 ) ) ;
#201 = PRESENTATION_STYLE_ASSIGNMENT (( #155 ) ) ;
#202 = CARTESIAN_POINT ( 'NONE',  ( -0.1875000000000002220, 3.000000000000000444, 0.000000000000000000 ) ) ;
#203 = CARTESIAN_POINT ( 'NONE',  ( 0.000000000000000000, 0.000000000000000000, 0.000000000000000000 ) ) ;
#204 = ORIENTED_EDGE ( 'NONE', *, *, #252, .T. ) ;
#205 = STYLED_ITEM ( 'NONE', ( #23 ), #214 ) ;
#206 = CARTESIAN_POINT ( 'NONE',  ( 0.000000000000000000, 0.000000000000000000, 0.000000000000000000 ) ) ;
#207 = EDGE_CURVE ( 'NONE', #141, #160, #164, .T. ) ;
#208 = DIRECTION ( 'NONE',  ( -1.000000000000000000, 0.000000000000000000, 0.000000000000000000 ) ) ;
#209 = CIRCLE ( 'NONE', #283, 0.1875000000000000278 ) ;
#210 = COLOUR_RGB ( '',1.000000000000000000, 0.000000000000000000, 0.000000000000000000 ) ;
#211 =( CONVERSION_BASED_UNIT ( 'INCH', #184 ) LENGTH_UNIT ( ) NAMED_UNIT ( #251 ) );
#212 = CARTESIAN_POINT ( 'NONE',  ( -0.1875000000000002776, 3.000000000000000444, 0.000000000000000000 ) ) ;
#213 = STYLED_ITEM ( 'NONE', ( #51 ), #165 ) ;
#214 = MANIFOLD_SOLID_BREP ( 'Revolve - Tool Body (Straight Shanked)', #243 ) ;
#215 =( NAMED_UNIT ( * ) PLANE_ANGLE_UNIT ( ) SI_UNIT ( $, .RADIAN. ) );
#216 = VERTEX_POINT ( 'NONE', #105 ) ;
#217 = AXIS2_PLACEMENT_3D ( 'NONE', #192, #309, #115 ) ;
#218 = EDGE_CURVE ( 'NONE', #41, #133, #135, .T. ) ;
#219 =( NAMED_UNIT ( * ) SI_UNIT ( $, .STERADIAN. ) SOLID_ANGLE_UNIT ( ) );
#220 =( CONVERSION_BASED_UNIT ( 'INCH', #125 ) LENGTH_UNIT ( ) NAMED_UNIT ( #17 ) );
#221 = FACE_OUTER_BOUND ( 'NONE', #7, .T. ) ;
#222 =( NAMED_UNIT ( * ) PLANE_ANGLE_UNIT ( ) SI_UNIT ( $, .RADIAN. ) );
#223 = DIRECTION ( 'NONE',  ( -6.997981709413449187E-17, 1.000000000000000000, -0.000000000000000000 ) ) ;
#224 = UNCERTAINTY_MEASURE_WITH_UNIT (LENGTH_MEASURE( 1.000000000000000082E-05 ), #196, 'distance_accuracy_value', 'NONE');
#225 = CARTESIAN_POINT ( 'NONE',  ( 0.000000000000000000, 0.000000000000000000, 0.000000000000000000 ) ) ;
#226 =( GEOMETRIC_REPRESENTATION_CONTEXT ( 3 ) GLOBAL_UNCERTAINTY_ASSIGNED_CONTEXT ( ( #49 ) ) GLOBAL_UNIT_ASSIGNED_CONTEXT ( ( #173, #269, #127 ) ) REPRESENTATION_CONTEXT ( 'NONE', 'WORKASPACE' ) );
#227 = CYLINDRICAL_SURFACE ( 'NONE', #47, 0.1875000000000000833 ) ;
#228 =( NAMED_UNIT ( * ) SI_UNIT ( $, .STERADIAN. ) SOLID_ANGLE_UNIT ( ) );
#229 = DIRECTION ( 'NONE',  ( 1.000000000000000000, 6.997981709413449187E-17, 0.000000000000000000 ) ) ;
#230 =( NAMED_UNIT ( * ) SI_UNIT ( $, .STERADIAN. ) SOLID_ANGLE_UNIT ( ) );
#231 = EDGE_LOOP ( 'NONE', ( #132, #5, #66, #292 ) ) ;
#232 = PRODUCT ( '23170', '23170', '', ( #174 ) ) ;
#233 = VERTEX_POINT ( 'NONE', #250 ) ;
#234 = MECHANICAL_DESIGN_GEOMETRIC_PRESENTATION_REPRESENTATION (  '', ( #240 ), #55 ) ;
#235 = LENGTH_MEASURE_WITH_UNIT ( LENGTH_MEASURE( 0.02539999999999999897 ), #8 );
#236 = ORIENTED_EDGE ( 'NONE', *, *, #207, .T. ) ;
#237 =( NAMED_UNIT ( * ) SI_UNIT ( $, .STERADIAN. ) SOLID_ANGLE_UNIT ( ) );
#238 = DIRECTION ( 'NONE',  ( 0.000000000000000000, 0.000000000000000000, -1.000000000000000000 ) ) ;
#239 = ADVANCED_FACE ( 'NONE', ( #221 ), #46, .T. ) ;
#240 = STYLED_ITEM ( 'NONE', ( #19 ), #22 ) ;
#241 = CIRCLE ( 'NONE', #35, 0.1875000000000000278 ) ;
#242 = FILL_AREA_STYLE_COLOUR ( '', #210 ) ;
#243 = CLOSED_SHELL ( 'NONE', ( #267, #65, #194, #52 ) ) ;
#244 =( GEOMETRIC_REPRESENTATION_CONTEXT ( 3 ) GLOBAL_UNCERTAINTY_ASSIGNED_CONTEXT ( ( #137 ) ) GLOBAL_UNIT_ASSIGNED_CONTEXT ( ( #274, #222, #257 ) ) REPRESENTATION_CONTEXT ( 'NONE', 'WORKASPACE' ) );
#245 = PRODUCT_DEFINITION ( 'UNKNOWN', '', #24, #107 ) ;
#246 = LENGTH_MEASURE_WITH_UNIT ( LENGTH_MEASURE( 0.02539999999999999897 ), #195 );
#247 = SURFACE_SIDE_STYLE ('',( #276 ) ) ;
#248 = AXIS2_PLACEMENT_3D ( 'NONE', #131, #139, #150 ) ;
#249 = SURFACE_STYLE_FILL_AREA ( #95 ) ;
#250 = CARTESIAN_POINT ( 'NONE',  ( -0.1875000000000000278, 1.250000000000000000, 0.000000000000000000 ) ) ;
#251 = DIMENSIONAL_EXPONENTS ( 1.000000000000000000, 0.000000000000000000, 0.000000000000000000, 0.000000000000000000, 0.000000000000000000, 0.000000000000000000, 0.000000000000000000 ) ;
#252 = EDGE_CURVE ( 'NONE', #122, #216, #81, .T. ) ;
#253 = FACE_OUTER_BOUND ( 'NONE', #77, .T. ) ;
#254 =( CONVERSION_BASED_UNIT ( 'INCH', #1 ) LENGTH_UNIT ( ) NAMED_UNIT ( #100 ) );
#255 = MECHANICAL_DESIGN_GEOMETRIC_PRESENTATION_REPRESENTATION (  '', ( #87 ), #13 ) ;
#256 = CIRCLE ( 'NONE', #91, 0.1875000000000000278 ) ;
#257 =( NAMED_UNIT ( * ) SI_UNIT ( $, .STERADIAN. ) SOLID_ANGLE_UNIT ( ) );
#258 = CYLINDRICAL_SURFACE ( 'NONE', #61, 0.1875000000000000833 ) ;
#259 = EDGE_CURVE ( 'NONE', #160, #141, #298, .T. ) ;
#260 = ORIENTED_EDGE ( 'NONE', *, *, #97, .F. ) ;
#261 = FACE_OUTER_BOUND ( 'NONE', #21, .T. ) ;
#262 = STYLED_ITEM ( 'NONE', ( #299 ), #239 ) ;
#263 = SURFACE_SIDE_STYLE ('',( #290 ) ) ;
#264 = FILL_AREA_STYLE_COLOUR ( '', #153 ) ;
#265 = CARTESIAN_POINT ( 'NONE',  ( 0.1875000000000000278, 3.000000000000000444, 0.000000000000000000 ) ) ;
#266 = PRODUCT_DEFINITION_SHAPE ( 'NONE', 'NONE',  #245 ) ;
#267 = ADVANCED_FACE ( 'NONE', ( #33 ), #258, .T. ) ;
#268 = FILL_AREA_STYLE ('',( #242 ) ) ;
#269 =( NAMED_UNIT ( * ) PLANE_ANGLE_UNIT ( ) SI_UNIT ( $, .RADIAN. ) );
#270 = COLOUR_RGB ( '',1.000000000000000000, 0.000000000000000000, 0.000000000000000000 ) ;
#271 =( LENGTH_UNIT ( ) NAMED_UNIT ( * ) SI_UNIT ( $, .METRE. ) );
#272 = CARTESIAN_POINT ( 'NONE',  ( 0.1875000000000000278, 1.250000000000000000, 2.296212748401288650E-17 ) ) ;
#273 = EDGE_CURVE ( 'NONE', #177, #233, #241, .T. ) ;
#274 =( CONVERSION_BASED_UNIT ( 'INCH', #168 ) LENGTH_UNIT ( ) NAMED_UNIT ( #43 ) );
#275 = PRESENTATION_STYLE_ASSIGNMENT (( #169 ) ) ;
#276 = SURFACE_STYLE_FILL_AREA ( #108 ) ;
#277 = UNCERTAINTY_MEASURE_WITH_UNIT (LENGTH_MEASURE( 1.000000000000000082E-05 ), #211, 'distance_accuracy_value', 'NONE');
#278 =( NAMED_UNIT ( * ) PLANE_ANGLE_UNIT ( ) SI_UNIT ( $, .RADIAN. ) );
#279 = UNCERTAINTY_MEASURE_WITH_UNIT (LENGTH_MEASURE( 1.000000000000000082E-05 ), #220, 'distance_accuracy_value', 'NONE');
#280 = DIRECTION ( 'NONE',  ( -6.997981709413449187E-17, 1.000000000000000000, 0.000000000000000000 ) ) ;
#281 = APPLICATION_PROTOCOL_DEFINITION ( 'draft international standard', 'automotive_design', 1998, #28 ) ;
#282 = PLANE ( 'NONE',  #130 ) ;
#283 = AXIS2_PLACEMENT_3D ( 'NONE', #99, #94, #188 ) ;
#284 = DIMENSIONAL_EXPONENTS ( 1.000000000000000000, 0.000000000000000000, 0.000000000000000000, 0.000000000000000000, 0.000000000000000000, 0.000000000000000000, 0.000000000000000000 ) ;
#285 = CARTESIAN_POINT ( 'NONE',  ( -1.224646799147353700E-16, 3.000000000000000444, 0.000000000000000000 ) ) ;
#286 = PRESENTATION_LAYER_ASSIGNMENT (  '', '', ( #213 ) ) ;
#287 = EDGE_LOOP ( 'NONE', ( #64, #158, #16, #179 ) ) ;
#288 = DIRECTION ( 'NONE',  ( 0.000000000000000000, 0.000000000000000000, -1.000000000000000000 ) ) ;
#289 = ORIENTED_EDGE ( 'NONE', *, *, #273, .T. ) ;
#290 = SURFACE_STYLE_FILL_AREA ( #161 ) ;
#291 = AXIS2_PLACEMENT_3D ( 'NONE', #206, #159, #238 ) ;
#292 = ORIENTED_EDGE ( 'NONE', *, *, #119, .F. ) ;
#293 = CARTESIAN_POINT ( 'NONE',  ( 0.000000000000000000, 0.000000000000000000, -0.1875000000000000278 ) ) ;
#294 = DIRECTION ( 'NONE',  ( -1.000000000000000000, 0.000000000000000000, 0.000000000000000000 ) ) ;
#295 =( NAMED_UNIT ( * ) PLANE_ANGLE_UNIT ( ) SI_UNIT ( $, .RADIAN. ) );
#296 = COLOUR_RGB ( '',1.000000000000000000, 0.000000000000000000, 0.000000000000000000 ) ;
#297 = PRESENTATION_LAYER_ASSIGNMENT (  '', '', ( #240 ) ) ;
#298 = CIRCLE ( 'NONE', #154, 0.1875000000000001388 ) ;
#299 = PRESENTATION_STYLE_ASSIGNMENT (( #27 ) ) ;
#300 = SURFACE_STYLE_FILL_AREA ( #268 ) ;
#301 = FILL_AREA_STYLE_COLOUR ( '', #296 ) ;
#302 = EDGE_CURVE ( 'NONE', #133, #41, #256, .T. ) ;
#303 = VECTOR ( 'NONE', #166, 39.37007874015748143 ) ;
#304 = DIRECTION ( 'NONE',  ( -0.000000000000000000, -1.000000000000000000, -0.000000000000000000 ) ) ;
#305 = CARTESIAN_POINT ( 'NONE',  ( -1.224646799147353700E-16, 3.000000000000000444, 0.000000000000000000 ) ) ;
#306 =( GEOMETRIC_REPRESENTATION_CONTEXT ( 3 ) GLOBAL_UNCERTAINTY_ASSIGNED_CONTEXT ( ( #224 ) ) GLOBAL_UNIT_ASSIGNED_CONTEXT ( ( #196, #278, #219 ) ) REPRESENTATION_CONTEXT ( 'NONE', 'WORKASPACE' ) );
#307 = SHAPE_DEFINITION_REPRESENTATION ( #266, #144 ) ;
#308 = SURFACE_STYLE_FILL_AREA ( #86 ) ;
#309 = DIRECTION ( 'NONE',  ( -0.000000000000000000, -1.000000000000000000, -0.000000000000000000 ) ) ;
ENDSEC;
END-ISO-10303-21;
