ISO-10303-21;
HEADER;
FILE_DESCRIPTION (( 'STEP AP214' ),
    '1' );
FILE_NAME ('Micro_BMS-025-2.STEP',
    '2021-09-03T15:01:49',
    ( '' ),
    ( '' ),
    'SwSTEP 2.0',
    'SolidWorks 2020',
    '' );
FILE_SCHEMA (( 'AUTOMOTIVE_DESIGN' ));
ENDSEC;

DATA;
#1 = CARTESIAN_POINT ( 'NONE',  ( 0.0000000000000000000, 0.0000000000000000000, 1.500000000000000222 ) ) ;
#2 = DIRECTION ( 'NONE',  ( 1.000000000000000000, 0.0000000000000000000, 0.0000000000000000000 ) ) ;
#3 = ADVANCED_FACE ( 'NONE', ( #96 ), #240, .T. ) ;
#4 =( GEOMETRIC_REPRESENTATION_CONTEXT ( 3 ) GLOBAL_UNCERTAINTY_ASSIGNED_CONTEXT ( ( #102 ) ) GLOBAL_UNIT_ASSIGNED_CONTEXT ( ( #206, #261, #10 ) ) REPRESENTATION_CONTEXT ( 'NONE', 'WORKASPACE' ) );
#5 = CARTESIAN_POINT ( 'NONE',  ( 0.0000000000000000000, 0.0000000000000000000, 0.0000000000000000000 ) ) ;
#6 = ORIENTED_EDGE ( 'NONE', *, *, #147, .F. ) ;
#7 =( NAMED_UNIT ( * ) SI_UNIT ( $, .STERADIAN. ) SOLID_ANGLE_UNIT ( ) );
#8 = CARTESIAN_POINT ( 'NONE',  ( 0.01248750000000000207, 1.529277690435257475E-18, 0.01248749999999999860 ) ) ;
#9 = ORIENTED_EDGE ( 'NONE', *, *, #310, .F. ) ;
#10 =( NAMED_UNIT ( * ) SI_UNIT ( $, .STERADIAN. ) SOLID_ANGLE_UNIT ( ) );
#11 = DIRECTION ( 'NONE',  ( 1.000000000000000000, 0.0000000000000000000, 0.0000000000000000000 ) ) ;
#12 = ORIENTED_EDGE ( 'NONE', *, *, #17, .T. ) ;
#13 = LENGTH_MEASURE_WITH_UNIT ( LENGTH_MEASURE( 0.02539999999999999897 ), #215 );
#14 = DIRECTION ( 'NONE',  ( -1.000000000000000000, 0.0000000000000000000, 1.709114110150314860E-16 ) ) ;
#15 = DIRECTION ( 'NONE',  ( 0.0000000000000000000, 0.0000000000000000000, 1.000000000000000000 ) ) ;
#16 = EDGE_LOOP ( 'NONE', ( #197, #313, #216, #190 ) ) ;
#17 = EDGE_CURVE ( 'NONE', #289, #92, #244, .T. ) ;
#18 = CIRCLE ( 'NONE', #61, 0.06250000000000000000 ) ;
#19 = VECTOR ( 'NONE', #80, 39.37007874015748143 ) ;
#20 =( NAMED_UNIT ( * ) SI_UNIT ( $, .STERADIAN. ) SOLID_ANGLE_UNIT ( ) );
#21 =( NAMED_UNIT ( * ) PLANE_ANGLE_UNIT ( ) SI_UNIT ( $, .RADIAN. ) );
#22 = LINE ( 'NONE', #225, #298 ) ;
#23 = AXIS2_PLACEMENT_3D ( 'NONE', #94, #242, #120 ) ;
#24 = FACE_OUTER_BOUND ( 'NONE', #143, .T. ) ;
#25 = COLOUR_RGB ( '',0.7921568627450980005, 0.8196078431372548767, 0.9333333333333333481 ) ;
#26 = SHAPE_DEFINITION_REPRESENTATION ( #202, #233 ) ;
#27 = EDGE_CURVE ( 'NONE', #160, #314, #18, .T. ) ;
#28 = DIRECTION ( 'NONE',  ( -0.7071067811865456854, 0.0000000000000000000, -0.7071067811865493491 ) ) ;
#29 = AXIS2_PLACEMENT_3D ( 'NONE', #299, #15, #75 ) ;
#30 = ADVANCED_FACE ( 'NONE', ( #165 ), #88, .T. ) ;
#31 = DIRECTION ( 'NONE',  ( 1.224646799147353454E-16, 0.0000000000000000000, 1.000000000000000000 ) ) ;
#32 = DIRECTION ( 'NONE',  ( 1.000000000000000000, 0.0000000000000000000, -0.0000000000000000000 ) ) ;
#33 = UNCERTAINTY_MEASURE_WITH_UNIT (LENGTH_MEASURE( 1.000000000000000082E-05 ), #249, 'distance_accuracy_value', 'NONE');
#34 = CIRCLE ( 'NONE', #62, 0.04750000000000064587 ) ;
#35 = ORIENTED_EDGE ( 'NONE', *, *, #147, .T. ) ;
#36 = SURFACE_SIDE_STYLE ('',( #235 ) ) ;
#37 = CARTESIAN_POINT ( 'NONE',  ( -0.06250000000000000000, 0.0000000000000000000, 1.500000000000000222 ) ) ;
#38 = CARTESIAN_POINT ( 'NONE',  ( 1.529277690435257668E-18, 0.0000000000000000000, 0.01248750000000000034 ) ) ;
#39 = EDGE_LOOP ( 'NONE', ( #118, #210, #186, #41 ) ) ;
#40 = CARTESIAN_POINT ( 'NONE',  ( 0.0000000000000000000, 0.0000000000000000000, 1.485000000000000764 ) ) ;
#41 = ORIENTED_EDGE ( 'NONE', *, *, #300, .F. ) ;
#42 = EDGE_LOOP ( 'NONE', ( #121, #293, #63, #239 ) ) ;
#43 = EDGE_LOOP ( 'NONE', ( #318, #305, #163, #148 ) ) ;
#44 = PRESENTATION_LAYER_ASSIGNMENT (  '', '', ( #110 ) ) ;
#45 = DIMENSIONAL_EXPONENTS ( 1.000000000000000000, 0.0000000000000000000, 0.0000000000000000000, 0.0000000000000000000, 0.0000000000000000000, 0.0000000000000000000, 0.0000000000000000000 ) ;
#46 = DIRECTION ( 'NONE',  ( -1.224646799147353454E-16, -0.0000000000000000000, -1.000000000000000000 ) ) ;
#47 = CARTESIAN_POINT ( 'NONE',  ( 4.531193156845207618E-18, 0.0000000000000000000, 0.03699999999999999817 ) ) ;
#48 = APPLICATION_CONTEXT ( 'automotive_design' ) ;
#49 =( LENGTH_UNIT ( ) NAMED_UNIT ( * ) SI_UNIT ( $, .METRE. ) );
#50 = DIRECTION ( 'NONE',  ( 0.7071067811865456854, 8.659560562354911904E-17, -0.7071067811865493491 ) ) ;
#51 = DIRECTION ( 'NONE',  ( -0.0000000000000000000, -0.0000000000000000000, -1.000000000000000000 ) ) ;
#52 = AXIS2_PLACEMENT_3D ( 'NONE', #174, #323, #297 ) ;
#53 = AXIS2_PLACEMENT_3D ( 'NONE', #161, #31, #69 ) ;
#54 = EDGE_CURVE ( 'NONE', #92, #115, #254, .T. ) ;
#55 = CARTESIAN_POINT ( 'NONE',  ( 4.531193156845207618E-18, 0.0000000000000000000, 0.03699999999999999817 ) ) ;
#56 = CYLINDRICAL_SURFACE ( 'NONE', #255, 0.06250000000000000000 ) ;
#57 = CARTESIAN_POINT ( 'NONE',  ( 2.293916535652886598E-18, 0.0000000000000000000, 0.0000000000000000000 ) ) ;
#58 = EDGE_CURVE ( 'NONE', #274, #286, #76, .T. ) ;
#59 = COLOUR_RGB ( '',0.7921568627450980005, 0.8196078431372548767, 0.9333333333333333481 ) ;
#60 = ORIENTED_EDGE ( 'NONE', *, *, #54, .F. ) ;
#61 = AXIS2_PLACEMENT_3D ( 'NONE', #218, #267, #11 ) ;
#62 = AXIS2_PLACEMENT_3D ( 'NONE', #307, #128, #180 ) ;
#63 = ORIENTED_EDGE ( 'NONE', *, *, #300, .T. ) ;
#64 = FACE_OUTER_BOUND ( 'NONE', #97, .T. ) ;
#65 = DIRECTION ( 'NONE',  ( 0.0000000000000000000, 1.000000000000000000, 0.0000000000000000000 ) ) ;
#66 = ORIENTED_EDGE ( 'NONE', *, *, #184, .F. ) ;
#67 = LENGTH_MEASURE_WITH_UNIT ( LENGTH_MEASURE( 0.02539999999999999897 ), #266 );
#68 = ORIENTED_EDGE ( 'NONE', *, *, #27, .F. ) ;
#69 = DIRECTION ( 'NONE',  ( 1.000000000000000000, 0.0000000000000000000, 0.0000000000000000000 ) ) ;
#70 = VERTEX_POINT ( 'NONE', #292 ) ;
#71 = AXIS2_PLACEMENT_3D ( 'NONE', #152, #280, #304 ) ;
#72 = AXIS2_PLACEMENT_3D ( 'NONE', #47, #79, #325 ) ;
#73 = SURFACE_SIDE_STYLE ('',( #144 ) ) ;
#74 = ORIENTED_EDGE ( 'NONE', *, *, #192, .T. ) ;
#75 = DIRECTION ( 'NONE',  ( 1.000000000000000000, 0.0000000000000000000, 0.0000000000000000000 ) ) ;
#76 = CIRCLE ( 'NONE', #250, 0.06250000000000000000 ) ;
#77 = CIRCLE ( 'NONE', #309, 0.01248750000000000034 ) ;
#78 = CARTESIAN_POINT ( 'NONE',  ( 4.531193156845207618E-18, 0.0000000000000000000, 0.03699999999999999817 ) ) ;
#79 = DIRECTION ( 'NONE',  ( 1.224646799147353454E-16, 0.0000000000000000000, 1.000000000000000000 ) ) ;
#80 = DIRECTION ( 'NONE',  ( -0.0000000000000000000, -0.0000000000000000000, -1.000000000000000000 ) ) ;
#81 = PRODUCT_DEFINITION ( 'UNKNOWN', '', #319, #207 ) ;
#82 = DIRECTION ( 'NONE',  ( -1.000000000000000000, 0.0000000000000000000, 0.0000000000000000000 ) ) ;
#83 = CARTESIAN_POINT ( 'NONE',  ( -0.04750000000000064587, 0.0000000000000000000, 1.500000000000000222 ) ) ;
#84 =( CONVERSION_BASED_UNIT ( 'INCH', #67 ) LENGTH_UNIT ( ) NAMED_UNIT ( #234 ) );
#85 = DIRECTION ( 'NONE',  ( 1.000000000000000000, 0.0000000000000000000, 0.0000000000000000000 ) ) ;
#86 = EDGE_CURVE ( 'NONE', #311, #160, #209, .T. ) ;
#87 = ORIENTED_EDGE ( 'NONE', *, *, #122, .F. ) ;
#88 = CYLINDRICAL_SURFACE ( 'NONE', #89, 0.01248750000000000034 ) ;
#89 = AXIS2_PLACEMENT_3D ( 'NONE', #291, #139, #132 ) ;
#90 = AXIS2_PLACEMENT_3D ( 'NONE', #55, #127, #107 ) ;
#91 = ORIENTED_EDGE ( 'NONE', *, *, #104, .T. ) ;
#92 = VERTEX_POINT ( 'NONE', #213 ) ;
#93 = ADVANCED_FACE ( 'NONE', ( #187 ), #245, .T. ) ;
#94 = CARTESIAN_POINT ( 'NONE',  ( 1.529277690435257668E-18, 0.0000000000000000000, 0.01248750000000000034 ) ) ;
#95 = ORIENTED_EDGE ( 'NONE', *, *, #192, .F. ) ;
#96 = FACE_OUTER_BOUND ( 'NONE', #220, .T. ) ;
#97 = EDGE_LOOP ( 'NONE', ( #6, #191, #226, #158 ) ) ;
#98 = VECTOR ( 'NONE', #105, 39.37007874015748143 ) ;
#99 = UNCERTAINTY_MEASURE_WITH_UNIT (LENGTH_MEASURE( 1.000000000000000082E-05 ), #84, 'distance_accuracy_value', 'NONE');
#100 = CARTESIAN_POINT ( 'NONE',  ( -0.01248749999999999340, 1.529277690435257282E-18, 0.03699999999999999817 ) ) ;
#101 = ADVANCED_FACE ( 'NONE', ( #238 ), #288, .T. ) ;
#102 = UNCERTAINTY_MEASURE_WITH_UNIT (LENGTH_MEASURE( 1.000000000000000082E-05 ), #206, 'distance_accuracy_value', 'NONE');
#103 = FACE_OUTER_BOUND ( 'NONE', #167, .T. ) ;
#104 = EDGE_CURVE ( 'NONE', #274, #314, #264, .T. ) ;
#105 = DIRECTION ( 'NONE',  ( -1.224646799147353454E-16, -0.0000000000000000000, -1.000000000000000000 ) ) ;
#106 = FACE_OUTER_BOUND ( 'NONE', #246, .T. ) ;
#107 = DIRECTION ( 'NONE',  ( -1.000000000000000000, 0.0000000000000000000, 0.0000000000000000000 ) ) ;
#108 = CARTESIAN_POINT ( 'NONE',  ( 1.529277690435257668E-18, 0.0000000000000000000, 0.01248750000000000034 ) ) ;
#109 = DIRECTION ( 'NONE',  ( 1.000000000000000000, 0.0000000000000000000, 0.0000000000000000000 ) ) ;
#110 = STYLED_ITEM ( 'NONE', ( #277 ), #141 ) ;
#111 = STYLED_ITEM ( 'NONE', ( #188 ), #233 ) ;
#112 = DIRECTION ( 'NONE',  ( -1.224646799147353454E-16, -0.0000000000000000000, -1.000000000000000000 ) ) ;
#113 = ORIENTED_EDGE ( 'NONE', *, *, #86, .F. ) ;
#114 = CARTESIAN_POINT ( 'NONE',  ( -0.01248749999999999340, 4.591660092553106740E-18, 0.03699999999999999817 ) ) ;
#115 = VERTEX_POINT ( 'NONE', #8 ) ;
#116 = VERTEX_POINT ( 'NONE', #114 ) ;
#117 = CARTESIAN_POINT ( 'NONE',  ( 0.0000000000000000000, 0.0000000000000000000, 1.485000000000000764 ) ) ;
#118 = ORIENTED_EDGE ( 'NONE', *, *, #252, .F. ) ;
#119 = DIRECTION ( 'NONE',  ( 0.0000000000000000000, 0.0000000000000000000, -1.000000000000000000 ) ) ;
#120 = DIRECTION ( 'NONE',  ( -1.000000000000000000, 1.224646799147353207E-16, 0.0000000000000000000 ) ) ;
#121 = ORIENTED_EDGE ( 'NONE', *, *, #130, .F. ) ;
#122 = EDGE_CURVE ( 'NONE', #116, #311, #229, .T. ) ;
#123 = ADVANCED_FACE ( 'NONE', ( #24 ), #282, .T. ) ;
#124 = CONICAL_SURFACE ( 'NONE', #276, 0.04750000000000064587, 0.7853981633974457255 ) ;
#125 = FILL_AREA_STYLE ('',( #149 ) ) ;
#126 = LINE ( 'NONE', #205, #19 ) ;
#127 = DIRECTION ( 'NONE',  ( -1.224646799147353454E-16, -0.0000000000000000000, -1.000000000000000000 ) ) ;
#128 = DIRECTION ( 'NONE',  ( 0.0000000000000000000, 0.0000000000000000000, 1.000000000000000000 ) ) ;
#129 = CONICAL_SURFACE ( 'NONE', #53, 0.01248749999999999860, 0.1745329251994339192 ) ;
#130 = EDGE_CURVE ( 'NONE', #70, #286, #196, .T. ) ;
#131 = APPLICATION_PROTOCOL_DEFINITION ( 'draft international standard', 'automotive_design', 1998, #48 ) ;
#132 = DIRECTION ( 'NONE',  ( -1.000000000000000000, 0.0000000000000000000, 1.224646799147353454E-16 ) ) ;
#133 = ORIENTED_EDGE ( 'NONE', *, *, #231, .F. ) ;
#134 =( NAMED_UNIT ( * ) PLANE_ANGLE_UNIT ( ) SI_UNIT ( $, .RADIAN. ) );
#135 = DIRECTION ( 'NONE',  ( -0.0000000000000000000, -0.0000000000000000000, -1.000000000000000000 ) ) ;
#136 = ORIENTED_EDGE ( 'NONE', *, *, #58, .T. ) ;
#137 = ADVANCED_FACE ( 'NONE', ( #173 ), #199, .T. ) ;
#138 = CARTESIAN_POINT ( 'NONE',  ( 1.529277690435257668E-18, 0.0000000000000000000, 0.01248750000000000034 ) ) ;
#139 = DIRECTION ( 'NONE',  ( -1.224646799147353454E-16, -0.0000000000000000000, -1.000000000000000000 ) ) ;
#140 = CIRCLE ( 'NONE', #221, 0.06250000000000000000 ) ;
#141 = MANIFOLD_SOLID_BREP ( 'Fillet1', #316 ) ;
#142 = CARTESIAN_POINT ( 'NONE',  ( 0.0000000000000000000, 0.0000000000000000000, 1.500000000000000222 ) ) ;
#143 = EDGE_LOOP ( 'NONE', ( #87, #35, #214, #113 ) ) ;
#144 = SURFACE_STYLE_FILL_AREA ( #125 ) ;
#145 = CIRCLE ( 'NONE', #71, 0.04750000000000064587 ) ;
#146 = APPLICATION_CONTEXT ( 'automotive_design' ) ;
#147 = EDGE_CURVE ( 'NONE', #116, #314, #222, .T. ) ;
#148 = ORIENTED_EDGE ( 'NONE', *, *, #211, .F. ) ;
#149 = FILL_AREA_STYLE_COLOUR ( '', #59 ) ;
#150 = AXIS2_PLACEMENT_3D ( 'NONE', #142, #247, #32 ) ;
#151 = DIRECTION ( 'NONE',  ( 0.0000000000000000000, -1.000000000000000000, 0.0000000000000000000 ) ) ;
#152 = CARTESIAN_POINT ( 'NONE',  ( 0.0000000000000000000, 0.0000000000000000000, 1.500000000000000222 ) ) ;
#153 = CARTESIAN_POINT ( 'NONE',  ( 0.0000000000000000000, 0.0000000000000000000, 1.500000000000000222 ) ) ;
#154 = CARTESIAN_POINT ( 'NONE',  ( -0.04750000000000064587, 0.0000000000000000000, 1.500000000000000222 ) ) ;
#155 = LINE ( 'NONE', #182, #98 ) ;
#156 = CARTESIAN_POINT ( 'NONE',  ( 0.01248750000000000207, 0.0000000000000000000, 0.03699999999999999817 ) ) ;
#157 = DIRECTION ( 'NONE',  ( 1.000000000000000000, 0.0000000000000000000, 0.0000000000000000000 ) ) ;
#158 = ORIENTED_EDGE ( 'NONE', *, *, #27, .T. ) ;
#159 = CIRCLE ( 'NONE', #90, 0.01248749999999999860 ) ;
#160 = VERTEX_POINT ( 'NONE', #169 ) ;
#161 = CARTESIAN_POINT ( 'NONE',  ( 4.531193156845207618E-18, 0.0000000000000000000, 0.03699999999999999817 ) ) ;
#162 = DIRECTION ( 'NONE',  ( -1.000000000000000000, 0.0000000000000000000, 1.224646799147353454E-16 ) ) ;
#163 = ORIENTED_EDGE ( 'NONE', *, *, #310, .T. ) ;
#164 = ORIENTED_EDGE ( 'NONE', *, *, #252, .T. ) ;
#165 = FACE_OUTER_BOUND ( 'NONE', #43, .T. ) ;
#166 = CIRCLE ( 'NONE', #251, 0.01248750000000000034 ) ;
#167 = EDGE_LOOP ( 'NONE', ( #95, #268, #91, #68 ) ) ;
#168 = ADVANCED_FACE ( 'NONE', ( #106 ), #56, .T. ) ;
#169 = CARTESIAN_POINT ( 'NONE',  ( 0.06250000000000004163, 7.654042494670960626E-18, 0.3206349820036290543 ) ) ;
#170 = PRODUCT_CONTEXT ( 'NONE', #48, 'mechanical' ) ;
#171 = VECTOR ( 'NONE', #135, 39.37007874015748143 ) ;
#172 =( GEOMETRIC_REPRESENTATION_CONTEXT ( 3 ) GLOBAL_UNCERTAINTY_ASSIGNED_CONTEXT ( ( #99 ) ) GLOBAL_UNIT_ASSIGNED_CONTEXT ( ( #84, #134, #7 ) ) REPRESENTATION_CONTEXT ( 'NONE', 'WORKASPACE' ) );
#173 = FACE_OUTER_BOUND ( 'NONE', #42, .T. ) ;
#174 = CARTESIAN_POINT ( 'NONE',  ( 0.0000000000000000000, 0.0000000000000000000, 1.500000000000000222 ) ) ;
#175 = CYLINDRICAL_SURFACE ( 'NONE', #303, 0.06250000000000000000 ) ;
#176 = APPLICATION_PROTOCOL_DEFINITION ( 'draft international standard', 'automotive_design', 1998, #146 ) ;
#177 = AXIS2_PLACEMENT_3D ( 'NONE', #301, #283, #2 ) ;
#178 = DIRECTION ( 'NONE',  ( 0.0000000000000000000, 0.0000000000000000000, -1.000000000000000000 ) ) ;
#179 = CARTESIAN_POINT ( 'NONE',  ( -0.06250000000000000000, 0.0000000000000000000, 1.485000000000000764 ) ) ;
#180 = DIRECTION ( 'NONE',  ( 1.000000000000000000, 0.0000000000000000000, 0.0000000000000000000 ) ) ;
#181 = AXIS2_PLACEMENT_3D ( 'NONE', #312, #189, #14 ) ;
#182 = CARTESIAN_POINT ( 'NONE',  ( 0.01248750000000000034, 1.529277690435257475E-18, -1.529277690435257668E-18 ) ) ;
#183 = VECTOR ( 'NONE', #28, 39.37007874015748143 ) ;
#184 = EDGE_CURVE ( 'NONE', #314, #160, #224, .T. ) ;
#185 = SURFACE_STYLE_USAGE ( .BOTH. , #36 ) ;
#186 = ORIENTED_EDGE ( 'NONE', *, *, #58, .F. ) ;
#187 = FACE_OUTER_BOUND ( 'NONE', #212, .T. ) ;
#188 = PRESENTATION_STYLE_ASSIGNMENT (( #185 ) ) ;
#189 = DIRECTION ( 'NONE',  ( 1.224646799147353454E-16, 0.0000000000000000000, 1.000000000000000000 ) ) ;
#190 = ORIENTED_EDGE ( 'NONE', *, *, #54, .T. ) ;
#191 = ORIENTED_EDGE ( 'NONE', *, *, #256, .F. ) ;
#192 = EDGE_CURVE ( 'NONE', #286, #160, #126, .T. ) ;
#193 = DIRECTION ( 'NONE',  ( 0.0000000000000000000, 0.0000000000000000000, -1.000000000000000000 ) ) ;
#194 = AXIS2_PLACEMENT_3D ( 'NONE', #78, #46, #200 ) ;
#195 = VECTOR ( 'NONE', #284, 39.37007874015747433 ) ;
#196 = LINE ( 'NONE', #219, #260 ) ;
#197 = ORIENTED_EDGE ( 'NONE', *, *, #198, .F. ) ;
#198 = EDGE_CURVE ( 'NONE', #311, #115, #155, .T. ) ;
#199 = CONICAL_SURFACE ( 'NONE', #52, 0.04750000000000064587, 0.7853981633974457255 ) ;
#200 = DIRECTION ( 'NONE',  ( -1.000000000000000000, 0.0000000000000000000, 0.0000000000000000000 ) ) ;
#201 = CARTESIAN_POINT ( 'NONE',  ( 0.0000000000000000000, 0.0000000000000000000, 1.500000000000000222 ) ) ;
#202 = PRODUCT_DEFINITION_SHAPE ( 'NONE', 'NONE',  #81 ) ;
#203 = FACE_OUTER_BOUND ( 'NONE', #39, .T. ) ;
#204 = EDGE_CURVE ( 'NONE', #295, #70, #34, .T. ) ;
#205 = CARTESIAN_POINT ( 'NONE',  ( 0.06250000000000000000, 7.654042494670956004E-18, 1.500000000000000222 ) ) ;
#206 =( CONVERSION_BASED_UNIT ( 'INCH', #13 ) LENGTH_UNIT ( ) NAMED_UNIT ( #208 ) );
#207 = PRODUCT_DEFINITION_CONTEXT ( 'detailed design', #146, 'design' ) ;
#208 = DIMENSIONAL_EXPONENTS ( 1.000000000000000000, 0.0000000000000000000, 0.0000000000000000000, 0.0000000000000000000, 0.0000000000000000000, 0.0000000000000000000, 0.0000000000000000000 ) ;
#209 = LINE ( 'NONE', #270, #278 ) ;
#210 = ORIENTED_EDGE ( 'NONE', *, *, #130, .T. ) ;
#211 = EDGE_CURVE ( 'NONE', #116, #92, #22, .T. ) ;
#212 = EDGE_LOOP ( 'NONE', ( #317, #164 ) ) ;
#213 = CARTESIAN_POINT ( 'NONE',  ( -0.01248749999999999860, 0.0000000000000000000, 0.01248750000000000207 ) ) ;
#214 = ORIENTED_EDGE ( 'NONE', *, *, #184, .T. ) ;
#215 =( LENGTH_UNIT ( ) NAMED_UNIT ( * ) SI_UNIT ( $, .METRE. ) );
#216 = ORIENTED_EDGE ( 'NONE', *, *, #211, .T. ) ;
#217 = ADVANCED_FACE ( 'NONE', ( #103 ), #175, .T. ) ;
#218 = CARTESIAN_POINT ( 'NONE',  ( 3.926646044054136091E-17, 0.0000000000000000000, 0.3206349820036290543 ) ) ;
#219 = CARTESIAN_POINT ( 'NONE',  ( 0.04750000000000064587, 5.817072295950006528E-18, 1.500000000000000222 ) ) ;
#220 = EDGE_LOOP ( 'NONE', ( #296, #265, #60 ) ) ;
#221 = AXIS2_PLACEMENT_3D ( 'NONE', #40, #119, #109 ) ;
#222 = LINE ( 'NONE', #100, #195 ) ;
#223 = MECHANICAL_DESIGN_GEOMETRIC_PRESENTATION_REPRESENTATION (  '', ( #110 ), #308 ) ;
#224 = CIRCLE ( 'NONE', #177, 0.06250000000000000000 ) ;
#225 = CARTESIAN_POINT ( 'NONE',  ( -0.01248750000000000034, 0.0000000000000000000, 1.529277690435257668E-18 ) ) ;
#226 = ORIENTED_EDGE ( 'NONE', *, *, #86, .T. ) ;
#227 = ADVANCED_FACE ( 'NONE', ( #203 ), #124, .T. ) ;
#228 = PRODUCT ( 'Micro_BMS-025-2', 'Micro_BMS-025-2', '', ( #170 ) ) ;
#229 = CIRCLE ( 'NONE', #194, 0.01248749999999999860 ) ;
#230 = FACE_OUTER_BOUND ( 'NONE', #271, .T. ) ;
#231 = EDGE_CURVE ( 'NONE', #289, #115, #77, .T. ) ;
#232 = DIRECTION ( 'NONE',  ( -1.000000000000000000, 0.0000000000000000000, 0.0000000000000000000 ) ) ;
#233 = ADVANCED_BREP_SHAPE_REPRESENTATION ( 'Micro_BMS-025-2', ( #141, #29 ), #4 ) ;
#234 = DIMENSIONAL_EXPONENTS ( 1.000000000000000000, 0.0000000000000000000, 0.0000000000000000000, 0.0000000000000000000, 0.0000000000000000000, 0.0000000000000000000, 0.0000000000000000000 ) ;
#235 = SURFACE_STYLE_FILL_AREA ( #294 ) ;
#236 = DIRECTION ( 'NONE',  ( 1.224646799147353454E-16, 0.0000000000000000000, 1.000000000000000000 ) ) ;
#237 = PRESENTATION_LAYER_ASSIGNMENT (  '', '', ( #111 ) ) ;
#238 = FACE_OUTER_BOUND ( 'NONE', #16, .T. ) ;
#239 = ORIENTED_EDGE ( 'NONE', *, *, #320, .F. ) ;
#240 = SPHERICAL_SURFACE ( 'NONE', #321, 0.01248750000000000034 ) ;
#241 = SPHERICAL_SURFACE ( 'NONE', #272, 0.01248750000000000034 ) ;
#242 = DIRECTION ( 'NONE',  ( 1.224646799147353207E-16, 1.000000000000000000, -0.0000000000000000000 ) ) ;
#243 = DIRECTION ( 'NONE',  ( 1.000000000000000000, 0.0000000000000000000, 0.0000000000000000000 ) ) ;
#244 = CIRCLE ( 'NONE', #23, 0.01248750000000000034 ) ;
#245 = PLANE ( 'NONE',  #150 ) ;
#246 = EDGE_LOOP ( 'NONE', ( #136, #74, #66, #273 ) ) ;
#247 = DIRECTION ( 'NONE',  ( 0.0000000000000000000, 0.0000000000000000000, 1.000000000000000000 ) ) ;
#248 = LENGTH_MEASURE_WITH_UNIT ( LENGTH_MEASURE( 0.02539999999999999897 ), #49 );
#249 =( CONVERSION_BASED_UNIT ( 'INCH', #248 ) LENGTH_UNIT ( ) NAMED_UNIT ( #45 ) );
#250 = AXIS2_PLACEMENT_3D ( 'NONE', #117, #193, #157 ) ;
#251 = AXIS2_PLACEMENT_3D ( 'NONE', #108, #236, #269 ) ;
#252 = EDGE_CURVE ( 'NONE', #70, #295, #145, .T. ) ;
#253 = DIRECTION ( 'NONE',  ( -0.0000000000000000000, -0.0000000000000000000, -1.000000000000000000 ) ) ;
#254 = CIRCLE ( 'NONE', #181, 0.01248750000000000034 ) ;
#255 = AXIS2_PLACEMENT_3D ( 'NONE', #153, #253, #232 ) ;
#256 = EDGE_CURVE ( 'NONE', #311, #116, #159, .T. ) ;
#257 = DIRECTION ( 'NONE',  ( 0.0000000000000000000, 0.0000000000000000000, -1.000000000000000000 ) ) ;
#258 = CARTESIAN_POINT ( 'NONE',  ( 1.529277690435257668E-18, 0.0000000000000000000, 0.01248750000000000034 ) ) ;
#259 = LINE ( 'NONE', #83, #183 ) ;
#260 = VECTOR ( 'NONE', #50, 39.37007874015748143 ) ;
#261 =( NAMED_UNIT ( * ) PLANE_ANGLE_UNIT ( ) SI_UNIT ( $, .RADIAN. ) );
#262 = DIRECTION ( 'NONE',  ( 0.1736481776669314137, 0.0000000000000000000, 0.9848077530122077983 ) ) ;
#263 = FILL_AREA_STYLE_COLOUR ( '', #25 ) ;
#264 = LINE ( 'NONE', #37, #171 ) ;
#265 = ORIENTED_EDGE ( 'NONE', *, *, #231, .T. ) ;
#266 =( LENGTH_UNIT ( ) NAMED_UNIT ( * ) SI_UNIT ( $, .METRE. ) );
#267 = DIRECTION ( 'NONE',  ( -1.224646799147353454E-16, -0.0000000000000000000, -1.000000000000000000 ) ) ;
#268 = ORIENTED_EDGE ( 'NONE', *, *, #320, .T. ) ;
#269 = DIRECTION ( 'NONE',  ( -1.000000000000000000, 0.0000000000000000000, 1.709114110150314860E-16 ) ) ;
#270 = CARTESIAN_POINT ( 'NONE',  ( 0.01248750000000000207, 0.0000000000000000000, 0.03699999999999999817 ) ) ;
#271 = EDGE_LOOP ( 'NONE', ( #133, #12, #9 ) ) ;
#272 = AXIS2_PLACEMENT_3D ( 'NONE', #38, #290, #243 ) ;
#273 = ORIENTED_EDGE ( 'NONE', *, *, #104, .F. ) ;
#274 = VERTEX_POINT ( 'NONE', #179 ) ;
#275 = SURFACE_STYLE_USAGE ( .BOTH. , #73 ) ;
#276 = AXIS2_PLACEMENT_3D ( 'NONE', #201, #257, #302 ) ;
#277 = PRESENTATION_STYLE_ASSIGNMENT (( #275 ) ) ;
#278 = VECTOR ( 'NONE', #262, 39.37007874015748143 ) ;
#279 = MECHANICAL_DESIGN_GEOMETRIC_PRESENTATION_REPRESENTATION (  '', ( #111 ), #172 ) ;
#280 = DIRECTION ( 'NONE',  ( 0.0000000000000000000, 0.0000000000000000000, 1.000000000000000000 ) ) ;
#281 = CARTESIAN_POINT ( 'NONE',  ( 0.06250000000000000000, 7.654042494670956004E-18, 1.485000000000000764 ) ) ;
#282 = CONICAL_SURFACE ( 'NONE', #72, 0.01248749999999999860, 0.1745329251994339192 ) ;
#283 = DIRECTION ( 'NONE',  ( -1.224646799147353454E-16, -0.0000000000000000000, -1.000000000000000000 ) ) ;
#284 = DIRECTION ( 'NONE',  ( -0.1736481776669312194, 2.126576849575783625E-17, 0.9848077530122080203 ) ) ;
#285 = PRODUCT_RELATED_PRODUCT_CATEGORY ( 'part', '', ( #228 ) ) ;
#286 = VERTEX_POINT ( 'NONE', #281 ) ;
#287 = CARTESIAN_POINT ( 'NONE',  ( -0.06249999999999995837, 0.0000000000000000000, 0.3206349820036290543 ) ) ;
#288 = CYLINDRICAL_SURFACE ( 'NONE', #315, 0.01248750000000000034 ) ;
#289 = VERTEX_POINT ( 'NONE', #57 ) ;
#290 = DIRECTION ( 'NONE',  ( 0.0000000000000000000, 1.000000000000000000, 0.0000000000000000000 ) ) ;
#291 = CARTESIAN_POINT ( 'NONE',  ( 0.0000000000000000000, 0.0000000000000000000, 0.0000000000000000000 ) ) ;
#292 = CARTESIAN_POINT ( 'NONE',  ( 0.04750000000000064587, 6.735557395310482421E-18, 1.500000000000000222 ) ) ;
#293 = ORIENTED_EDGE ( 'NONE', *, *, #204, .F. ) ;
#294 = FILL_AREA_STYLE ('',( #263 ) ) ;
#295 = VERTEX_POINT ( 'NONE', #154 ) ;
#296 = ORIENTED_EDGE ( 'NONE', *, *, #17, .F. ) ;
#297 = DIRECTION ( 'NONE',  ( -1.000000000000000000, 0.0000000000000000000, 0.0000000000000000000 ) ) ;
#298 = VECTOR ( 'NONE', #324, 39.37007874015748143 ) ;
#299 = CARTESIAN_POINT ( 'NONE',  ( 0.0000000000000000000, 0.0000000000000000000, 0.0000000000000000000 ) ) ;
#300 = EDGE_CURVE ( 'NONE', #295, #274, #259, .T. ) ;
#301 = CARTESIAN_POINT ( 'NONE',  ( 3.926646044054136091E-17, 0.0000000000000000000, 0.3206349820036290543 ) ) ;
#302 = DIRECTION ( 'NONE',  ( -1.000000000000000000, 0.0000000000000000000, 0.0000000000000000000 ) ) ;
#303 = AXIS2_PLACEMENT_3D ( 'NONE', #1, #51, #82 ) ;
#304 = DIRECTION ( 'NONE',  ( 1.000000000000000000, 0.0000000000000000000, 0.0000000000000000000 ) ) ;
#305 = ORIENTED_EDGE ( 'NONE', *, *, #198, .T. ) ;
#306 = ADVANCED_FACE ( 'NONE', ( #230 ), #241, .T. ) ;
#307 = CARTESIAN_POINT ( 'NONE',  ( 0.0000000000000000000, 0.0000000000000000000, 1.500000000000000222 ) ) ;
#308 =( GEOMETRIC_REPRESENTATION_CONTEXT ( 3 ) GLOBAL_UNCERTAINTY_ASSIGNED_CONTEXT ( ( #33 ) ) GLOBAL_UNIT_ASSIGNED_CONTEXT ( ( #249, #21, #20 ) ) REPRESENTATION_CONTEXT ( 'NONE', 'WORKASPACE' ) );
#309 = AXIS2_PLACEMENT_3D ( 'NONE', #258, #151, #178 ) ;
#310 = EDGE_CURVE ( 'NONE', #115, #92, #166, .T. ) ;
#311 = VERTEX_POINT ( 'NONE', #156 ) ;
#312 = CARTESIAN_POINT ( 'NONE',  ( 1.529277690435257668E-18, 0.0000000000000000000, 0.01248750000000000034 ) ) ;
#313 = ORIENTED_EDGE ( 'NONE', *, *, #256, .T. ) ;
#314 = VERTEX_POINT ( 'NONE', #287 ) ;
#315 = AXIS2_PLACEMENT_3D ( 'NONE', #5, #112, #162 ) ;
#316 = CLOSED_SHELL ( 'NONE', ( #306, #30, #123, #227, #168, #217, #93, #137, #322, #101, #3 ) ) ;
#317 = ORIENTED_EDGE ( 'NONE', *, *, #204, .T. ) ;
#318 = ORIENTED_EDGE ( 'NONE', *, *, #122, .T. ) ;
#319 = PRODUCT_DEFINITION_FORMATION_WITH_SPECIFIED_SOURCE ( 'ANY', '', #228, .NOT_KNOWN. ) ;
#320 = EDGE_CURVE ( 'NONE', #286, #274, #140, .T. ) ;
#321 = AXIS2_PLACEMENT_3D ( 'NONE', #138, #65, #85 ) ;
#322 = ADVANCED_FACE ( 'NONE', ( #64 ), #129, .T. ) ;
#323 = DIRECTION ( 'NONE',  ( 0.0000000000000000000, 0.0000000000000000000, -1.000000000000000000 ) ) ;
#324 = DIRECTION ( 'NONE',  ( -1.224646799147353454E-16, -0.0000000000000000000, -1.000000000000000000 ) ) ;
#325 = DIRECTION ( 'NONE',  ( 1.000000000000000000, 0.0000000000000000000, 0.0000000000000000000 ) ) ;
ENDSEC;
END-ISO-10303-21;
