ISO-10303-21;
HEADER;
FILE_DESCRIPTION (( 'STEP AP214' ),
    '1' );
FILE_NAME ('81932.STEP',
    '2023-06-30T22:35:33',
    ( '' ),
    ( '' ),
    'SwSTEP 2.0',
    'SolidWorks 2023',
    '' );
FILE_SCHEMA (( 'AUTOMOTIVE_DESIGN' ));
ENDSEC;

DATA;
#1 = PLANE ( 'NONE',  #151 ) ;
#2 = EDGE_CURVE ( 'NONE', #320, #301, #148, .T. ) ;
#3 = LENGTH_MEASURE_WITH_UNIT ( LENGTH_MEASURE( 0.02539999999999999897 ), #89 );
#4 = STYLED_ITEM ( 'NONE', ( #326 ), #298 ) ;
#5 = DIRECTION ( 'NONE',  ( -0.000000000000000000, -1.000000000000000000, -0.000000000000000000 ) ) ;
#6 = EDGE_CURVE ( 'NONE', #156, #70, #54, .T. ) ;
#7 =( GEOMETRIC_REPRESENTATION_CONTEXT ( 3 ) GLOBAL_UNCERTAINTY_ASSIGNED_CONTEXT ( ( #40 ) ) GLOBAL_UNIT_ASSIGNED_CONTEXT ( ( #296, #56, #101 ) ) REPRESENTATION_CONTEXT ( 'NONE', 'WORKASPACE' ) );
#8 = MECHANICAL_DESIGN_GEOMETRIC_PRESENTATION_REPRESENTATION (  '', ( #130 ), #118 ) ;
#9 = CYLINDRICAL_SURFACE ( 'NONE', #369, 0.2499999999999999722 ) ;
#10 = ORIENTED_EDGE ( 'NONE', *, *, #6, .T. ) ;
#11 = CARTESIAN_POINT ( 'NONE',  ( 3.061616997868382402E-17, 1.000000000000000000, 0.2499999999999998890 ) ) ;
#12 = EDGE_LOOP ( 'NONE', ( #39, #158, #354, #192 ) ) ;
#13 =( LENGTH_UNIT ( ) NAMED_UNIT ( * ) SI_UNIT ( $, .METRE. ) );
#14 = ORIENTED_EDGE ( 'NONE', *, *, #216, .F. ) ;
#15 = CIRCLE ( 'NONE', #90, 0.2499999999999999722 ) ;
#16 = PRESENTATION_LAYER_ASSIGNMENT (  '', '', ( #238 ) ) ;
#17 = CARTESIAN_POINT ( 'NONE',  ( 0.000000000000000000, 1.000000000000000000, 0.000000000000000000 ) ) ;
#18 = EDGE_LOOP ( 'NONE', ( #219, #182 ) ) ;
#19 =( NAMED_UNIT ( * ) PLANE_ANGLE_UNIT ( ) SI_UNIT ( $, .RADIAN. ) );
#20 = VERTEX_POINT ( 'NONE', #367 ) ;
#21 =( LENGTH_UNIT ( ) NAMED_UNIT ( * ) SI_UNIT ( $, .METRE. ) );
#22 = LENGTH_MEASURE_WITH_UNIT ( LENGTH_MEASURE( 0.02539999999999999897 ), #232 );
#23 = PRESENTATION_LAYER_ASSIGNMENT (  '', '', ( #68 ) ) ;
#24 =( CONVERSION_BASED_UNIT ( 'INCH', #52 ) LENGTH_UNIT ( ) NAMED_UNIT ( #332 ) );
#25 = SURFACE_SIDE_STYLE ('',( #309 ) ) ;
#26 = FACE_OUTER_BOUND ( 'NONE', #247, .T. ) ;
#27 = DIRECTION ( 'NONE',  ( -1.000000000000000000, 0.000000000000000000, 0.000000000000000000 ) ) ;
#28 = CARTESIAN_POINT ( 'NONE',  ( -6.123233995736772199E-17, 3.000000000000000444, 0.000000000000000000 ) ) ;
#29 =( LENGTH_UNIT ( ) NAMED_UNIT ( * ) SI_UNIT ( $, .METRE. ) );
#30 = EDGE_CURVE ( 'NONE', #320, #70, #203, .T. ) ;
#31 = CARTESIAN_POINT ( 'NONE',  ( 0.000000000000000000, 0.000000000000000000, 0.000000000000000000 ) ) ;
#32 = CIRCLE ( 'NONE', #276, 0.2500000000000000555 ) ;
#33 = CARTESIAN_POINT ( 'NONE',  ( -6.123233995736772199E-17, 3.000000000000000444, 0.000000000000000000 ) ) ;
#34 = SURFACE_SIDE_STYLE ('',( #220 ) ) ;
#35 = CARTESIAN_POINT ( 'NONE',  ( 0.000000000000000000, 0.2500000000000000555, -0.2500000000000000555 ) ) ;
#36 = DIRECTION ( 'NONE',  ( 0.000000000000000000, 0.000000000000000000, -1.000000000000000000 ) ) ;
#37 = CIRCLE ( 'NONE', #60, 0.2500000000000000555 ) ;
#38 = CARTESIAN_POINT ( 'NONE',  ( -0.2500000000000000555, 3.000000000000000444, 0.000000000000000000 ) ) ;
#39 = ORIENTED_EDGE ( 'NONE', *, *, #124, .F. ) ;
#40 = UNCERTAINTY_MEASURE_WITH_UNIT (LENGTH_MEASURE( 1.000000000000000082E-05 ), #296, 'distance_accuracy_value', 'NONE');
#41 = DIRECTION ( 'NONE',  ( -0.000000000000000000, -1.000000000000000000, -0.000000000000000000 ) ) ;
#42 = ORIENTED_EDGE ( 'NONE', *, *, #107, .F. ) ;
#43 = CARTESIAN_POINT ( 'NONE',  ( 1.836970198721030427E-16, 1.000000000000000000, 0.000000000000000000 ) ) ;
#44 = ORIENTED_EDGE ( 'NONE', *, *, #250, .F. ) ;
#45 = MECHANICAL_DESIGN_GEOMETRIC_PRESENTATION_REPRESENTATION (  '', ( #68 ), #191 ) ;
#46 = ORIENTED_EDGE ( 'NONE', *, *, #124, .T. ) ;
#47 =( CONVERSION_BASED_UNIT ( 'INCH', #258 ) LENGTH_UNIT ( ) NAMED_UNIT ( #140 ) );
#48 = FILL_AREA_STYLE ('',( #80 ) ) ;
#49 = FILL_AREA_STYLE_COLOUR ( '', #183 ) ;
#50 = VECTOR ( 'NONE', #181, 39.37007874015748143 ) ;
#51 = EDGE_CURVE ( 'NONE', #20, #274, #15, .T. ) ;
#52 = LENGTH_MEASURE_WITH_UNIT ( LENGTH_MEASURE( 0.02539999999999999897 ), #202 );
#53 = LINE ( 'NONE', #370, #193 ) ;
#54 = CIRCLE ( 'NONE', #318, 0.2500000000000000555 ) ;
#55 = ADVANCED_FACE ( 'NONE', ( #26 ), #331, .T. ) ;
#56 =( NAMED_UNIT ( * ) PLANE_ANGLE_UNIT ( ) SI_UNIT ( $, .RADIAN. ) );
#57 = LENGTH_MEASURE_WITH_UNIT ( LENGTH_MEASURE( 0.02539999999999999897 ), #29 );
#58 = PRODUCT ( '81932', '81932', '', ( #263 ) ) ;
#59 = APPLICATION_CONTEXT ( 'automotive_design' ) ;
#60 = AXIS2_PLACEMENT_3D ( 'NONE', #355, #185, #97 ) ;
#61 = CARTESIAN_POINT ( 'NONE',  ( 0.000000000000000000, 1.000000000000000000, 0.000000000000000000 ) ) ;
#62 = FACE_OUTER_BOUND ( 'NONE', #18, .T. ) ;
#63 = CARTESIAN_POINT ( 'NONE',  ( -3.061616997868383018E-17, 0.2500000000000000000, 0.000000000000000000 ) ) ;
#64 = ORIENTED_EDGE ( 'NONE', *, *, #2, .T. ) ;
#65 = EDGE_CURVE ( 'NONE', #274, #20, #242, .T. ) ;
#66 = DIRECTION ( 'NONE',  ( 0.000000000000000000, 0.000000000000000000, -1.000000000000000000 ) ) ;
#67 = ORIENTED_EDGE ( 'NONE', *, *, #65, .F. ) ;
#68 = STYLED_ITEM ( 'NONE', ( #195 ), #99 ) ;
#69 = SPHERICAL_SURFACE ( 'NONE', #312, 0.2500000000000000555 ) ;
#70 = VERTEX_POINT ( 'NONE', #79 ) ;
#71 = VERTEX_POINT ( 'NONE', #284 ) ;
#72 = APPLICATION_CONTEXT ( 'automotive_design' ) ;
#73 = EDGE_LOOP ( 'NONE', ( #95, #64, #302, #42, #129 ) ) ;
#74 = UNCERTAINTY_MEASURE_WITH_UNIT (LENGTH_MEASURE( 1.000000000000000082E-05 ), #254, 'distance_accuracy_value', 'NONE');
#75 = STYLED_ITEM ( 'NONE', ( #122 ), #175 ) ;
#76 = CARTESIAN_POINT ( 'NONE',  ( -6.123233995736772199E-17, 3.000000000000000444, 0.000000000000000000 ) ) ;
#77 =( NAMED_UNIT ( * ) SI_UNIT ( $, .STERADIAN. ) SOLID_ANGLE_UNIT ( ) );
#78 = SURFACE_STYLE_USAGE ( .BOTH. , #108 ) ;
#79 = CARTESIAN_POINT ( 'NONE',  ( 3.061616997868383634E-17, 0.2500000000000000555, 0.2500000000000000555 ) ) ;
#80 = FILL_AREA_STYLE_COLOUR ( '', #228 ) ;
#81 = CARTESIAN_POINT ( 'NONE',  ( 3.061616997868382402E-17, 0.000000000000000000, 0.2499999999999999722 ) ) ;
#82 = CIRCLE ( 'NONE', #207, 0.2500000000000000555 ) ;
#83 = COLOUR_RGB ( '',1.000000000000000000, 0.000000000000000000, 0.000000000000000000 ) ;
#84 = FILL_AREA_STYLE ('',( #281 ) ) ;
#85 =( LENGTH_UNIT ( ) NAMED_UNIT ( * ) SI_UNIT ( $, .METRE. ) );
#86 = CARTESIAN_POINT ( 'NONE',  ( -0.2499999999999995559, 1.000000000000000000, 0.000000000000000000 ) ) ;
#87 = MECHANICAL_DESIGN_GEOMETRIC_PRESENTATION_REPRESENTATION (  '', ( #238 ), #213 ) ;
#88 = DIRECTION ( 'NONE',  ( 0.000000000000000000, -0.000000000000000000, 1.000000000000000000 ) ) ;
#89 =( LENGTH_UNIT ( ) NAMED_UNIT ( * ) SI_UNIT ( $, .METRE. ) );
#90 = AXIS2_PLACEMENT_3D ( 'NONE', #134, #110, #171 ) ;
#91 = COLOUR_RGB ( '',0.7921568627450980005, 0.8196078431372548767, 0.9333333333333333481 ) ;
#92 = DIRECTION ( 'NONE',  ( -1.224646799147353700E-16, 1.000000000000000000, -0.000000000000000000 ) ) ;
#93 = DIRECTION ( 'NONE',  ( -0.000000000000000000, -1.000000000000000000, -0.000000000000000000 ) ) ;
#94 = DIRECTION ( 'NONE',  ( -1.224646799147353700E-16, 1.000000000000000000, -0.000000000000000000 ) ) ;
#95 = ORIENTED_EDGE ( 'NONE', *, *, #30, .F. ) ;
#96 = UNCERTAINTY_MEASURE_WITH_UNIT (LENGTH_MEASURE( 1.000000000000000082E-05 ), #211, 'distance_accuracy_value', 'NONE');
#97 = DIRECTION ( 'NONE',  ( -1.000000000000000000, 0.000000000000000000, 0.000000000000000000 ) ) ;
#98 = ORIENTED_EDGE ( 'NONE', *, *, #51, .T. ) ;
#99 = MANIFOLD_SOLID_BREP ( 'Revolve - Tool Body (Straight Shanked)', #135 ) ;
#100 = ORIENTED_EDGE ( 'NONE', *, *, #2, .F. ) ;
#101 =( NAMED_UNIT ( * ) SI_UNIT ( $, .STERADIAN. ) SOLID_ANGLE_UNIT ( ) );
#102 = ORIENTED_EDGE ( 'NONE', *, *, #345, .T. ) ;
#103 = DIRECTION ( 'NONE',  ( -0.000000000000000000, -1.000000000000000000, -0.000000000000000000 ) ) ;
#104 = COLOUR_RGB ( '',1.000000000000000000, 0.000000000000000000, 0.000000000000000000 ) ;
#105 =( NAMED_UNIT ( * ) SI_UNIT ( $, .STERADIAN. ) SOLID_ANGLE_UNIT ( ) );
#106 = CARTESIAN_POINT ( 'NONE',  ( 0.000000000000000000, 0.000000000000000000, 0.000000000000000000 ) ) ;
#107 = EDGE_CURVE ( 'NONE', #127, #304, #289, .T. ) ;
#108 = SURFACE_SIDE_STYLE ('',( #166 ) ) ;
#109 = UNCERTAINTY_MEASURE_WITH_UNIT (LENGTH_MEASURE( 1.000000000000000082E-05 ), #314, 'distance_accuracy_value', 'NONE');
#110 = DIRECTION ( 'NONE',  ( -1.224646799147353700E-16, 1.000000000000000000, -0.000000000000000000 ) ) ;
#111 = CLOSED_SHELL ( 'NONE', ( #175, #55, #146, #298, #366 ) ) ;
#112 = PRESENTATION_LAYER_ASSIGNMENT (  '', '', ( #248 ) ) ;
#113 = SPHERICAL_SURFACE ( 'NONE', #143, 0.2500000000000000555 ) ;
#114 = FILL_AREA_STYLE ('',( #337 ) ) ;
#115 =( NAMED_UNIT ( * ) SI_UNIT ( $, .STERADIAN. ) SOLID_ANGLE_UNIT ( ) );
#116 = VECTOR ( 'NONE', #198, 39.37007874015748143 ) ;
#117 = AXIS2_PLACEMENT_3D ( 'NONE', #43, #157, #155 ) ;
#118 =( GEOMETRIC_REPRESENTATION_CONTEXT ( 3 ) GLOBAL_UNCERTAINTY_ASSIGNED_CONTEXT ( ( #231 ) ) GLOBAL_UNIT_ASSIGNED_CONTEXT ( ( #133, #19, #229 ) ) REPRESENTATION_CONTEXT ( 'NONE', 'WORKASPACE' ) );
#119 = FILL_AREA_STYLE_COLOUR ( '', #83 ) ;
#120 =( LENGTH_UNIT ( ) NAMED_UNIT ( * ) SI_UNIT ( $, .METRE. ) );
#121 = DIRECTION ( 'NONE',  ( 0.000000000000000000, 0.000000000000000000, -1.000000000000000000 ) ) ;
#122 = PRESENTATION_STYLE_ASSIGNMENT (( #149 ) ) ;
#123 = VECTOR ( 'NONE', #174, 39.37007874015748143 ) ;
#124 = EDGE_CURVE ( 'NONE', #71, #20, #293, .T. ) ;
#125 = CARTESIAN_POINT ( 'NONE',  ( -0.2499999999999999167, 3.000000000000000444, 0.000000000000000000 ) ) ;
#126 = DIRECTION ( 'NONE',  ( -0.000000000000000000, -1.000000000000000000, -0.000000000000000000 ) ) ;
#127 = VERTEX_POINT ( 'NONE', #291 ) ;
#128 =( NAMED_UNIT ( * ) PLANE_ANGLE_UNIT ( ) SI_UNIT ( $, .RADIAN. ) );
#129 = ORIENTED_EDGE ( 'NONE', *, *, #165, .F. ) ;
#130 = STYLED_ITEM ( 'NONE', ( #336 ), #366 ) ;
#131 = EDGE_LOOP ( 'NONE', ( #361, #102, #44, #10 ) ) ;
#132 = ORIENTED_EDGE ( 'NONE', *, *, #218, .T. ) ;
#133 =( CONVERSION_BASED_UNIT ( 'INCH', #138 ) LENGTH_UNIT ( ) NAMED_UNIT ( #290 ) );
#134 = CARTESIAN_POINT ( 'NONE',  ( -6.123233995736772199E-17, 3.000000000000000444, 0.000000000000000000 ) ) ;
#135 = CLOSED_SHELL ( 'NONE', ( #333, #137, #172, #201 ) ) ;
#136 = AXIS2_PLACEMENT_3D ( 'NONE', #150, #94, #249 ) ;
#137 = ADVANCED_FACE ( 'NONE', ( #62 ), #1, .F. ) ;
#138 = LENGTH_MEASURE_WITH_UNIT ( LENGTH_MEASURE( 0.02539999999999999897 ), #21 );
#139 =( NAMED_UNIT ( * ) PLANE_ANGLE_UNIT ( ) SI_UNIT ( $, .RADIAN. ) );
#140 = DIMENSIONAL_EXPONENTS ( 1.000000000000000000, 0.000000000000000000, 0.000000000000000000, 0.000000000000000000, 0.000000000000000000, 0.000000000000000000, 0.000000000000000000 ) ;
#141 = SURFACE_STYLE_USAGE ( .BOTH. , #164 ) ;
#142 = AXIS2_PLACEMENT_3D ( 'NONE', #61, #317, #88 ) ;
#143 = AXIS2_PLACEMENT_3D ( 'NONE', #234, #161, #279 ) ;
#144 =( NAMED_UNIT ( * ) PLANE_ANGLE_UNIT ( ) SI_UNIT ( $, .RADIAN. ) );
#145 = FACE_OUTER_BOUND ( 'NONE', #12, .T. ) ;
#146 = ADVANCED_FACE ( 'NONE', ( #260 ), #176, .T. ) ;
#147 = CARTESIAN_POINT ( 'NONE',  ( 0.2499999999999998057, 3.000000000000000444, 3.061616997868381785E-17 ) ) ;
#148 = CIRCLE ( 'NONE', #177, 0.2499999999999998890 ) ;
#149 = SURFACE_STYLE_USAGE ( .BOTH. , #315 ) ;
#150 = CARTESIAN_POINT ( 'NONE',  ( 1.836970198721030427E-16, 1.000000000000000000, 0.000000000000000000 ) ) ;
#151 = AXIS2_PLACEMENT_3D ( 'NONE', #268, #235, #262 ) ;
#152 =( NAMED_UNIT ( * ) SI_UNIT ( $, .STERADIAN. ) SOLID_ANGLE_UNIT ( ) );
#153 = CARTESIAN_POINT ( 'NONE',  ( 0.000000000000000000, 0.2500000000000000555, 0.000000000000000000 ) ) ;
#154 = DIMENSIONAL_EXPONENTS ( 1.000000000000000000, 0.000000000000000000, 0.000000000000000000, 0.000000000000000000, 0.000000000000000000, 0.000000000000000000, 0.000000000000000000 ) ;
#155 = DIRECTION ( 'NONE',  ( -1.000000000000000000, 0.000000000000000000, 0.000000000000000000 ) ) ;
#156 = VERTEX_POINT ( 'NONE', #179 ) ;
#157 = DIRECTION ( 'NONE',  ( -1.224646799147353700E-16, 1.000000000000000000, -0.000000000000000000 ) ) ;
#158 = ORIENTED_EDGE ( 'NONE', *, *, #292, .T. ) ;
#159 = MECHANICAL_DESIGN_GEOMETRIC_PRESENTATION_REPRESENTATION (  '', ( #265 ), #305 ) ;
#160 = ORIENTED_EDGE ( 'NONE', *, *, #218, .F. ) ;
#161 = DIRECTION ( 'NONE',  ( 0.000000000000000000, 0.000000000000000000, 1.000000000000000000 ) ) ;
#162 = ORIENTED_EDGE ( 'NONE', *, *, #236, .T. ) ;
#163 = FACE_OUTER_BOUND ( 'NONE', #275, .T. ) ;
#164 = SURFACE_SIDE_STYLE ('',( #340 ) ) ;
#165 = EDGE_CURVE ( 'NONE', #70, #127, #294, .T. ) ;
#166 = SURFACE_STYLE_FILL_AREA ( #48 ) ;
#167 = PRESENTATION_STYLE_ASSIGNMENT (( #141 ) ) ;
#168 = AXIS2_PLACEMENT_3D ( 'NONE', #33, #92, #241 ) ;
#169 = CYLINDRICAL_SURFACE ( 'NONE', #358, 0.2499999999999998612 ) ;
#170 = DIMENSIONAL_EXPONENTS ( 1.000000000000000000, 0.000000000000000000, 0.000000000000000000, 0.000000000000000000, 0.000000000000000000, 0.000000000000000000, 0.000000000000000000 ) ;
#171 = DIRECTION ( 'NONE',  ( -1.000000000000000000, 0.000000000000000000, 0.000000000000000000 ) ) ;
#172 = ADVANCED_FACE ( 'NONE', ( #145 ), #351, .T. ) ;
#173 = SURFACE_STYLE_FILL_AREA ( #212 ) ;
#174 = DIRECTION ( 'NONE',  ( -1.224646799147353700E-16, 1.000000000000000000, -0.000000000000000000 ) ) ;
#175 = ADVANCED_FACE ( 'NONE', ( #342 ), #69, .T. ) ;
#176 = PLANE ( 'NONE',  #142 ) ;
#177 = AXIS2_PLACEMENT_3D ( 'NONE', #215, #299, #36 ) ;
#178 = AXIS2_PLACEMENT_3D ( 'NONE', #17, #41, #66 ) ;
#179 = CARTESIAN_POINT ( 'NONE',  ( 0.2500000000000000000, 0.2500000000000000555, 0.000000000000000000 ) ) ;
#180 = PRODUCT_DEFINITION ( 'UNKNOWN', '', #313, #338 ) ;
#181 = DIRECTION ( 'NONE',  ( -1.224646799147353700E-16, 1.000000000000000000, -0.000000000000000000 ) ) ;
#182 = ORIENTED_EDGE ( 'NONE', *, *, #292, .F. ) ;
#183 = COLOUR_RGB ( '',1.000000000000000000, 0.000000000000000000, 0.000000000000000000 ) ;
#184 = PRESENTATION_LAYER_ASSIGNMENT (  '', '', ( #4 ) ) ;
#185 = DIRECTION ( 'NONE',  ( 0.000000000000000000, 0.000000000000000000, -1.000000000000000000 ) ) ;
#186 = EDGE_LOOP ( 'NONE', ( #280, #98 ) ) ;
#187 = DIRECTION ( 'NONE',  ( 1.224646799147353700E-16, -1.000000000000000000, 0.000000000000000000 ) ) ;
#188 = ORIENTED_EDGE ( 'NONE', *, *, #363, .F. ) ;
#189 = DIRECTION ( 'NONE',  ( 0.000000000000000000, 0.000000000000000000, 1.000000000000000000 ) ) ;
#190 = ORIENTED_EDGE ( 'NONE', *, *, #107, .T. ) ;
#191 =( GEOMETRIC_REPRESENTATION_CONTEXT ( 3 ) GLOBAL_UNCERTAINTY_ASSIGNED_CONTEXT ( ( #368 ) ) GLOBAL_UNIT_ASSIGNED_CONTEXT ( ( #47, #199, #204 ) ) REPRESENTATION_CONTEXT ( 'NONE', 'WORKASPACE' ) );
#192 = ORIENTED_EDGE ( 'NONE', *, *, #51, .F. ) ;
#193 = VECTOR ( 'NONE', #194, 39.37007874015748143 ) ;
#194 = DIRECTION ( 'NONE',  ( -0.000000000000000000, -1.000000000000000000, -0.000000000000000000 ) ) ;
#195 = PRESENTATION_STYLE_ASSIGNMENT (( #252 ) ) ;
#196 = PRESENTATION_STYLE_ASSIGNMENT (( #256 ) ) ;
#197 = DIMENSIONAL_EXPONENTS ( 1.000000000000000000, 0.000000000000000000, 0.000000000000000000, 0.000000000000000000, 0.000000000000000000, 0.000000000000000000, 0.000000000000000000 ) ;
#198 = DIRECTION ( 'NONE',  ( -0.000000000000000000, -1.000000000000000000, -0.000000000000000000 ) ) ;
#199 =( NAMED_UNIT ( * ) PLANE_ANGLE_UNIT ( ) SI_UNIT ( $, .RADIAN. ) );
#200 = COLOUR_RGB ( '',0.7921568627450980005, 0.8196078431372548767, 0.9333333333333333481 ) ;
#201 = ADVANCED_FACE ( 'NONE', ( #209 ), #269, .F. ) ;
#202 =( LENGTH_UNIT ( ) NAMED_UNIT ( * ) SI_UNIT ( $, .METRE. ) );
#203 = LINE ( 'NONE', #81, #116 ) ;
#204 =( NAMED_UNIT ( * ) SI_UNIT ( $, .STERADIAN. ) SOLID_ANGLE_UNIT ( ) );
#205 = DIRECTION ( 'NONE',  ( 1.000000000000000000, 0.000000000000000000, 0.000000000000000000 ) ) ;
#206 = DIMENSIONAL_EXPONENTS ( 1.000000000000000000, 0.000000000000000000, 0.000000000000000000, 0.000000000000000000, 0.000000000000000000, 0.000000000000000000, 0.000000000000000000 ) ;
#207 = AXIS2_PLACEMENT_3D ( 'NONE', #244, #277, #303 ) ;
#208 = PRESENTATION_LAYER_ASSIGNMENT (  '', '', ( #130 ) ) ;
#209 = FACE_OUTER_BOUND ( 'NONE', #186, .T. ) ;
#210 = PRODUCT_DEFINITION_SHAPE ( 'NONE', 'NONE',  #180 ) ;
#211 =( CONVERSION_BASED_UNIT ( 'INCH', #3 ) LENGTH_UNIT ( ) NAMED_UNIT ( #197 ) );
#212 = FILL_AREA_STYLE ('',( #348 ) ) ;
#213 =( GEOMETRIC_REPRESENTATION_CONTEXT ( 3 ) GLOBAL_UNCERTAINTY_ASSIGNED_CONTEXT ( ( #96 ) ) GLOBAL_UNIT_ASSIGNED_CONTEXT ( ( #211, #144, #264 ) ) REPRESENTATION_CONTEXT ( 'NONE', 'WORKASPACE' ) );
#214 = CARTESIAN_POINT ( 'NONE',  ( 0.000000000000000000, 1.000000000000000000, -0.2499999999999998890 ) ) ;
#215 = CARTESIAN_POINT ( 'NONE',  ( 0.000000000000000000, 1.000000000000000000, 0.000000000000000000 ) ) ;
#216 = EDGE_CURVE ( 'NONE', #327, #274, #300, .T. ) ;
#217 = MECHANICAL_DESIGN_GEOMETRIC_PRESENTATION_REPRESENTATION (  '', ( #4 ), #266 ) ;
#218 = EDGE_CURVE ( 'NONE', #304, #156, #82, .T. ) ;
#219 = ORIENTED_EDGE ( 'NONE', *, *, #270, .F. ) ;
#220 = SURFACE_STYLE_FILL_AREA ( #359 ) ;
#221 = ORIENTED_EDGE ( 'NONE', *, *, #345, .F. ) ;
#222 = FILL_AREA_STYLE_COLOUR ( '', #233 ) ;
#223 = EDGE_LOOP ( 'NONE', ( #306, #100 ) ) ;
#224 = UNCERTAINTY_MEASURE_WITH_UNIT (LENGTH_MEASURE( 1.000000000000000082E-05 ), #319, 'distance_accuracy_value', 'NONE');
#225 = AXIS2_PLACEMENT_3D ( 'NONE', #271, #187, #324 ) ;
#226 = DIMENSIONAL_EXPONENTS ( 1.000000000000000000, 0.000000000000000000, 0.000000000000000000, 0.000000000000000000, 0.000000000000000000, 0.000000000000000000, 0.000000000000000000 ) ;
#227 = DIRECTION ( 'NONE',  ( -1.224646799147353700E-16, 1.000000000000000000, -0.000000000000000000 ) ) ;
#228 = COLOUR_RGB ( '',1.000000000000000000, 0.000000000000000000, 0.000000000000000000 ) ;
#229 =( NAMED_UNIT ( * ) SI_UNIT ( $, .STERADIAN. ) SOLID_ANGLE_UNIT ( ) );
#230 = DIRECTION ( 'NONE',  ( -0.000000000000000000, -1.000000000000000000, -0.000000000000000000 ) ) ;
#231 = UNCERTAINTY_MEASURE_WITH_UNIT (LENGTH_MEASURE( 1.000000000000000082E-05 ), #133, 'distance_accuracy_value', 'NONE');
#232 =( LENGTH_UNIT ( ) NAMED_UNIT ( * ) SI_UNIT ( $, .METRE. ) );
#233 = COLOUR_RGB ( '',1.000000000000000000, 0.000000000000000000, 0.000000000000000000 ) ;
#234 = CARTESIAN_POINT ( 'NONE',  ( -3.061616997868383018E-17, 0.2500000000000000000, 0.000000000000000000 ) ) ;
#235 = DIRECTION ( 'NONE',  ( -1.224646799147353700E-16, 1.000000000000000000, 0.000000000000000000 ) ) ;
#236 = EDGE_CURVE ( 'NONE', #301, #320, #339, .T. ) ;
#237 = CARTESIAN_POINT ( 'NONE',  ( 0.000000000000000000, 0.2500000000000000555, 0.000000000000000000 ) ) ;
#238 = STYLED_ITEM ( 'NONE', ( #240 ), #146 ) ;
#239 = MECHANICAL_DESIGN_GEOMETRIC_PRESENTATION_REPRESENTATION (  '', ( #248 ), #365 ) ;
#240 = PRESENTATION_STYLE_ASSIGNMENT (( #346 ) ) ;
#241 = DIRECTION ( 'NONE',  ( -1.000000000000000000, 0.000000000000000000, 0.000000000000000000 ) ) ;
#242 = CIRCLE ( 'NONE', #323, 0.2499999999999999722 ) ;
#243 = SURFACE_STYLE_USAGE ( .BOTH. , #34 ) ;
#244 = CARTESIAN_POINT ( 'NONE',  ( 0.000000000000000000, 0.2500000000000000555, 0.000000000000000000 ) ) ;
#245 = DIRECTION ( 'NONE',  ( 0.000000000000000000, 0.000000000000000000, -1.000000000000000000 ) ) ;
#246 = LENGTH_MEASURE_WITH_UNIT ( LENGTH_MEASURE( 0.02539999999999999897 ), #13 );
#247 = EDGE_LOOP ( 'NONE', ( #162, #322, #272, #160, #188 ) ) ;
#248 = STYLED_ITEM ( 'NONE', ( #196 ), #349 ) ;
#249 = DIRECTION ( 'NONE',  ( -1.000000000000000000, 0.000000000000000000, 0.000000000000000000 ) ) ;
#250 = EDGE_CURVE ( 'NONE', #156, #278, #37, .T. ) ;
#251 = DIRECTION ( 'NONE',  ( -1.224646799147353700E-16, 1.000000000000000000, -0.000000000000000000 ) ) ;
#252 = SURFACE_STYLE_USAGE ( .BOTH. , #286 ) ;
#253 = FACE_OUTER_BOUND ( 'NONE', #329, .T. ) ;
#254 =( CONVERSION_BASED_UNIT ( 'INCH', #22 ) LENGTH_UNIT ( ) NAMED_UNIT ( #154 ) );
#255 = AXIS2_PLACEMENT_3D ( 'NONE', #31, #261, #205 ) ;
#256 = SURFACE_STYLE_USAGE ( .BOTH. , #25 ) ;
#257 = DIRECTION ( 'NONE',  ( 0.000000000000000000, 0.000000000000000000, -1.000000000000000000 ) ) ;
#258 = LENGTH_MEASURE_WITH_UNIT ( LENGTH_MEASURE( 0.02539999999999999897 ), #85 );
#259 = AXIS2_PLACEMENT_3D ( 'NONE', #288, #103, #282 ) ;
#260 = FACE_OUTER_BOUND ( 'NONE', #223, .T. ) ;
#261 = DIRECTION ( 'NONE',  ( 0.000000000000000000, 0.000000000000000000, 1.000000000000000000 ) ) ;
#262 = DIRECTION ( 'NONE',  ( -1.000000000000000000, -1.224646799147353700E-16, 0.000000000000000000 ) ) ;
#263 = PRODUCT_CONTEXT ( 'NONE', #72, 'mechanical' ) ;
#264 =( NAMED_UNIT ( * ) SI_UNIT ( $, .STERADIAN. ) SOLID_ANGLE_UNIT ( ) );
#265 = STYLED_ITEM ( 'NONE', ( #167 ), #55 ) ;
#266 =( GEOMETRIC_REPRESENTATION_CONTEXT ( 3 ) GLOBAL_UNCERTAINTY_ASSIGNED_CONTEXT ( ( #224 ) ) GLOBAL_UNIT_ASSIGNED_CONTEXT ( ( #319, #128, #152 ) ) REPRESENTATION_CONTEXT ( 'NONE', 'WORKASPACE' ) );
#267 = ADVANCED_BREP_SHAPE_REPRESENTATION ( '81932', ( #349, #99, #255 ), #371 ) ;
#268 = CARTESIAN_POINT ( 'NONE',  ( 1.836970198721030181E-16, 1.000000000000000000, 0.000000000000000000 ) ) ;
#269 = PLANE ( 'NONE',  #225 ) ;
#270 = EDGE_CURVE ( 'NONE', #327, #71, #283, .T. ) ;
#271 = CARTESIAN_POINT ( 'NONE',  ( 0.2499999999999998890, 3.000000000000000444, 0.000000000000000000 ) ) ;
#272 = ORIENTED_EDGE ( 'NONE', *, *, #6, .F. ) ;
#273 = FACE_OUTER_BOUND ( 'NONE', #73, .T. ) ;
#274 = VERTEX_POINT ( 'NONE', #38 ) ;
#275 = EDGE_LOOP ( 'NONE', ( #221, #190, #132, #325 ) ) ;
#276 = AXIS2_PLACEMENT_3D ( 'NONE', #334, #308, #362 ) ;
#277 = DIRECTION ( 'NONE',  ( -0.000000000000000000, -1.000000000000000000, -0.000000000000000000 ) ) ;
#278 = VERTEX_POINT ( 'NONE', #360 ) ;
#279 = DIRECTION ( 'NONE',  ( 1.000000000000000000, 0.000000000000000000, 0.000000000000000000 ) ) ;
#280 = ORIENTED_EDGE ( 'NONE', *, *, #65, .T. ) ;
#281 = FILL_AREA_STYLE_COLOUR ( '', #200 ) ;
#282 = DIRECTION ( 'NONE',  ( 0.000000000000000000, 0.000000000000000000, -1.000000000000000000 ) ) ;
#283 = CIRCLE ( 'NONE', #136, 0.2499999999999997224 ) ;
#284 = CARTESIAN_POINT ( 'NONE',  ( 0.2499999999999999167, 1.000000000000000000, 3.061616997868382402E-17 ) ) ;
#285 = FILL_AREA_STYLE ('',( #49 ) ) ;
#286 = SURFACE_SIDE_STYLE ('',( #310 ) ) ;
#287 = AXIS2_PLACEMENT_3D ( 'NONE', #106, #230, #257 ) ;
#288 = CARTESIAN_POINT ( 'NONE',  ( 0.000000000000000000, 0.2500000000000000555, 0.000000000000000000 ) ) ;
#289 = CIRCLE ( 'NONE', #259, 0.2500000000000000555 ) ;
#290 = DIMENSIONAL_EXPONENTS ( 1.000000000000000000, 0.000000000000000000, 0.000000000000000000, 0.000000000000000000, 0.000000000000000000, 0.000000000000000000, 0.000000000000000000 ) ;
#291 = CARTESIAN_POINT ( 'NONE',  ( -0.2500000000000000555, 0.2500000000000000555, 3.061616997868383018E-17 ) ) ;
#292 = EDGE_CURVE ( 'NONE', #71, #327, #344, .T. ) ;
#293 = LINE ( 'NONE', #147, #123 ) ;
#294 = CIRCLE ( 'NONE', #352, 0.2500000000000000555 ) ;
#295 = SURFACE_STYLE_FILL_AREA ( #373 ) ;
#296 =( CONVERSION_BASED_UNIT ( 'INCH', #57 ) LENGTH_UNIT ( ) NAMED_UNIT ( #206 ) );
#297 = DIRECTION ( 'NONE',  ( 0.000000000000000000, 0.000000000000000000, -1.000000000000000000 ) ) ;
#298 = ADVANCED_FACE ( 'NONE', ( #273 ), #9, .T. ) ;
#299 = DIRECTION ( 'NONE',  ( -0.000000000000000000, -1.000000000000000000, -0.000000000000000000 ) ) ;
#300 = LINE ( 'NONE', #125, #50 ) ;
#301 = VERTEX_POINT ( 'NONE', #214 ) ;
#302 = ORIENTED_EDGE ( 'NONE', *, *, #363, .T. ) ;
#303 = DIRECTION ( 'NONE',  ( 0.000000000000000000, 0.000000000000000000, -1.000000000000000000 ) ) ;
#304 = VERTEX_POINT ( 'NONE', #35 ) ;
#305 =( GEOMETRIC_REPRESENTATION_CONTEXT ( 3 ) GLOBAL_UNCERTAINTY_ASSIGNED_CONTEXT ( ( #74 ) ) GLOBAL_UNIT_ASSIGNED_CONTEXT ( ( #254, #307, #77 ) ) REPRESENTATION_CONTEXT ( 'NONE', 'WORKASPACE' ) );
#306 = ORIENTED_EDGE ( 'NONE', *, *, #236, .F. ) ;
#307 =( NAMED_UNIT ( * ) PLANE_ANGLE_UNIT ( ) SI_UNIT ( $, .RADIAN. ) );
#308 = DIRECTION ( 'NONE',  ( 1.224646799147353207E-16, -0.000000000000000000, 1.000000000000000000 ) ) ;
#309 = SURFACE_STYLE_FILL_AREA ( #84 ) ;
#310 = SURFACE_STYLE_FILL_AREA ( #114 ) ;
#311 = PRODUCT_RELATED_PRODUCT_CATEGORY ( 'part', '', ( #58 ) ) ;
#312 = AXIS2_PLACEMENT_3D ( 'NONE', #63, #189, #321 ) ;
#313 = PRODUCT_DEFINITION_FORMATION_WITH_SPECIFIED_SOURCE ( 'ANY', '', #58, .NOT_KNOWN. ) ;
#314 =( CONVERSION_BASED_UNIT ( 'INCH', #350 ) LENGTH_UNIT ( ) NAMED_UNIT ( #170 ) );
#315 = SURFACE_SIDE_STYLE ('',( #173 ) ) ;
#316 = APPLICATION_PROTOCOL_DEFINITION ( 'draft international standard', 'automotive_design', 1998, #72 ) ;
#317 = DIRECTION ( 'NONE',  ( 0.000000000000000000, 1.000000000000000000, 0.000000000000000000 ) ) ;
#318 = AXIS2_PLACEMENT_3D ( 'NONE', #153, #126, #245 ) ;
#319 =( CONVERSION_BASED_UNIT ( 'INCH', #246 ) LENGTH_UNIT ( ) NAMED_UNIT ( #226 ) );
#320 = VERTEX_POINT ( 'NONE', #11 ) ;
#321 = DIRECTION ( 'NONE',  ( 1.000000000000000000, 0.000000000000000000, 0.000000000000000000 ) ) ;
#322 = ORIENTED_EDGE ( 'NONE', *, *, #30, .T. ) ;
#323 = AXIS2_PLACEMENT_3D ( 'NONE', #28, #227, #335 ) ;
#324 = DIRECTION ( 'NONE',  ( 1.000000000000000000, 1.224646799147353700E-16, 0.000000000000000000 ) ) ;
#325 = ORIENTED_EDGE ( 'NONE', *, *, #250, .T. ) ;
#326 = PRESENTATION_STYLE_ASSIGNMENT (( #243 ) ) ;
#327 = VERTEX_POINT ( 'NONE', #86 ) ;
#328 = UNCERTAINTY_MEASURE_WITH_UNIT (LENGTH_MEASURE( 1.000000000000000082E-05 ), #24, 'distance_accuracy_value', 'NONE');
#329 = EDGE_LOOP ( 'NONE', ( #356, #46, #67, #14 ) ) ;
#330 = MECHANICAL_DESIGN_GEOMETRIC_PRESENTATION_REPRESENTATION (  '', ( #75 ), #7 ) ;
#331 = CYLINDRICAL_SURFACE ( 'NONE', #287, 0.2499999999999999722 ) ;
#332 = DIMENSIONAL_EXPONENTS ( 1.000000000000000000, 0.000000000000000000, 0.000000000000000000, 0.000000000000000000, 0.000000000000000000, 0.000000000000000000, 0.000000000000000000 ) ;
#333 = ADVANCED_FACE ( 'NONE', ( #253 ), #169, .T. ) ;
#334 = CARTESIAN_POINT ( 'NONE',  ( -3.061616997868383018E-17, 0.2500000000000000000, 0.000000000000000000 ) ) ;
#335 = DIRECTION ( 'NONE',  ( -1.000000000000000000, 0.000000000000000000, 0.000000000000000000 ) ) ;
#336 = PRESENTATION_STYLE_ASSIGNMENT (( #78 ) ) ;
#337 = FILL_AREA_STYLE_COLOUR ( '', #91 ) ;
#338 = PRODUCT_DEFINITION_CONTEXT ( 'detailed design', #59, 'design' ) ;
#339 = CIRCLE ( 'NONE', #178, 0.2499999999999998890 ) ;
#340 = SURFACE_STYLE_FILL_AREA ( #285 ) ;
#341 = APPLICATION_PROTOCOL_DEFINITION ( 'draft international standard', 'automotive_design', 1998, #59 ) ;
#342 = FACE_OUTER_BOUND ( 'NONE', #131, .T. ) ;
#343 = SURFACE_SIDE_STYLE ('',( #295 ) ) ;
#344 = CIRCLE ( 'NONE', #117, 0.2499999999999997224 ) ;
#345 = EDGE_CURVE ( 'NONE', #127, #278, #32, .T. ) ;
#346 = SURFACE_STYLE_USAGE ( .BOTH. , #343 ) ;
#347 =( NAMED_UNIT ( * ) PLANE_ANGLE_UNIT ( ) SI_UNIT ( $, .RADIAN. ) );
#348 = FILL_AREA_STYLE_COLOUR ( '', #104 ) ;
#349 = MANIFOLD_SOLID_BREP ( 'Revolve - Cutting Edge', #111 ) ;
#350 = LENGTH_MEASURE_WITH_UNIT ( LENGTH_MEASURE( 0.02539999999999999897 ), #120 );
#351 = CYLINDRICAL_SURFACE ( 'NONE', #168, 0.2499999999999998612 ) ;
#352 = AXIS2_PLACEMENT_3D ( 'NONE', #237, #5, #121 ) ;
#353 = CARTESIAN_POINT ( 'NONE',  ( 0.000000000000000000, 0.000000000000000000, 0.000000000000000000 ) ) ;
#354 = ORIENTED_EDGE ( 'NONE', *, *, #216, .T. ) ;
#355 = CARTESIAN_POINT ( 'NONE',  ( -3.061616997868383018E-17, 0.2500000000000000000, 0.000000000000000000 ) ) ;
#356 = ORIENTED_EDGE ( 'NONE', *, *, #270, .T. ) ;
#357 = PRESENTATION_LAYER_ASSIGNMENT (  '', '', ( #265 ) ) ;
#358 = AXIS2_PLACEMENT_3D ( 'NONE', #76, #251, #27 ) ;
#359 = FILL_AREA_STYLE ('',( #222 ) ) ;
#360 = CARTESIAN_POINT ( 'NONE',  ( -1.530808498934191201E-17, -3.414809992080329023E-17, 0.000000000000000000 ) ) ;
#361 = ORIENTED_EDGE ( 'NONE', *, *, #165, .T. ) ;
#362 = DIRECTION ( 'NONE',  ( 1.000000000000000000, 0.000000000000000000, -1.224646799147353207E-16 ) ) ;
#363 = EDGE_CURVE ( 'NONE', #301, #304, #53, .T. ) ;
#364 = PRESENTATION_LAYER_ASSIGNMENT (  '', '', ( #75 ) ) ;
#365 =( GEOMETRIC_REPRESENTATION_CONTEXT ( 3 ) GLOBAL_UNCERTAINTY_ASSIGNED_CONTEXT ( ( #328 ) ) GLOBAL_UNIT_ASSIGNED_CONTEXT ( ( #24, #139, #105 ) ) REPRESENTATION_CONTEXT ( 'NONE', 'WORKASPACE' ) );
#366 = ADVANCED_FACE ( 'NONE', ( #163 ), #113, .T. ) ;
#367 = CARTESIAN_POINT ( 'NONE',  ( 0.2499999999999999167, 3.000000000000000444, 3.061616997868382402E-17 ) ) ;
#368 = UNCERTAINTY_MEASURE_WITH_UNIT (LENGTH_MEASURE( 1.000000000000000082E-05 ), #47, 'distance_accuracy_value', 'NONE');
#369 = AXIS2_PLACEMENT_3D ( 'NONE', #353, #93, #297 ) ;
#370 = CARTESIAN_POINT ( 'NONE',  ( 0.000000000000000000, 0.000000000000000000, -0.2499999999999999722 ) ) ;
#371 =( GEOMETRIC_REPRESENTATION_CONTEXT ( 3 ) GLOBAL_UNCERTAINTY_ASSIGNED_CONTEXT ( ( #109 ) ) GLOBAL_UNIT_ASSIGNED_CONTEXT ( ( #314, #347, #115 ) ) REPRESENTATION_CONTEXT ( 'NONE', 'WORKASPACE' ) );
#372 = SHAPE_DEFINITION_REPRESENTATION ( #210, #267 ) ;
#373 = FILL_AREA_STYLE ('',( #119 ) ) ;
ENDSEC;
END-ISO-10303-21;
