ISO-10303-21;
HEADER;
FILE_DESCRIPTION (( 'STEP AP214' ),
    '1' );
FILE_NAME ('Micro_RTCM-060-2.STEP',
    '2021-09-03T18:24:23',
    ( '' ),
    ( '' ),
    'SwSTEP 2.0',
    'SolidWorks 2020',
    '' );
FILE_SCHEMA (( 'AUTOMOTIVE_DESIGN' ));
ENDSEC;

DATA;
#1 = CARTESIAN_POINT ( 'NONE',  ( 0.0000000000000000000, 0.0000000000000000000, 2.244094000000000033 ) ) ;
#2 = CIRCLE ( 'NONE', #144, 0.1181100000000000066 ) ;
#3 = ORIENTED_EDGE ( 'NONE', *, *, #201, .T. ) ;
#4 = EDGE_LOOP ( 'NONE', ( #68, #5, #217, #86 ) ) ;
#5 = ORIENTED_EDGE ( 'NONE', *, *, #164, .T. ) ;
#6 = ORIENTED_EDGE ( 'NONE', *, *, #75, .F. ) ;
#7 = ORIENTED_EDGE ( 'NONE', *, *, #96, .T. ) ;
#8 = AXIS2_PLACEMENT_3D ( 'NONE', #204, #116, #188 ) ;
#9 = STYLED_ITEM ( 'NONE', ( #27 ), #168 ) ;
#10 = EDGE_CURVE ( 'NONE', #48, #28, #87, .T. ) ;
#11 = UNCERTAINTY_MEASURE_WITH_UNIT (LENGTH_MEASURE( 1.000000000000000082E-05 ), #211, 'distance_accuracy_value', 'NONE');
#12 =( NAMED_UNIT ( * ) SI_UNIT ( $, .STERADIAN. ) SOLID_ANGLE_UNIT ( ) );
#13 = FACE_OUTER_BOUND ( 'NONE', #127, .T. ) ;
#14 = CARTESIAN_POINT ( 'NONE',  ( -0.003936999999999995191, 4.821434448243123477E-19, 0.0000000000000000000 ) ) ;
#15 = AXIS2_PLACEMENT_3D ( 'NONE', #221, #52, #80 ) ;
#16 = DIRECTION ( 'NONE',  ( 0.0000000000000000000, 0.0000000000000000000, -1.000000000000000000 ) ) ;
#17 = CARTESIAN_POINT ( 'NONE',  ( 0.0000000000000000000, 0.0000000000000000000, 0.0000000000000000000 ) ) ;
#18 = DIRECTION ( 'NONE',  ( -0.0000000000000000000, -0.0000000000000000000, -1.000000000000000000 ) ) ;
#19 = CARTESIAN_POINT ( 'NONE',  ( 0.1181100000000000066, 1.446430334472939084E-17, 2.244094000000000033 ) ) ;
#20 = FILL_AREA_STYLE ('',( #193 ) ) ;
#21 = DIRECTION ( 'NONE',  ( -0.0000000000000000000, -0.0000000000000000000, -1.000000000000000000 ) ) ;
#22 = EDGE_CURVE ( 'NONE', #108, #44, #180, .T. ) ;
#23 = VECTOR ( 'NONE', #21, 39.37007874015748143 ) ;
#24 = EDGE_LOOP ( 'NONE', ( #3, #70, #40, #146 ) ) ;
#25 =( NAMED_UNIT ( * ) SI_UNIT ( $, .STERADIAN. ) SOLID_ANGLE_UNIT ( ) );
#26 = DIRECTION ( 'NONE',  ( -0.0000000000000000000, -0.0000000000000000000, -1.000000000000000000 ) ) ;
#27 = PRESENTATION_STYLE_ASSIGNMENT (( #227 ) ) ;
#28 = VERTEX_POINT ( 'NONE', #233 ) ;
#29 =( NAMED_UNIT ( * ) PLANE_ANGLE_UNIT ( ) SI_UNIT ( $, .RADIAN. ) );
#30 = DIRECTION ( 'NONE',  ( -1.000000000000000000, 0.0000000000000000000, 0.0000000000000000000 ) ) ;
#31 = LENGTH_MEASURE_WITH_UNIT ( LENGTH_MEASURE( 0.02539999999999999897 ), #73 );
#32 = CIRCLE ( 'NONE', #177, 0.1181100000000000066 ) ;
#33 = DIRECTION ( 'NONE',  ( 1.000000000000000000, 0.0000000000000000000, 0.0000000000000000000 ) ) ;
#34 = DIRECTION ( 'NONE',  ( -0.0000000000000000000, -0.0000000000000000000, -1.000000000000000000 ) ) ;
#35 = COLOUR_RGB ( '',0.7921568627450980005, 0.8196078431372548767, 0.9333333333333333481 ) ;
#36 = ADVANCED_FACE ( 'NONE', ( #109 ), #163, .T. ) ;
#37 = DIRECTION ( 'NONE',  ( -0.0000000000000000000, -0.0000000000000000000, -1.000000000000000000 ) ) ;
#38 = LENGTH_MEASURE_WITH_UNIT ( LENGTH_MEASURE( 0.02539999999999999897 ), #157 );
#39 = VECTOR ( 'NONE', #174, 39.37007874015748143 ) ;
#40 = ORIENTED_EDGE ( 'NONE', *, *, #84, .F. ) ;
#41 = APPLICATION_CONTEXT ( 'automotive_design' ) ;
#42 = ORIENTED_EDGE ( 'NONE', *, *, #201, .F. ) ;
#43 = APPLICATION_PROTOCOL_DEFINITION ( 'draft international standard', 'automotive_design', 1998, #220 ) ;
#44 = VERTEX_POINT ( 'NONE', #169 ) ;
#45 = VECTOR ( 'NONE', #232, 39.37007874015748143 ) ;
#46 =( NAMED_UNIT ( * ) PLANE_ANGLE_UNIT ( ) SI_UNIT ( $, .RADIAN. ) );
#47 = ORIENTED_EDGE ( 'NONE', *, *, #139, .F. ) ;
#48 = VERTEX_POINT ( 'NONE', #240 ) ;
#49 = DIRECTION ( 'NONE',  ( 0.0000000000000000000, 0.0000000000000000000, 1.000000000000000000 ) ) ;
#50 = AXIS2_PLACEMENT_3D ( 'NONE', #105, #137, #209 ) ;
#51 =( CONVERSION_BASED_UNIT ( 'INCH', #31 ) LENGTH_UNIT ( ) NAMED_UNIT ( #89 ) );
#52 = DIRECTION ( 'NONE',  ( 0.0000000000000000000, 0.0000000000000000000, 1.000000000000000000 ) ) ;
#53 = FACE_OUTER_BOUND ( 'NONE', #111, .T. ) ;
#54 = CONICAL_SURFACE ( 'NONE', #173, 0.003936999999999995191, 0.2617993877991502960 ) ;
#55 = CARTESIAN_POINT ( 'NONE',  ( -0.003936999999999995191, 7.473223394776851115E-18, 0.0000000000000000000 ) ) ;
#56 = ADVANCED_FACE ( 'NONE', ( #53 ), #246, .T. ) ;
#57 = PRESENTATION_LAYER_ASSIGNMENT (  '', '', ( #67 ) ) ;
#58 = LINE ( 'NONE', #231, #39 ) ;
#59 = PRODUCT_DEFINITION ( 'UNKNOWN', '', #182, #71 ) ;
#60 = DIRECTION ( 'NONE',  ( -1.000000000000000000, 0.0000000000000000000, 0.0000000000000000000 ) ) ;
#61 = AXIS2_PLACEMENT_3D ( 'NONE', #122, #172, #79 ) ;
#62 = CARTESIAN_POINT ( 'NONE',  ( -0.1181100000000000066, 0.0000000000000000000, 2.244094000000000033 ) ) ;
#63 =( LENGTH_UNIT ( ) NAMED_UNIT ( * ) SI_UNIT ( $, .METRE. ) );
#64 = VERTEX_POINT ( 'NONE', #55 ) ;
#65 = MANIFOLD_SOLID_BREP ( 'Mirror1', #170 ) ;
#66 = DIRECTION ( 'NONE',  ( 0.0000000000000000000, 0.0000000000000000000, 1.000000000000000000 ) ) ;
#67 = STYLED_ITEM ( 'NONE', ( #200 ), #65 ) ;
#68 = ORIENTED_EDGE ( 'NONE', *, *, #190, .T. ) ;
#69 = PRODUCT_RELATED_PRODUCT_CATEGORY ( 'part', '', ( #149 ) ) ;
#70 = ORIENTED_EDGE ( 'NONE', *, *, #248, .T. ) ;
#71 = PRODUCT_DEFINITION_CONTEXT ( 'detailed design', #220, 'design' ) ;
#72 = FACE_OUTER_BOUND ( 'NONE', #178, .T. ) ;
#73 =( LENGTH_UNIT ( ) NAMED_UNIT ( * ) SI_UNIT ( $, .METRE. ) );
#74 = FACE_OUTER_BOUND ( 'NONE', #213, .T. ) ;
#75 = EDGE_CURVE ( 'NONE', #64, #184, #197, .T. ) ;
#76 = DIRECTION ( 'NONE',  ( 1.000000000000000000, 0.0000000000000000000, -0.0000000000000000000 ) ) ;
#77 = CIRCLE ( 'NONE', #224, 0.1181100000000000066 ) ;
#78 =( CONVERSION_BASED_UNIT ( 'INCH', #38 ) LENGTH_UNIT ( ) NAMED_UNIT ( #214 ) );
#79 = DIRECTION ( 'NONE',  ( -1.000000000000000000, 0.0000000000000000000, 0.0000000000000000000 ) ) ;
#80 = DIRECTION ( 'NONE',  ( 1.000000000000000000, 0.0000000000000000000, -0.0000000000000000000 ) ) ;
#81 = COLOUR_RGB ( '',0.7921568627450980005, 0.8196078431372548767, 0.9333333333333333481 ) ;
#82 = CARTESIAN_POINT ( 'NONE',  ( 0.0000000000000000000, 0.0000000000000000000, 1.817994563147440124 ) ) ;
#83 = DIRECTION ( 'NONE',  ( 0.0000000000000000000, 0.0000000000000000000, -1.000000000000000000 ) ) ;
#84 = EDGE_CURVE ( 'NONE', #44, #148, #99, .T. ) ;
#85 = SHAPE_DEFINITION_REPRESENTATION ( #135, #168 ) ;
#86 = ORIENTED_EDGE ( 'NONE', *, *, #10, .F. ) ;
#87 = LINE ( 'NONE', #162, #45 ) ;
#88 = ORIENTED_EDGE ( 'NONE', *, *, #190, .F. ) ;
#89 = DIMENSIONAL_EXPONENTS ( 1.000000000000000000, 0.0000000000000000000, 0.0000000000000000000, 0.0000000000000000000, 0.0000000000000000000, 0.0000000000000000000, 0.0000000000000000000 ) ;
#90 = ADVANCED_FACE ( 'NONE', ( #72 ), #54, .T. ) ;
#91 = DIRECTION ( 'NONE',  ( 1.000000000000000000, 0.0000000000000000000, 0.0000000000000000000 ) ) ;
#92 = ORIENTED_EDGE ( 'NONE', *, *, #222, .F. ) ;
#93 = VECTOR ( 'NONE', #26, 39.37007874015748143 ) ;
#94 = EDGE_LOOP ( 'NONE', ( #212, #196, #125, #234 ) ) ;
#95 = DIRECTION ( 'NONE',  ( 1.000000000000000000, 0.0000000000000000000, 0.0000000000000000000 ) ) ;
#96 = EDGE_CURVE ( 'NONE', #184, #148, #171, .T. ) ;
#97 = FACE_OUTER_BOUND ( 'NONE', #128, .T. ) ;
#98 = PLANE ( 'NONE',  #203 ) ;
#99 = CIRCLE ( 'NONE', #195, 0.1181100000000000066 ) ;
#100 = DIRECTION ( 'NONE',  ( -0.2588190451025216832, 3.169619151431776035E-17, 0.9659258262890679791 ) ) ;
#101 = DIRECTION ( 'NONE',  ( 1.000000000000000000, 0.0000000000000000000, 0.0000000000000000000 ) ) ;
#102 = CARTESIAN_POINT ( 'NONE',  ( 0.0000000000000000000, 0.0000000000000000000, 1.817994563147440124 ) ) ;
#103 = AXIS2_PLACEMENT_3D ( 'NONE', #147, #66, #91 ) ;
#104 = SURFACE_STYLE_FILL_AREA ( #20 ) ;
#105 = CARTESIAN_POINT ( 'NONE',  ( 0.0000000000000000000, 0.0000000000000000000, 2.244094000000000033 ) ) ;
#106 = CIRCLE ( 'NONE', #117, 0.003936999999999995191 ) ;
#107 = PRESENTATION_LAYER_ASSIGNMENT (  '', '', ( #9 ) ) ;
#108 = VERTEX_POINT ( 'NONE', #118 ) ;
#109 = FACE_OUTER_BOUND ( 'NONE', #4, .T. ) ;
#110 = LENGTH_MEASURE_WITH_UNIT ( LENGTH_MEASURE( 0.02539999999999999897 ), #63 );
#111 = EDGE_LOOP ( 'NONE', ( #47, #215, #7, #145 ) ) ;
#112 = UNCERTAINTY_MEASURE_WITH_UNIT (LENGTH_MEASURE( 1.000000000000000082E-05 ), #78, 'distance_accuracy_value', 'NONE');
#113 = AXIS2_PLACEMENT_3D ( 'NONE', #1, #34, #60 ) ;
#114 = CARTESIAN_POINT ( 'NONE',  ( 0.0000000000000000000, 0.0000000000000000000, 0.0000000000000000000 ) ) ;
#115 = CARTESIAN_POINT ( 'NONE',  ( 0.0000000000000000000, 0.0000000000000000000, 0.4260994368525598541 ) ) ;
#116 = DIRECTION ( 'NONE',  ( 0.0000000000000000000, 0.0000000000000000000, 1.000000000000000000 ) ) ;
#117 = AXIS2_PLACEMENT_3D ( 'NONE', #160, #37, #119 ) ;
#118 = CARTESIAN_POINT ( 'NONE',  ( -0.1181100000000000066, 0.0000000000000000000, 1.817994563147440124 ) ) ;
#119 = DIRECTION ( 'NONE',  ( -1.000000000000000000, 0.0000000000000000000, 0.0000000000000000000 ) ) ;
#120 = DIRECTION ( 'NONE',  ( 0.0000000000000000000, 0.0000000000000000000, -1.000000000000000000 ) ) ;
#121 =( GEOMETRIC_REPRESENTATION_CONTEXT ( 3 ) GLOBAL_UNCERTAINTY_ASSIGNED_CONTEXT ( ( #112 ) ) GLOBAL_UNIT_ASSIGNED_CONTEXT ( ( #78, #226, #140 ) ) REPRESENTATION_CONTEXT ( 'NONE', 'WORKASPACE' ) );
#122 = CARTESIAN_POINT ( 'NONE',  ( 0.0000000000000000000, 0.0000000000000000000, 2.244094000000000033 ) ) ;
#123 = CARTESIAN_POINT ( 'NONE',  ( -0.003936999999999995191, -7.473223394776848033E-18, 2.244094000000000033 ) ) ;
#124 = ORIENTED_EDGE ( 'NONE', *, *, #139, .T. ) ;
#125 = ORIENTED_EDGE ( 'NONE', *, *, #22, .T. ) ;
#126 = VECTOR ( 'NONE', #100, 39.37007874015748143 ) ;
#127 = EDGE_LOOP ( 'NONE', ( #6, #124, #236, #151 ) ) ;
#128 = EDGE_LOOP ( 'NONE', ( #129, #166 ) ) ;
#129 = ORIENTED_EDGE ( 'NONE', *, *, #183, .T. ) ;
#130 = ADVANCED_FACE ( 'NONE', ( #13 ), #216, .T. ) ;
#131 = AXIS2_PLACEMENT_3D ( 'NONE', #247, #161, #229 ) ;
#132 = FILL_AREA_STYLE_COLOUR ( '', #35 ) ;
#133 =( GEOMETRIC_REPRESENTATION_CONTEXT ( 3 ) GLOBAL_UNCERTAINTY_ASSIGNED_CONTEXT ( ( #11 ) ) GLOBAL_UNIT_ASSIGNED_CONTEXT ( ( #211, #46, #25 ) ) REPRESENTATION_CONTEXT ( 'NONE', 'WORKASPACE' ) );
#134 = DIRECTION ( 'NONE',  ( -0.0000000000000000000, -0.0000000000000000000, -1.000000000000000000 ) ) ;
#135 = PRODUCT_DEFINITION_SHAPE ( 'NONE', 'NONE',  #59 ) ;
#136 = DIRECTION ( 'NONE',  ( 0.0000000000000000000, 0.0000000000000000000, 1.000000000000000000 ) ) ;
#137 = DIRECTION ( 'NONE',  ( 0.0000000000000000000, 0.0000000000000000000, -1.000000000000000000 ) ) ;
#138 = DIRECTION ( 'NONE',  ( -1.000000000000000000, 0.0000000000000000000, 0.0000000000000000000 ) ) ;
#139 = EDGE_CURVE ( 'NONE', #64, #44, #225, .T. ) ;
#140 =( NAMED_UNIT ( * ) SI_UNIT ( $, .STERADIAN. ) SOLID_ANGLE_UNIT ( ) );
#141 = ADVANCED_FACE ( 'NONE', ( #97 ), #98, .F. ) ;
#142 = DIRECTION ( 'NONE',  ( -1.000000000000000000, 0.0000000000000000000, 0.0000000000000000000 ) ) ;
#143 = PRODUCT_CONTEXT ( 'NONE', #41, 'mechanical' ) ;
#144 = AXIS2_PLACEMENT_3D ( 'NONE', #82, #120, #142 ) ;
#145 = ORIENTED_EDGE ( 'NONE', *, *, #230, .T. ) ;
#146 = ORIENTED_EDGE ( 'NONE', *, *, #22, .F. ) ;
#147 = CARTESIAN_POINT ( 'NONE',  ( 0.0000000000000000000, 0.0000000000000000000, 0.0000000000000000000 ) ) ;
#148 = VERTEX_POINT ( 'NONE', #241 ) ;
#149 = PRODUCT ( 'Micro_RTCM-060-2', 'Micro_RTCM-060-2', '', ( #143 ) ) ;
#150 = ADVANCED_FACE ( 'NONE', ( #74 ), #155, .T. ) ;
#151 = ORIENTED_EDGE ( 'NONE', *, *, #96, .F. ) ;
#152 = CARTESIAN_POINT ( 'NONE',  ( 0.003936999999999995191, 0.0000000000000000000, 0.0000000000000000000 ) ) ;
#153 = AXIS2_PLACEMENT_3D ( 'NONE', #114, #49, #33 ) ;
#154 = SURFACE_STYLE_FILL_AREA ( #239 ) ;
#155 = PLANE ( 'NONE',  #15 ) ;
#156 = SURFACE_SIDE_STYLE ('',( #154 ) ) ;
#157 =( LENGTH_UNIT ( ) NAMED_UNIT ( * ) SI_UNIT ( $, .METRE. ) );
#158 = FACE_OUTER_BOUND ( 'NONE', #94, .T. ) ;
#159 = CIRCLE ( 'NONE', #131, 0.003936999999999995191 ) ;
#160 = CARTESIAN_POINT ( 'NONE',  ( 0.0000000000000000000, 0.0000000000000000000, 0.0000000000000000000 ) ) ;
#161 = DIRECTION ( 'NONE',  ( 0.0000000000000000000, 0.0000000000000000000, -1.000000000000000000 ) ) ;
#162 = CARTESIAN_POINT ( 'NONE',  ( 0.003936999999999995191, 0.0000000000000000000, 2.244094000000000033 ) ) ;
#163 = CONICAL_SURFACE ( 'NONE', #181, 0.003936999999999995191, 0.2617993877991502960 ) ;
#164 = EDGE_CURVE ( 'NONE', #238, #108, #58, .T. ) ;
#165 = ORIENTED_EDGE ( 'NONE', *, *, #10, .T. ) ;
#166 = ORIENTED_EDGE ( 'NONE', *, *, #75, .T. ) ;
#167 = ORIENTED_EDGE ( 'NONE', *, *, #222, .T. ) ;
#168 = ADVANCED_BREP_SHAPE_REPRESENTATION ( 'Micro_RTCM-060-2', ( #65, #103 ), #121 ) ;
#169 = CARTESIAN_POINT ( 'NONE',  ( -0.1181100000000000066, 0.0000000000000000000, 0.4260994368525598541 ) ) ;
#170 = CLOSED_SHELL ( 'NONE', ( #36, #130, #194, #242, #56, #141, #90, #150 ) ) ;
#171 = LINE ( 'NONE', #152, #228 ) ;
#172 = DIRECTION ( 'NONE',  ( -0.0000000000000000000, -0.0000000000000000000, -1.000000000000000000 ) ) ;
#173 = AXIS2_PLACEMENT_3D ( 'NONE', #189, #16, #95 ) ;
#174 = DIRECTION ( 'NONE',  ( -0.2588190451025216832, -3.169619151431776035E-17, -0.9659258262890679791 ) ) ;
#175 = DIRECTION ( 'NONE',  ( -1.000000000000000000, 0.0000000000000000000, 0.0000000000000000000 ) ) ;
#176 = CYLINDRICAL_SURFACE ( 'NONE', #113, 0.1181100000000000066 ) ;
#177 = AXIS2_PLACEMENT_3D ( 'NONE', #205, #18, #175 ) ;
#178 = EDGE_LOOP ( 'NONE', ( #198, #167, #165, #42 ) ) ;
#179 = EDGE_CURVE ( 'NONE', #28, #108, #77, .T. ) ;
#180 = LINE ( 'NONE', #62, #93 ) ;
#181 = AXIS2_PLACEMENT_3D ( 'NONE', #187, #186, #101 ) ;
#182 = PRODUCT_DEFINITION_FORMATION_WITH_SPECIFIED_SOURCE ( 'ANY', '', #149, .NOT_KNOWN. ) ;
#183 = EDGE_CURVE ( 'NONE', #184, #64, #106, .T. ) ;
#184 = VERTEX_POINT ( 'NONE', #206 ) ;
#185 =( GEOMETRIC_REPRESENTATION_CONTEXT ( 3 ) GLOBAL_UNCERTAINTY_ASSIGNED_CONTEXT ( ( #243 ) ) GLOBAL_UNIT_ASSIGNED_CONTEXT ( ( #51, #29, #12 ) ) REPRESENTATION_CONTEXT ( 'NONE', 'WORKASPACE' ) );
#186 = DIRECTION ( 'NONE',  ( 0.0000000000000000000, 0.0000000000000000000, -1.000000000000000000 ) ) ;
#187 = CARTESIAN_POINT ( 'NONE',  ( 0.0000000000000000000, 0.0000000000000000000, 2.244094000000000033 ) ) ;
#188 = DIRECTION ( 'NONE',  ( 1.000000000000000000, 0.0000000000000000000, 0.0000000000000000000 ) ) ;
#189 = CARTESIAN_POINT ( 'NONE',  ( 0.0000000000000000000, 0.0000000000000000000, 2.244094000000000033 ) ) ;
#190 = EDGE_CURVE ( 'NONE', #48, #238, #159, .T. ) ;
#191 = FACE_OUTER_BOUND ( 'NONE', #24, .T. ) ;
#192 = LINE ( 'NONE', #19, #23 ) ;
#193 = FILL_AREA_STYLE_COLOUR ( '', #81 ) ;
#194 = ADVANCED_FACE ( 'NONE', ( #191 ), #176, .T. ) ;
#195 = AXIS2_PLACEMENT_3D ( 'NONE', #115, #223, #30 ) ;
#196 = ORIENTED_EDGE ( 'NONE', *, *, #179, .T. ) ;
#197 = CIRCLE ( 'NONE', #208, 0.003936999999999995191 ) ;
#198 = ORIENTED_EDGE ( 'NONE', *, *, #164, .F. ) ;
#199 = DIRECTION ( 'NONE',  ( 0.2588190451025216832, 0.0000000000000000000, 0.9659258262890679791 ) ) ;
#200 = PRESENTATION_STYLE_ASSIGNMENT (( #244 ) ) ;
#201 = EDGE_CURVE ( 'NONE', #108, #28, #2, .T. ) ;
#202 = DIRECTION ( 'NONE',  ( -1.000000000000000000, 0.0000000000000000000, 0.0000000000000000000 ) ) ;
#203 = AXIS2_PLACEMENT_3D ( 'NONE', #17, #136, #76 ) ;
#204 = CARTESIAN_POINT ( 'NONE',  ( 0.0000000000000000000, 0.0000000000000000000, 0.0000000000000000000 ) ) ;
#205 = CARTESIAN_POINT ( 'NONE',  ( 0.0000000000000000000, 0.0000000000000000000, 0.4260994368525598541 ) ) ;
#206 = CARTESIAN_POINT ( 'NONE',  ( 0.003936999999999995191, 0.0000000000000000000, 0.0000000000000000000 ) ) ;
#207 = APPLICATION_PROTOCOL_DEFINITION ( 'draft international standard', 'automotive_design', 1998, #41 ) ;
#208 = AXIS2_PLACEMENT_3D ( 'NONE', #245, #134, #202 ) ;
#209 = DIRECTION ( 'NONE',  ( -1.000000000000000000, 0.0000000000000000000, 0.0000000000000000000 ) ) ;
#210 = CYLINDRICAL_SURFACE ( 'NONE', #61, 0.1181100000000000066 ) ;
#211 =( CONVERSION_BASED_UNIT ( 'INCH', #110 ) LENGTH_UNIT ( ) NAMED_UNIT ( #235 ) );
#212 = ORIENTED_EDGE ( 'NONE', *, *, #248, .F. ) ;
#213 = EDGE_LOOP ( 'NONE', ( #88, #92 ) ) ;
#214 = DIMENSIONAL_EXPONENTS ( 1.000000000000000000, 0.0000000000000000000, 0.0000000000000000000, 0.0000000000000000000, 0.0000000000000000000, 0.0000000000000000000, 0.0000000000000000000 ) ;
#215 = ORIENTED_EDGE ( 'NONE', *, *, #183, .F. ) ;
#216 = CONICAL_SURFACE ( 'NONE', #8, 0.003936999999999995191, 0.2617993877991502960 ) ;
#217 = ORIENTED_EDGE ( 'NONE', *, *, #179, .F. ) ;
#218 = MECHANICAL_DESIGN_GEOMETRIC_PRESENTATION_REPRESENTATION (  '', ( #67 ), #185 ) ;
#219 = MECHANICAL_DESIGN_GEOMETRIC_PRESENTATION_REPRESENTATION (  '', ( #9 ), #133 ) ;
#220 = APPLICATION_CONTEXT ( 'automotive_design' ) ;
#221 = CARTESIAN_POINT ( 'NONE',  ( 0.0000000000000000000, 0.0000000000000000000, 2.244094000000000033 ) ) ;
#222 = EDGE_CURVE ( 'NONE', #238, #48, #237, .T. ) ;
#223 = DIRECTION ( 'NONE',  ( -0.0000000000000000000, -0.0000000000000000000, -1.000000000000000000 ) ) ;
#224 = AXIS2_PLACEMENT_3D ( 'NONE', #102, #83, #138 ) ;
#225 = LINE ( 'NONE', #14, #126 ) ;
#226 =( NAMED_UNIT ( * ) PLANE_ANGLE_UNIT ( ) SI_UNIT ( $, .RADIAN. ) );
#227 = SURFACE_STYLE_USAGE ( .BOTH. , #249 ) ;
#228 = VECTOR ( 'NONE', #199, 39.37007874015748143 ) ;
#229 = DIRECTION ( 'NONE',  ( -1.000000000000000000, 0.0000000000000000000, 0.0000000000000000000 ) ) ;
#230 = EDGE_CURVE ( 'NONE', #148, #44, #32, .T. ) ;
#231 = CARTESIAN_POINT ( 'NONE',  ( -0.003936999999999995191, -4.821434448243123477E-19, 2.244094000000000033 ) ) ;
#232 = DIRECTION ( 'NONE',  ( 0.2588190451025216832, 0.0000000000000000000, -0.9659258262890679791 ) ) ;
#233 = CARTESIAN_POINT ( 'NONE',  ( 0.1181100000000000066, 1.446430334472939084E-17, 1.817994563147440124 ) ) ;
#234 = ORIENTED_EDGE ( 'NONE', *, *, #230, .F. ) ;
#235 = DIMENSIONAL_EXPONENTS ( 1.000000000000000000, 0.0000000000000000000, 0.0000000000000000000, 0.0000000000000000000, 0.0000000000000000000, 0.0000000000000000000, 0.0000000000000000000 ) ;
#236 = ORIENTED_EDGE ( 'NONE', *, *, #84, .T. ) ;
#237 = CIRCLE ( 'NONE', #50, 0.003936999999999995191 ) ;
#238 = VERTEX_POINT ( 'NONE', #123 ) ;
#239 = FILL_AREA_STYLE ('',( #132 ) ) ;
#240 = CARTESIAN_POINT ( 'NONE',  ( 0.003936999999999995191, 0.0000000000000000000, 2.244094000000000033 ) ) ;
#241 = CARTESIAN_POINT ( 'NONE',  ( 0.1181100000000000066, 1.446430334472939084E-17, 0.4260994368525598541 ) ) ;
#242 = ADVANCED_FACE ( 'NONE', ( #158 ), #210, .T. ) ;
#243 = UNCERTAINTY_MEASURE_WITH_UNIT (LENGTH_MEASURE( 1.000000000000000082E-05 ), #51, 'distance_accuracy_value', 'NONE');
#244 = SURFACE_STYLE_USAGE ( .BOTH. , #156 ) ;
#245 = CARTESIAN_POINT ( 'NONE',  ( 0.0000000000000000000, 0.0000000000000000000, 0.0000000000000000000 ) ) ;
#246 = CONICAL_SURFACE ( 'NONE', #153, 0.003936999999999995191, 0.2617993877991502960 ) ;
#247 = CARTESIAN_POINT ( 'NONE',  ( 0.0000000000000000000, 0.0000000000000000000, 2.244094000000000033 ) ) ;
#248 = EDGE_CURVE ( 'NONE', #28, #148, #192, .T. ) ;
#249 = SURFACE_SIDE_STYLE ('',( #104 ) ) ;
ENDSEC;
END-ISO-10303-21;
