ISO-10303-21;
HEADER;
FILE_DESCRIPTION (( 'STEP AP214' ),
    '1' );
FILE_NAME ('12077.STEP',
    '2023-06-30T21:50:49',
    ( '' ),
    ( '' ),
    'SwSTEP 2.0',
    'SolidWorks 2023',
    '' );
FILE_SCHEMA (( 'AUTOMOTIVE_DESIGN' ));
ENDSEC;

DATA;
#1 = CARTESIAN_POINT ( 'NONE',  ( -1.148106374200644017E-17, 0.09375000000000002776, 0.000000000000000000 ) ) ;
#2 = FACE_OUTER_BOUND ( 'NONE', #243, .T. ) ;
#3 = AXIS2_PLACEMENT_3D ( 'NONE', #1, #159, #214 ) ;
#4 = CARTESIAN_POINT ( 'NONE',  ( -1.148106374200644017E-17, 0.09375000000000002776, 0.000000000000000000 ) ) ;
#5 = PRODUCT_DEFINITION ( 'UNKNOWN', '', #255, #309 ) ;
#6 = APPLICATION_CONTEXT ( 'automotive_design' ) ;
#7 = FILL_AREA_STYLE ('',( #148 ) ) ;
#8 = AXIS2_PLACEMENT_3D ( 'NONE', #328, #67, #179 ) ;
#9 = FACE_OUTER_BOUND ( 'NONE', #25, .T. ) ;
#10 = FILL_AREA_STYLE ('',( #93 ) ) ;
#11 = CARTESIAN_POINT ( 'NONE',  ( -0.09375000000000002776, 0.09375000000000004163, 1.148106374200643863E-17 ) ) ;
#12 = AXIS2_PLACEMENT_3D ( 'NONE', #237, #69, #40 ) ;
#13 =( NAMED_UNIT ( * ) SI_UNIT ( $, .STERADIAN. ) SOLID_ANGLE_UNIT ( ) );
#14 = DIRECTION ( 'NONE',  ( -0.000000000000000000, -1.000000000000000000, -0.000000000000000000 ) ) ;
#15 =( LENGTH_UNIT ( ) NAMED_UNIT ( * ) SI_UNIT ( $, .METRE. ) );
#16 = CARTESIAN_POINT ( 'NONE',  ( 1.760429773774320220E-16, 0.5625000000000000000, 0.000000000000000000 ) ) ;
#17 = CARTESIAN_POINT ( 'NONE',  ( -0.09374999999999995837, 2.500000000000000000, 0.000000000000000000 ) ) ;
#18 = FACE_OUTER_BOUND ( 'NONE', #19, .T. ) ;
#19 = EDGE_LOOP ( 'NONE', ( #227, #278, #306, #185 ) ) ;
#20 =( NAMED_UNIT ( * ) PLANE_ANGLE_UNIT ( ) SI_UNIT ( $, .RADIAN. ) );
#21 = CLOSED_SHELL ( 'NONE', ( #117, #54, #86, #47, #113 ) ) ;
#22 = CARTESIAN_POINT ( 'NONE',  ( -1.148106374200644017E-17, 0.09375000000000002776, 0.000000000000000000 ) ) ;
#23 =( GEOMETRIC_REPRESENTATION_CONTEXT ( 3 ) GLOBAL_UNCERTAINTY_ASSIGNED_CONTEXT ( ( #279 ) ) GLOBAL_UNIT_ASSIGNED_CONTEXT ( ( #108, #256, #198 ) ) REPRESENTATION_CONTEXT ( 'NONE', 'WORKASPACE' ) );
#24 = DIMENSIONAL_EXPONENTS ( 1.000000000000000000, 0.000000000000000000, 0.000000000000000000, 0.000000000000000000, 0.000000000000000000, 0.000000000000000000, 0.000000000000000000 ) ;
#25 = EDGE_LOOP ( 'NONE', ( #333, #140, #169, #45 ) ) ;
#26 = AXIS2_PLACEMENT_3D ( 'NONE', #181, #270, #97 ) ;
#27 = SURFACE_STYLE_FILL_AREA ( #71 ) ;
#28 = CARTESIAN_POINT ( 'NONE',  ( 0.09374999999999981959, 2.500000000000000000, 1.148106374200642322E-17 ) ) ;
#29 = SURFACE_SIDE_STYLE ('',( #32 ) ) ;
#30 = PRESENTATION_STYLE_ASSIGNMENT (( #343 ) ) ;
#31 = AXIS2_PLACEMENT_3D ( 'NONE', #4, #138, #221 ) ;
#32 = SURFACE_STYLE_FILL_AREA ( #114 ) ;
#33 = DIRECTION ( 'NONE',  ( 0.000000000000000000, 0.000000000000000000, -1.000000000000000000 ) ) ;
#34 = MECHANICAL_DESIGN_GEOMETRIC_PRESENTATION_REPRESENTATION (  '', ( #50 ), #289 ) ;
#35 = CARTESIAN_POINT ( 'NONE',  ( 1.148106374200643401E-17, 0.000000000000000000, 0.09374999999999998612 ) ) ;
#36 =( CONVERSION_BASED_UNIT ( 'INCH', #262 ) LENGTH_UNIT ( ) NAMED_UNIT ( #24 ) );
#37 = EDGE_CURVE ( 'NONE', #244, #83, #129, .T. ) ;
#38 = PRESENTATION_LAYER_ASSIGNMENT (  '', '', ( #68 ) ) ;
#39 = PLANE ( 'NONE',  #254 ) ;
#40 = DIRECTION ( 'NONE',  ( -1.000000000000000000, 0.000000000000000000, 0.000000000000000000 ) ) ;
#41 = DIMENSIONAL_EXPONENTS ( 1.000000000000000000, 0.000000000000000000, 0.000000000000000000, 0.000000000000000000, 0.000000000000000000, 0.000000000000000000, 0.000000000000000000 ) ;
#42 = SURFACE_STYLE_FILL_AREA ( #10 ) ;
#43 = EDGE_CURVE ( 'NONE', #286, #78, #187, .T. ) ;
#44 = PRESENTATION_LAYER_ASSIGNMENT (  '', '', ( #259 ) ) ;
#45 = ORIENTED_EDGE ( 'NONE', *, *, #194, .T. ) ;
#46 = LENGTH_MEASURE_WITH_UNIT ( LENGTH_MEASURE( 0.02539999999999999897 ), #131 );
#47 = ADVANCED_FACE ( 'NONE', ( #349 ), #60, .T. ) ;
#48 = ORIENTED_EDGE ( 'NONE', *, *, #146, .T. ) ;
#49 = CARTESIAN_POINT ( 'NONE',  ( 0.000000000000000000, 0.5625000000000000000, 0.000000000000000000 ) ) ;
#50 = STYLED_ITEM ( 'NONE', ( #290 ), #117 ) ;
#51 = EDGE_LOOP ( 'NONE', ( #218, #294 ) ) ;
#52 = SURFACE_STYLE_USAGE ( .BOTH. , #136 ) ;
#53 =( LENGTH_UNIT ( ) NAMED_UNIT ( * ) SI_UNIT ( $, .METRE. ) );
#54 = ADVANCED_FACE ( 'NONE', ( #2 ), #322, .T. ) ;
#55 = SURFACE_STYLE_FILL_AREA ( #7 ) ;
#56 = SURFACE_STYLE_USAGE ( .BOTH. , #195 ) ;
#57 =( CONVERSION_BASED_UNIT ( 'INCH', #317 ) LENGTH_UNIT ( ) NAMED_UNIT ( #276 ) );
#58 = AXIS2_PLACEMENT_3D ( 'NONE', #197, #128, #331 ) ;
#59 = DIRECTION ( 'NONE',  ( 1.000000000000000000, 0.000000000000000000, 0.000000000000000000 ) ) ;
#60 = CYLINDRICAL_SURFACE ( 'NONE', #61, 0.09374999999999998612 ) ;
#61 = AXIS2_PLACEMENT_3D ( 'NONE', #342, #230, #145 ) ;
#62 = EDGE_CURVE ( 'NONE', #346, #286, #351, .T. ) ;
#63 = LENGTH_MEASURE_WITH_UNIT ( LENGTH_MEASURE( 0.02539999999999999897 ), #112 );
#64 = FILL_AREA_STYLE_COLOUR ( '', #106 ) ;
#65 = CIRCLE ( 'NONE', #26, 0.09374999999999976408 ) ;
#66 = PRODUCT_RELATED_PRODUCT_CATEGORY ( 'part', '', ( #253 ) ) ;
#67 = DIRECTION ( 'NONE',  ( -1.224646799147353207E-16, 1.000000000000000000, -0.000000000000000000 ) ) ;
#68 = STYLED_ITEM ( 'NONE', ( #92 ), #86 ) ;
#69 = DIRECTION ( 'NONE',  ( 0.000000000000000000, 0.000000000000000000, -1.000000000000000000 ) ) ;
#70 = MECHANICAL_DESIGN_GEOMETRIC_PRESENTATION_REPRESENTATION (  '', ( #358 ), #160 ) ;
#71 = FILL_AREA_STYLE ('',( #282 ) ) ;
#72 = DIRECTION ( 'NONE',  ( -0.000000000000000000, -1.000000000000000000, -0.000000000000000000 ) ) ;
#73 = PRESENTATION_LAYER_ASSIGNMENT (  '', '', ( #318 ) ) ;
#74 = ORIENTED_EDGE ( 'NONE', *, *, #43, .F. ) ;
#75 = COLOUR_RGB ( '',1.000000000000000000, 0.000000000000000000, 0.000000000000000000 ) ;
#76 = DIRECTION ( 'NONE',  ( -1.224646799147353207E-16, 1.000000000000000000, -0.000000000000000000 ) ) ;
#77 = LINE ( 'NONE', #28, #296 ) ;
#78 = VERTEX_POINT ( 'NONE', #11 ) ;
#79 = DIRECTION ( 'NONE',  ( 1.000000000000000000, 1.224646799147353207E-16, 0.000000000000000000 ) ) ;
#80 = AXIS2_PLACEMENT_3D ( 'NONE', #22, #211, #156 ) ;
#81 = DIRECTION ( 'NONE',  ( 0.000000000000000000, 0.000000000000000000, -1.000000000000000000 ) ) ;
#82 = APPLICATION_PROTOCOL_DEFINITION ( 'draft international standard', 'automotive_design', 1998, #246 ) ;
#83 = VERTEX_POINT ( 'NONE', #301 ) ;
#84 = LENGTH_MEASURE_WITH_UNIT ( LENGTH_MEASURE( 0.02539999999999999897 ), #163 );
#85 = DIRECTION ( 'NONE',  ( -0.000000000000000000, -1.000000000000000000, -0.000000000000000000 ) ) ;
#86 = ADVANCED_FACE ( 'NONE', ( #203 ), #235, .T. ) ;
#87 = AXIS2_PLACEMENT_3D ( 'NONE', #110, #193, #81 ) ;
#88 = PRODUCT_CONTEXT ( 'NONE', #6, 'mechanical' ) ;
#89 = DIRECTION ( 'NONE',  ( -0.000000000000000000, -1.000000000000000000, -0.000000000000000000 ) ) ;
#90 = EDGE_CURVE ( 'NONE', #99, #165, #295, .T. ) ;
#91 = COLOUR_RGB ( '',0.7921568627450980005, 0.8196078431372548767, 0.9333333333333333481 ) ;
#92 = PRESENTATION_STYLE_ASSIGNMENT (( #326 ) ) ;
#93 = FILL_AREA_STYLE_COLOUR ( '', #149 ) ;
#94 =( NAMED_UNIT ( * ) SI_UNIT ( $, .STERADIAN. ) SOLID_ANGLE_UNIT ( ) );
#95 =( NAMED_UNIT ( * ) PLANE_ANGLE_UNIT ( ) SI_UNIT ( $, .RADIAN. ) );
#96 = COLOUR_RGB ( '',1.000000000000000000, 0.000000000000000000, 0.000000000000000000 ) ;
#97 = DIRECTION ( 'NONE',  ( -1.000000000000000000, 0.000000000000000000, 0.000000000000000000 ) ) ;
#98 = DIMENSIONAL_EXPONENTS ( 1.000000000000000000, 0.000000000000000000, 0.000000000000000000, 0.000000000000000000, 0.000000000000000000, 0.000000000000000000, 0.000000000000000000 ) ;
#99 = VERTEX_POINT ( 'NONE', #356 ) ;
#100 = ORIENTED_EDGE ( 'NONE', *, *, #292, .T. ) ;
#101 = CARTESIAN_POINT ( 'NONE',  ( 0.09374999999999994449, 2.500000000000000000, 0.000000000000000000 ) ) ;
#102 = ORIENTED_EDGE ( 'NONE', *, *, #174, .T. ) ;
#103 = CARTESIAN_POINT ( 'NONE',  ( -5.740531871003220085E-18, 0.000000000000000000, 0.000000000000000000 ) ) ;
#104 = PRESENTATION_LAYER_ASSIGNMENT (  '', '', ( #267 ) ) ;
#105 = DIRECTION ( 'NONE',  ( -1.000000000000000000, 0.000000000000000000, 0.000000000000000000 ) ) ;
#106 = COLOUR_RGB ( '',1.000000000000000000, 0.000000000000000000, 0.000000000000000000 ) ;
#107 = ADVANCED_FACE ( 'NONE', ( #176 ), #39, .F. ) ;
#108 =( CONVERSION_BASED_UNIT ( 'INCH', #84 ) LENGTH_UNIT ( ) NAMED_UNIT ( #98 ) );
#109 = AXIS2_PLACEMENT_3D ( 'NONE', #220, #277, #370 ) ;
#110 = CARTESIAN_POINT ( 'NONE',  ( 0.000000000000000000, 0.09375000000000004163, 0.000000000000000000 ) ) ;
#111 = FILL_AREA_STYLE_COLOUR ( '', #202 ) ;
#112 =( LENGTH_UNIT ( ) NAMED_UNIT ( * ) SI_UNIT ( $, .METRE. ) );
#113 = ADVANCED_FACE ( 'NONE', ( #9 ), #223, .T. ) ;
#114 = FILL_AREA_STYLE ('',( #170 ) ) ;
#115 = AXIS2_PLACEMENT_3D ( 'NONE', #315, #307, #280 ) ;
#116 = DIRECTION ( 'NONE',  ( -1.224646799147353207E-16, 1.000000000000000000, 0.000000000000000000 ) ) ;
#117 = ADVANCED_FACE ( 'NONE', ( #201 ), #308, .T. ) ;
#118 = SURFACE_STYLE_USAGE ( .BOTH. , #123 ) ;
#119 = MECHANICAL_DESIGN_GEOMETRIC_PRESENTATION_REPRESENTATION (  '', ( #68 ), #305 ) ;
#120 = COLOUR_RGB ( '',1.000000000000000000, 0.000000000000000000, 0.000000000000000000 ) ;
#121 = CARTESIAN_POINT ( 'NONE',  ( 0.000000000000000000, 0.5625000000000000000, -0.09374999999999994449 ) ) ;
#122 = DIRECTION ( 'NONE',  ( -1.000000000000000000, -1.224646799147353207E-16, 0.000000000000000000 ) ) ;
#123 = SURFACE_SIDE_STYLE ('',( #42 ) ) ;
#124 = MECHANICAL_DESIGN_GEOMETRIC_PRESENTATION_REPRESENTATION (  '', ( #318 ), #23 ) ;
#125 = CARTESIAN_POINT ( 'NONE',  ( -6.123233995736766036E-17, 2.500000000000000000, 0.000000000000000000 ) ) ;
#126 = CIRCLE ( 'NONE', #3, 0.09375000000000002776 ) ;
#127 = ORIENTED_EDGE ( 'NONE', *, *, #146, .F. ) ;
#128 = DIRECTION ( 'NONE',  ( -0.000000000000000000, -1.000000000000000000, -0.000000000000000000 ) ) ;
#129 = CIRCLE ( 'NONE', #139, 0.09375000000000002776 ) ;
#130 = EDGE_CURVE ( 'NONE', #83, #286, #222, .T. ) ;
#131 =( LENGTH_UNIT ( ) NAMED_UNIT ( * ) SI_UNIT ( $, .METRE. ) );
#132 = EDGE_LOOP ( 'NONE', ( #215, #257, #182, #196 ) ) ;
#133 = UNCERTAINTY_MEASURE_WITH_UNIT (LENGTH_MEASURE( 1.000000000000000082E-05 ), #335, 'distance_accuracy_value', 'NONE');
#134 =( GEOMETRIC_REPRESENTATION_CONTEXT ( 3 ) GLOBAL_UNCERTAINTY_ASSIGNED_CONTEXT ( ( #216 ) ) GLOBAL_UNIT_ASSIGNED_CONTEXT ( ( #192, #245, #273 ) ) REPRESENTATION_CONTEXT ( 'NONE', 'WORKASPACE' ) );
#135 = VERTEX_POINT ( 'NONE', #103 ) ;
#136 = SURFACE_SIDE_STYLE ('',( #27 ) ) ;
#137 = DIRECTION ( 'NONE',  ( -1.224646799147353207E-16, 1.000000000000000000, -0.000000000000000000 ) ) ;
#138 = DIRECTION ( 'NONE',  ( 0.000000000000000000, 0.000000000000000000, 1.000000000000000000 ) ) ;
#139 = AXIS2_PLACEMENT_3D ( 'NONE', #319, #85, #33 ) ;
#140 = ORIENTED_EDGE ( 'NONE', *, *, #150, .T. ) ;
#141 = EDGE_CURVE ( 'NONE', #314, #303, #213, .T. ) ;
#142 = CARTESIAN_POINT ( 'NONE',  ( 1.148106374200644017E-17, 0.09375000000000004163, 0.09375000000000002776 ) ) ;
#143 = EDGE_LOOP ( 'NONE', ( #188, #100, #102, #371, #74 ) ) ;
#144 = MANIFOLD_SOLID_BREP ( 'Revolve - Tool Body (Straight Shanked)', #345 ) ;
#145 = DIRECTION ( 'NONE',  ( 0.000000000000000000, 0.000000000000000000, -1.000000000000000000 ) ) ;
#146 = EDGE_CURVE ( 'NONE', #161, #346, #325, .T. ) ;
#147 = SURFACE_STYLE_USAGE ( .BOTH. , #29 ) ;
#148 = FILL_AREA_STYLE_COLOUR ( '', #120 ) ;
#149 = COLOUR_RGB ( '',0.7921568627450980005, 0.8196078431372548767, 0.9333333333333333481 ) ;
#150 = EDGE_CURVE ( 'NONE', #78, #244, #300, .T. ) ;
#151 = SURFACE_SIDE_STYLE ('',( #175 ) ) ;
#152 = DIRECTION ( 'NONE',  ( -0.000000000000000000, -1.000000000000000000, -0.000000000000000000 ) ) ;
#153 = FILL_AREA_STYLE ('',( #64 ) ) ;
#154 = DIRECTION ( 'NONE',  ( -1.000000000000000000, 0.000000000000000000, 0.000000000000000000 ) ) ;
#155 = CARTESIAN_POINT ( 'NONE',  ( 0.000000000000000000, 0.5625000000000000000, 0.000000000000000000 ) ) ;
#156 = DIRECTION ( 'NONE',  ( 1.000000000000000000, 0.000000000000000000, 0.000000000000000000 ) ) ;
#157 = MANIFOLD_SOLID_BREP ( 'Revolve - Cutting Edge', #21 ) ;
#158 = AXIS2_PLACEMENT_3D ( 'NONE', #212, #299, #363 ) ;
#159 = DIRECTION ( 'NONE',  ( 1.224646799147353207E-16, -0.000000000000000000, 1.000000000000000000 ) ) ;
#160 =( GEOMETRIC_REPRESENTATION_CONTEXT ( 3 ) GLOBAL_UNCERTAINTY_ASSIGNED_CONTEXT ( ( #186 ) ) GLOBAL_UNIT_ASSIGNED_CONTEXT ( ( #57, #291, #288 ) ) REPRESENTATION_CONTEXT ( 'NONE', 'WORKASPACE' ) );
#161 = VERTEX_POINT ( 'NONE', #121 ) ;
#162 = FACE_OUTER_BOUND ( 'NONE', #51, .T. ) ;
#163 =( LENGTH_UNIT ( ) NAMED_UNIT ( * ) SI_UNIT ( $, .METRE. ) );
#164 = ORIENTED_EDGE ( 'NONE', *, *, #43, .T. ) ;
#165 = VERTEX_POINT ( 'NONE', #266 ) ;
#166 =( NAMED_UNIT ( * ) PLANE_ANGLE_UNIT ( ) SI_UNIT ( $, .RADIAN. ) );
#167 = LENGTH_MEASURE_WITH_UNIT ( LENGTH_MEASURE( 0.02539999999999999897 ), #344 );
#168 = VECTOR ( 'NONE', #14, 39.37007874015748143 ) ;
#169 = ORIENTED_EDGE ( 'NONE', *, *, #37, .T. ) ;
#170 = FILL_AREA_STYLE_COLOUR ( '', #75 ) ;
#171 =( GEOMETRIC_REPRESENTATION_CONTEXT ( 3 ) GLOBAL_UNCERTAINTY_ASSIGNED_CONTEXT ( ( #334 ) ) GLOBAL_UNIT_ASSIGNED_CONTEXT ( ( #293, #166, #297 ) ) REPRESENTATION_CONTEXT ( 'NONE', 'WORKASPACE' ) );
#172 = PRESENTATION_STYLE_ASSIGNMENT (( #324 ) ) ;
#173 = CIRCLE ( 'NONE', #109, 0.09374999999999994449 ) ;
#174 = EDGE_CURVE ( 'NONE', #161, #244, #357, .T. ) ;
#175 = SURFACE_STYLE_FILL_AREA ( #153 ) ;
#176 = FACE_OUTER_BOUND ( 'NONE', #248, .T. ) ;
#177 = CIRCLE ( 'NONE', #12, 0.09375000000000002776 ) ;
#178 = AXIS2_PLACEMENT_3D ( 'NONE', #350, #320, #59 ) ;
#179 = DIRECTION ( 'NONE',  ( -1.000000000000000000, 0.000000000000000000, 0.000000000000000000 ) ) ;
#180 = ORIENTED_EDGE ( 'NONE', *, *, #37, .F. ) ;
#181 = CARTESIAN_POINT ( 'NONE',  ( 1.760429773774320220E-16, 0.5625000000000001110, 0.000000000000000000 ) ) ;
#182 = ORIENTED_EDGE ( 'NONE', *, *, #205, .T. ) ;
#183 = MECHANICAL_DESIGN_GEOMETRIC_PRESENTATION_REPRESENTATION (  '', ( #259 ), #234 ) ;
#184 = VECTOR ( 'NONE', #239, 39.37007874015748143 ) ;
#185 = ORIENTED_EDGE ( 'NONE', *, *, #205, .F. ) ;
#186 = UNCERTAINTY_MEASURE_WITH_UNIT (LENGTH_MEASURE( 1.000000000000000082E-05 ), #57, 'distance_accuracy_value', 'NONE');
#187 = CIRCLE ( 'NONE', #87, 0.09375000000000002776 ) ;
#188 = ORIENTED_EDGE ( 'NONE', *, *, #62, .F. ) ;
#189 = ORIENTED_EDGE ( 'NONE', *, *, #130, .F. ) ;
#190 = CARTESIAN_POINT ( 'NONE',  ( 1.148106374200643247E-17, 0.5625000000000000000, 0.09374999999999994449 ) ) ;
#191 = AXIS2_PLACEMENT_3D ( 'NONE', #232, #152, #353 ) ;
#192 =( CONVERSION_BASED_UNIT ( 'INCH', #46 ) LENGTH_UNIT ( ) NAMED_UNIT ( #41 ) );
#193 = DIRECTION ( 'NONE',  ( -0.000000000000000000, -1.000000000000000000, -0.000000000000000000 ) ) ;
#194 = EDGE_CURVE ( 'NONE', #83, #135, #177, .T. ) ;
#195 = SURFACE_SIDE_STYLE ('',( #226 ) ) ;
#196 = ORIENTED_EDGE ( 'NONE', *, *, #373, .F. ) ;
#197 = CARTESIAN_POINT ( 'NONE',  ( 0.000000000000000000, 0.09375000000000004163, 0.000000000000000000 ) ) ;
#198 =( NAMED_UNIT ( * ) SI_UNIT ( $, .STERADIAN. ) SOLID_ANGLE_UNIT ( ) );
#199 = ORIENTED_EDGE ( 'NONE', *, *, #62, .T. ) ;
#200 = ADVANCED_FACE ( 'NONE', ( #233 ), #210, .T. ) ;
#201 = FACE_OUTER_BOUND ( 'NONE', #316, .T. ) ;
#202 = COLOUR_RGB ( '',1.000000000000000000, 0.000000000000000000, 0.000000000000000000 ) ;
#203 = FACE_OUTER_BOUND ( 'NONE', #281, .T. ) ;
#204 = PRESENTATION_STYLE_ASSIGNMENT (( #118 ) ) ;
#205 = EDGE_CURVE ( 'NONE', #165, #314, #268, .T. ) ;
#206 = DIRECTION ( 'NONE',  ( 0.000000000000000000, -0.000000000000000000, 1.000000000000000000 ) ) ;
#207 = FILL_AREA_STYLE ('',( #238 ) ) ;
#208 = AXIS2_PLACEMENT_3D ( 'NONE', #217, #76, #313 ) ;
#209 = AXIS2_PLACEMENT_3D ( 'NONE', #125, #284, #105 ) ;
#210 = CYLINDRICAL_SURFACE ( 'NONE', #247, 0.09374999999999988898 ) ;
#211 = DIRECTION ( 'NONE',  ( 0.000000000000000000, 0.000000000000000000, 1.000000000000000000 ) ) ;
#212 = CARTESIAN_POINT ( 'NONE',  ( 0.000000000000000000, 0.09375000000000004163, 0.000000000000000000 ) ) ;
#213 = CIRCLE ( 'NONE', #208, 0.09375000000000001388 ) ;
#214 = DIRECTION ( 'NONE',  ( 1.000000000000000000, 0.000000000000000000, -1.224646799147353207E-16 ) ) ;
#215 = ORIENTED_EDGE ( 'NONE', *, *, #352, .F. ) ;
#216 = UNCERTAINTY_MEASURE_WITH_UNIT (LENGTH_MEASURE( 1.000000000000000082E-05 ), #192, 'distance_accuracy_value', 'NONE');
#217 = CARTESIAN_POINT ( 'NONE',  ( -6.123233995736766036E-17, 2.500000000000000000, 0.000000000000000000 ) ) ;
#218 = ORIENTED_EDGE ( 'NONE', *, *, #141, .T. ) ;
#219 = DIMENSIONAL_EXPONENTS ( 1.000000000000000000, 0.000000000000000000, 0.000000000000000000, 0.000000000000000000, 0.000000000000000000, 0.000000000000000000, 0.000000000000000000 ) ;
#220 = CARTESIAN_POINT ( 'NONE',  ( 0.000000000000000000, 0.5625000000000000000, 0.000000000000000000 ) ) ;
#221 = DIRECTION ( 'NONE',  ( 1.000000000000000000, 0.000000000000000000, 0.000000000000000000 ) ) ;
#222 = CIRCLE ( 'NONE', #58, 0.09375000000000002776 ) ;
#223 = SPHERICAL_SURFACE ( 'NONE', #31, 0.09375000000000002776 ) ;
#224 = EDGE_CURVE ( 'NONE', #165, #99, #65, .T. ) ;
#225 = SURFACE_SIDE_STYLE ('',( #55 ) ) ;
#226 = SURFACE_STYLE_FILL_AREA ( #287 ) ;
#227 = ORIENTED_EDGE ( 'NONE', *, *, #224, .T. ) ;
#228 = PRESENTATION_STYLE_ASSIGNMENT (( #147 ) ) ;
#229 = VECTOR ( 'NONE', #89, 39.37007874015748143 ) ;
#230 = DIRECTION ( 'NONE',  ( -0.000000000000000000, -1.000000000000000000, -0.000000000000000000 ) ) ;
#231 = SURFACE_SIDE_STYLE ('',( #269 ) ) ;
#232 = CARTESIAN_POINT ( 'NONE',  ( 0.000000000000000000, 0.000000000000000000, 0.000000000000000000 ) ) ;
#233 = FACE_OUTER_BOUND ( 'NONE', #132, .T. ) ;
#234 =( GEOMETRIC_REPRESENTATION_CONTEXT ( 3 ) GLOBAL_UNCERTAINTY_ASSIGNED_CONTEXT ( ( #312 ) ) GLOBAL_UNIT_ASSIGNED_CONTEXT ( ( #36, #327, #13 ) ) REPRESENTATION_CONTEXT ( 'NONE', 'WORKASPACE' ) );
#235 = PLANE ( 'NONE',  #329 ) ;
#236 =( NAMED_UNIT ( * ) PLANE_ANGLE_UNIT ( ) SI_UNIT ( $, .RADIAN. ) );
#237 = CARTESIAN_POINT ( 'NONE',  ( -1.148106374200644017E-17, 0.09375000000000002776, 0.000000000000000000 ) ) ;
#238 = FILL_AREA_STYLE_COLOUR ( '', #96 ) ;
#239 = DIRECTION ( 'NONE',  ( -1.224646799147353207E-16, 1.000000000000000000, -0.000000000000000000 ) ) ;
#240 = STYLED_ITEM ( 'NONE', ( #251 ), #144 ) ;
#241 =( LENGTH_UNIT ( ) NAMED_UNIT ( * ) SI_UNIT ( $, .METRE. ) );
#242 = DIMENSIONAL_EXPONENTS ( 1.000000000000000000, 0.000000000000000000, 0.000000000000000000, 0.000000000000000000, 0.000000000000000000, 0.000000000000000000, 0.000000000000000000 ) ;
#243 = EDGE_LOOP ( 'NONE', ( #48, #199, #189, #180, #337 ) ) ;
#244 = VERTEX_POINT ( 'NONE', #304 ) ;
#245 =( NAMED_UNIT ( * ) PLANE_ANGLE_UNIT ( ) SI_UNIT ( $, .RADIAN. ) );
#246 = APPLICATION_CONTEXT ( 'automotive_design' ) ;
#247 = AXIS2_PLACEMENT_3D ( 'NONE', #361, #362, #154 ) ;
#248 = EDGE_LOOP ( 'NONE', ( #367, #311 ) ) ;
#249 = UNCERTAINTY_MEASURE_WITH_UNIT (LENGTH_MEASURE( 1.000000000000000082E-05 ), #264, 'distance_accuracy_value', 'NONE');
#250 = PLANE ( 'NONE',  #283 ) ;
#251 = PRESENTATION_STYLE_ASSIGNMENT (( #52 ) ) ;
#252 = CARTESIAN_POINT ( 'NONE',  ( 0.09374999999999991673, 2.500000000000000000, 1.148106374200642938E-17 ) ) ;
#253 = PRODUCT ( '12077', '12077', '', ( #88 ) ) ;
#254 = AXIS2_PLACEMENT_3D ( 'NONE', #16, #116, #122 ) ;
#255 = PRODUCT_DEFINITION_FORMATION_WITH_SPECIFIED_SOURCE ( 'ANY', '', #253, .NOT_KNOWN. ) ;
#256 =( NAMED_UNIT ( * ) PLANE_ANGLE_UNIT ( ) SI_UNIT ( $, .RADIAN. ) );
#257 = ORIENTED_EDGE ( 'NONE', *, *, #90, .T. ) ;
#258 = ADVANCED_FACE ( 'NONE', ( #18 ), #355, .T. ) ;
#259 = STYLED_ITEM ( 'NONE', ( #204 ), #157 ) ;
#260 = DIRECTION ( 'NONE',  ( 0.000000000000000000, 1.000000000000000000, 0.000000000000000000 ) ) ;
#261 = DIRECTION ( 'NONE',  ( 0.000000000000000000, 0.000000000000000000, -1.000000000000000000 ) ) ;
#262 = LENGTH_MEASURE_WITH_UNIT ( LENGTH_MEASURE( 0.02539999999999999897 ), #241 );
#263 = PRESENTATION_LAYER_ASSIGNMENT (  '', '', ( #240 ) ) ;
#264 =( CONVERSION_BASED_UNIT ( 'INCH', #302 ) LENGTH_UNIT ( ) NAMED_UNIT ( #219 ) );
#265 = CIRCLE ( 'NONE', #115, 0.09375000000000001388 ) ;
#266 = CARTESIAN_POINT ( 'NONE',  ( -0.09374999999999959754, 0.5625000000000001110, 0.000000000000000000 ) ) ;
#267 = STYLED_ITEM ( 'NONE', ( #228 ), #54 ) ;
#268 = LINE ( 'NONE', #17, #184 ) ;
#269 = SURFACE_STYLE_FILL_AREA ( #207 ) ;
#270 = DIRECTION ( 'NONE',  ( -1.224646799147353207E-16, 1.000000000000000000, -0.000000000000000000 ) ) ;
#271 =( CONVERSION_BASED_UNIT ( 'INCH', #167 ) LENGTH_UNIT ( ) NAMED_UNIT ( #339 ) );
#272 =( GEOMETRIC_REPRESENTATION_CONTEXT ( 3 ) GLOBAL_UNCERTAINTY_ASSIGNED_CONTEXT ( ( #369 ) ) GLOBAL_UNIT_ASSIGNED_CONTEXT ( ( #271, #236, #94 ) ) REPRESENTATION_CONTEXT ( 'NONE', 'WORKASPACE' ) );
#273 =( NAMED_UNIT ( * ) SI_UNIT ( $, .STERADIAN. ) SOLID_ANGLE_UNIT ( ) );
#274 = ADVANCED_BREP_SHAPE_REPRESENTATION ( '12077', ( #157, #144, #178 ), #134 ) ;
#275 = LENGTH_MEASURE_WITH_UNIT ( LENGTH_MEASURE( 0.02539999999999999897 ), #15 );
#276 = DIMENSIONAL_EXPONENTS ( 1.000000000000000000, 0.000000000000000000, 0.000000000000000000, 0.000000000000000000, 0.000000000000000000, 0.000000000000000000, 0.000000000000000000 ) ;
#277 = DIRECTION ( 'NONE',  ( -0.000000000000000000, -1.000000000000000000, -0.000000000000000000 ) ) ;
#278 = ORIENTED_EDGE ( 'NONE', *, *, #352, .T. ) ;
#279 = UNCERTAINTY_MEASURE_WITH_UNIT (LENGTH_MEASURE( 1.000000000000000082E-05 ), #108, 'distance_accuracy_value', 'NONE');
#280 = DIRECTION ( 'NONE',  ( -1.000000000000000000, 0.000000000000000000, 0.000000000000000000 ) ) ;
#281 = EDGE_LOOP ( 'NONE', ( #127, #340 ) ) ;
#282 = FILL_AREA_STYLE_COLOUR ( '', #91 ) ;
#283 = AXIS2_PLACEMENT_3D ( 'NONE', #101, #336, #79 ) ;
#284 = DIRECTION ( 'NONE',  ( -1.224646799147353207E-16, 1.000000000000000000, -0.000000000000000000 ) ) ;
#285 = PRODUCT_DEFINITION_SHAPE ( 'NONE', 'NONE',  #5 ) ;
#286 = VERTEX_POINT ( 'NONE', #142 ) ;
#287 = FILL_AREA_STYLE ('',( #111 ) ) ;
#288 =( NAMED_UNIT ( * ) SI_UNIT ( $, .STERADIAN. ) SOLID_ANGLE_UNIT ( ) );
#289 =( GEOMETRIC_REPRESENTATION_CONTEXT ( 3 ) GLOBAL_UNCERTAINTY_ASSIGNED_CONTEXT ( ( #133 ) ) GLOBAL_UNIT_ASSIGNED_CONTEXT ( ( #335, #20, #372 ) ) REPRESENTATION_CONTEXT ( 'NONE', 'WORKASPACE' ) );
#290 = PRESENTATION_STYLE_ASSIGNMENT (( #56 ) ) ;
#291 =( NAMED_UNIT ( * ) PLANE_ANGLE_UNIT ( ) SI_UNIT ( $, .RADIAN. ) );
#292 = EDGE_CURVE ( 'NONE', #346, #161, #173, .T. ) ;
#293 =( CONVERSION_BASED_UNIT ( 'INCH', #63 ) LENGTH_UNIT ( ) NAMED_UNIT ( #310 ) );
#294 = ORIENTED_EDGE ( 'NONE', *, *, #373, .T. ) ;
#295 = CIRCLE ( 'NONE', #8, 0.09374999999999976408 ) ;
#296 = VECTOR ( 'NONE', #137, 39.37007874015748143 ) ;
#297 =( NAMED_UNIT ( * ) SI_UNIT ( $, .STERADIAN. ) SOLID_ANGLE_UNIT ( ) );
#298 =( LENGTH_UNIT ( ) NAMED_UNIT ( * ) SI_UNIT ( $, .METRE. ) );
#299 = DIRECTION ( 'NONE',  ( -0.000000000000000000, -1.000000000000000000, -0.000000000000000000 ) ) ;
#300 = CIRCLE ( 'NONE', #158, 0.09375000000000002776 ) ;
#301 = CARTESIAN_POINT ( 'NONE',  ( 0.09375000000000002776, 0.09375000000000004163, 0.000000000000000000 ) ) ;
#302 = LENGTH_MEASURE_WITH_UNIT ( LENGTH_MEASURE( 0.02539999999999999897 ), #298 );
#303 = VERTEX_POINT ( 'NONE', #252 ) ;
#304 = CARTESIAN_POINT ( 'NONE',  ( 0.000000000000000000, 0.09375000000000004163, -0.09375000000000002776 ) ) ;
#305 =( GEOMETRIC_REPRESENTATION_CONTEXT ( 3 ) GLOBAL_UNCERTAINTY_ASSIGNED_CONTEXT ( ( #249 ) ) GLOBAL_UNIT_ASSIGNED_CONTEXT ( ( #264, #95, #359 ) ) REPRESENTATION_CONTEXT ( 'NONE', 'WORKASPACE' ) );
#306 = ORIENTED_EDGE ( 'NONE', *, *, #141, .F. ) ;
#307 = DIRECTION ( 'NONE',  ( -1.224646799147353207E-16, 1.000000000000000000, -0.000000000000000000 ) ) ;
#308 = SPHERICAL_SURFACE ( 'NONE', #80, 0.09375000000000002776 ) ;
#309 = PRODUCT_DEFINITION_CONTEXT ( 'detailed design', #246, 'design' ) ;
#310 = DIMENSIONAL_EXPONENTS ( 1.000000000000000000, 0.000000000000000000, 0.000000000000000000, 0.000000000000000000, 0.000000000000000000, 0.000000000000000000, 0.000000000000000000 ) ;
#311 = ORIENTED_EDGE ( 'NONE', *, *, #90, .F. ) ;
#312 = UNCERTAINTY_MEASURE_WITH_UNIT (LENGTH_MEASURE( 1.000000000000000082E-05 ), #36, 'distance_accuracy_value', 'NONE');
#313 = DIRECTION ( 'NONE',  ( -1.000000000000000000, 0.000000000000000000, 0.000000000000000000 ) ) ;
#314 = VERTEX_POINT ( 'NONE', #341 ) ;
#315 = CARTESIAN_POINT ( 'NONE',  ( -6.123233995736766036E-17, 2.500000000000000000, 0.000000000000000000 ) ) ;
#316 = EDGE_LOOP ( 'NONE', ( #164, #347, #330, #365 ) ) ;
#317 = LENGTH_MEASURE_WITH_UNIT ( LENGTH_MEASURE( 0.02539999999999999897 ), #53 );
#318 = STYLED_ITEM ( 'NONE', ( #172 ), #113 ) ;
#319 = CARTESIAN_POINT ( 'NONE',  ( 0.000000000000000000, 0.09375000000000004163, 0.000000000000000000 ) ) ;
#320 = DIRECTION ( 'NONE',  ( 0.000000000000000000, 0.000000000000000000, 1.000000000000000000 ) ) ;
#321 = MECHANICAL_DESIGN_GEOMETRIC_PRESENTATION_REPRESENTATION (  '', ( #267 ), #171 ) ;
#322 = CYLINDRICAL_SURFACE ( 'NONE', #191, 0.09374999999999998612 ) ;
#323 = SHAPE_DEFINITION_REPRESENTATION ( #285, #274 ) ;
#324 = SURFACE_STYLE_USAGE ( .BOTH. , #231 ) ;
#325 = CIRCLE ( 'NONE', #368, 0.09374999999999994449 ) ;
#326 = SURFACE_STYLE_USAGE ( .BOTH. , #151 ) ;
#327 =( NAMED_UNIT ( * ) PLANE_ANGLE_UNIT ( ) SI_UNIT ( $, .RADIAN. ) );
#328 = CARTESIAN_POINT ( 'NONE',  ( 1.760429773774320220E-16, 0.5625000000000001110, 0.000000000000000000 ) ) ;
#329 = AXIS2_PLACEMENT_3D ( 'NONE', #155, #260, #206 ) ;
#330 = ORIENTED_EDGE ( 'NONE', *, *, #194, .F. ) ;
#331 = DIRECTION ( 'NONE',  ( 0.000000000000000000, 0.000000000000000000, -1.000000000000000000 ) ) ;
#332 = CARTESIAN_POINT ( 'NONE',  ( 0.000000000000000000, 0.000000000000000000, -0.09374999999999998612 ) ) ;
#333 = ORIENTED_EDGE ( 'NONE', *, *, #364, .F. ) ;
#334 = UNCERTAINTY_MEASURE_WITH_UNIT (LENGTH_MEASURE( 1.000000000000000082E-05 ), #293, 'distance_accuracy_value', 'NONE');
#335 =( CONVERSION_BASED_UNIT ( 'INCH', #275 ) LENGTH_UNIT ( ) NAMED_UNIT ( #242 ) );
#336 = DIRECTION ( 'NONE',  ( 1.224646799147353207E-16, -1.000000000000000000, 0.000000000000000000 ) ) ;
#337 = ORIENTED_EDGE ( 'NONE', *, *, #174, .F. ) ;
#338 = PRESENTATION_LAYER_ASSIGNMENT (  '', '', ( #358 ) ) ;
#339 = DIMENSIONAL_EXPONENTS ( 1.000000000000000000, 0.000000000000000000, 0.000000000000000000, 0.000000000000000000, 0.000000000000000000, 0.000000000000000000, 0.000000000000000000 ) ;
#340 = ORIENTED_EDGE ( 'NONE', *, *, #292, .F. ) ;
#341 = CARTESIAN_POINT ( 'NONE',  ( -0.09375000000000006939, 2.500000000000000000, 0.000000000000000000 ) ) ;
#342 = CARTESIAN_POINT ( 'NONE',  ( 0.000000000000000000, 0.000000000000000000, 0.000000000000000000 ) ) ;
#343 = SURFACE_STYLE_USAGE ( .BOTH. , #225 ) ;
#344 =( LENGTH_UNIT ( ) NAMED_UNIT ( * ) SI_UNIT ( $, .METRE. ) );
#345 = CLOSED_SHELL ( 'NONE', ( #258, #107, #200, #360 ) ) ;
#346 = VERTEX_POINT ( 'NONE', #190 ) ;
#347 = ORIENTED_EDGE ( 'NONE', *, *, #364, .T. ) ;
#348 = PRESENTATION_LAYER_ASSIGNMENT (  '', '', ( #50 ) ) ;
#349 = FACE_OUTER_BOUND ( 'NONE', #143, .T. ) ;
#350 = CARTESIAN_POINT ( 'NONE',  ( 0.000000000000000000, 0.000000000000000000, 0.000000000000000000 ) ) ;
#351 = LINE ( 'NONE', #35, #229 ) ;
#352 = EDGE_CURVE ( 'NONE', #99, #303, #77, .T. ) ;
#353 = DIRECTION ( 'NONE',  ( 0.000000000000000000, 0.000000000000000000, -1.000000000000000000 ) ) ;
#354 = MECHANICAL_DESIGN_GEOMETRIC_PRESENTATION_REPRESENTATION (  '', ( #240 ), #272 ) ;
#355 = CYLINDRICAL_SURFACE ( 'NONE', #209, 0.09374999999999988898 ) ;
#356 = CARTESIAN_POINT ( 'NONE',  ( 0.09374999999999991673, 0.5625000000000001110, 1.148106374200642938E-17 ) ) ;
#357 = LINE ( 'NONE', #332, #168 ) ;
#358 = STYLED_ITEM ( 'NONE', ( #30 ), #47 ) ;
#359 =( NAMED_UNIT ( * ) SI_UNIT ( $, .STERADIAN. ) SOLID_ANGLE_UNIT ( ) );
#360 = ADVANCED_FACE ( 'NONE', ( #162 ), #250, .F. ) ;
#361 = CARTESIAN_POINT ( 'NONE',  ( -6.123233995736766036E-17, 2.500000000000000000, 0.000000000000000000 ) ) ;
#362 = DIRECTION ( 'NONE',  ( -1.224646799147353207E-16, 1.000000000000000000, -0.000000000000000000 ) ) ;
#363 = DIRECTION ( 'NONE',  ( 0.000000000000000000, 0.000000000000000000, -1.000000000000000000 ) ) ;
#364 = EDGE_CURVE ( 'NONE', #78, #135, #126, .T. ) ;
#365 = ORIENTED_EDGE ( 'NONE', *, *, #130, .T. ) ;
#366 = APPLICATION_PROTOCOL_DEFINITION ( 'draft international standard', 'automotive_design', 1998, #6 ) ;
#367 = ORIENTED_EDGE ( 'NONE', *, *, #224, .F. ) ;
#368 = AXIS2_PLACEMENT_3D ( 'NONE', #49, #72, #261 ) ;
#369 = UNCERTAINTY_MEASURE_WITH_UNIT (LENGTH_MEASURE( 1.000000000000000082E-05 ), #271, 'distance_accuracy_value', 'NONE');
#370 = DIRECTION ( 'NONE',  ( 0.000000000000000000, 0.000000000000000000, -1.000000000000000000 ) ) ;
#371 = ORIENTED_EDGE ( 'NONE', *, *, #150, .F. ) ;
#372 =( NAMED_UNIT ( * ) SI_UNIT ( $, .STERADIAN. ) SOLID_ANGLE_UNIT ( ) );
#373 = EDGE_CURVE ( 'NONE', #303, #314, #265, .T. ) ;
ENDSEC;
END-ISO-10303-21;
