ISO-10303-21;
HEADER;
FILE_DESCRIPTION (( 'STEP AP214' ),
    '1' );
FILE_NAME ('Micro_DR-031-2.STEP',
    '2021-09-01T15:31:07',
    ( '' ),
    ( '' ),
    'SwSTEP 2.0',
    'SolidWorks 2020',
    '' );
FILE_SCHEMA (( 'AUTOMOTIVE_DESIGN' ));
ENDSEC;

DATA;
#1 = FILL_AREA_STYLE_COLOUR ( '', #320 ) ;
#2 = ADVANCED_FACE ( 'NONE', ( #42 ), #263, .T. ) ;
#3 = CIRCLE ( 'NONE', #179, 0.01555000000000053735 ) ;
#4 =( GEOMETRIC_REPRESENTATION_CONTEXT ( 3 ) GLOBAL_UNCERTAINTY_ASSIGNED_CONTEXT ( ( #155 ) ) GLOBAL_UNIT_ASSIGNED_CONTEXT ( ( #97, #178, #296 ) ) REPRESENTATION_CONTEXT ( 'NONE', 'WORKASPACE' ) );
#5 = EDGE_CURVE ( 'NONE', #7, #27, #241, .T. ) ;
#6 =( CONVERSION_BASED_UNIT ( 'INCH', #208 ) LENGTH_UNIT ( ) NAMED_UNIT ( #86 ) );
#7 = VERTEX_POINT ( 'NONE', #215 ) ;
#8 =( NAMED_UNIT ( * ) SI_UNIT ( $, .STERADIAN. ) SOLID_ANGLE_UNIT ( ) );
#9 = ORIENTED_EDGE ( 'NONE', *, *, #93, .F. ) ;
#10 = AXIS2_PLACEMENT_3D ( 'NONE', #309, #130, #233 ) ;
#11 = DIRECTION ( 'NONE',  ( -0.0000000000000000000, -0.0000000000000000000, 1.000000000000000000 ) ) ;
#12 = EDGE_LOOP ( 'NONE', ( #234, #50, #190, #187 ) ) ;
#13 = DIRECTION ( 'NONE',  ( -0.7071067811865483499, 0.0000000000000000000, -0.7071067811865467956 ) ) ;
#14 = ORIENTED_EDGE ( 'NONE', *, *, #43, .F. ) ;
#15 = CARTESIAN_POINT ( 'NONE',  ( 0.0000000000000000000, 0.0000000000000000000, 39.37007874015748143 ) ) ;
#16 = DIRECTION ( 'NONE',  ( 1.000000000000000000, 0.0000000000000000000, 0.0000000000000000000 ) ) ;
#17 = DIRECTION ( 'NONE',  ( 0.0000000000000000000, 0.0000000000000000000, -1.000000000000000000 ) ) ;
#18 = CARTESIAN_POINT ( 'NONE',  ( 0.01559999999999999928, 1.910449006669871164E-18, 1.235000000000000098 ) ) ;
#19 =( NAMED_UNIT ( * ) PLANE_ANGLE_UNIT ( ) SI_UNIT ( $, .RADIAN. ) );
#20 = CARTESIAN_POINT ( 'NONE',  ( 0.0000000000000000000, 0.0000000000000000000, 1.235000000000000098 ) ) ;
#21 = ADVANCED_BREP_SHAPE_REPRESENTATION ( 'Micro_DR-031-2', ( #151, #226 ), #308 ) ;
#22 = CIRCLE ( 'NONE', #232, 0.01555000000000053735 ) ;
#23 = ADVANCED_FACE ( 'NONE', ( #143 ), #156, .T. ) ;
#24 = STYLED_ITEM ( 'NONE', ( #79 ), #151 ) ;
#25 = VERTEX_POINT ( 'NONE', #314 ) ;
#26 = DIRECTION ( 'NONE',  ( -0.8571673007021157753, 1.049727191138622886E-16, 0.5150380749100483824 ) ) ;
#27 = VERTEX_POINT ( 'NONE', #168 ) ;
#28 = EDGE_CURVE ( 'NONE', #259, #131, #170, .T. ) ;
#29 = SURFACE_STYLE_USAGE ( .BOTH. , #108 ) ;
#30 = ORIENTED_EDGE ( 'NONE', *, *, #5, .F. ) ;
#31 = VECTOR ( 'NONE', #291, 39.37007874015748143 ) ;
#32 = CARTESIAN_POINT ( 'NONE',  ( -0.01559999999999999928, 0.0000000000000000000, 0.5000866025403776227 ) ) ;
#33 = ORIENTED_EDGE ( 'NONE', *, *, #83, .F. ) ;
#34 = MECHANICAL_DESIGN_GEOMETRIC_PRESENTATION_REPRESENTATION (  '', ( #24 ), #275 ) ;
#35 = ORIENTED_EDGE ( 'NONE', *, *, #148, .T. ) ;
#36 = FACE_OUTER_BOUND ( 'NONE', #12, .T. ) ;
#37 = CARTESIAN_POINT ( 'NONE',  ( 0.01559999999999999928, 1.910449006669871164E-18, 1.250000000000000000 ) ) ;
#38 = DIRECTION ( 'NONE',  ( -0.0000000000000000000, -0.0000000000000000000, 1.000000000000000000 ) ) ;
#39 = LINE ( 'NONE', #169, #279 ) ;
#40 = CARTESIAN_POINT ( 'NONE',  ( 0.0000000000000000000, 0.0000000000000000000, 1.250000000000000000 ) ) ;
#41 = DIRECTION ( 'NONE',  ( 1.000000000000000000, 0.0000000000000000000, 0.0000000000000000000 ) ) ;
#42 = FACE_OUTER_BOUND ( 'NONE', #127, .T. ) ;
#43 = EDGE_CURVE ( 'NONE', #158, #131, #184, .T. ) ;
#44 = ADVANCED_FACE ( 'NONE', ( #260 ), #116, .T. ) ;
#45 = SURFACE_STYLE_USAGE ( .BOTH. , #94 ) ;
#46 = AXIS2_PLACEMENT_3D ( 'NONE', #60, #287, #269 ) ;
#47 = CYLINDRICAL_SURFACE ( 'NONE', #66, 0.01555000000000036388 ) ;
#48 = ORIENTED_EDGE ( 'NONE', *, *, #43, .T. ) ;
#49 = LINE ( 'NONE', #276, #75 ) ;
#50 = ORIENTED_EDGE ( 'NONE', *, *, #288, .T. ) ;
#51 = AXIS2_PLACEMENT_3D ( 'NONE', #40, #194, #138 ) ;
#52 = CARTESIAN_POINT ( 'NONE',  ( 0.0005999999999999902980, 9.919639073093555961E-19, 1.250000000000000000 ) ) ;
#53 = ORIENTED_EDGE ( 'NONE', *, *, #253, .T. ) ;
#54 = CARTESIAN_POINT ( 'NONE',  ( 0.0000000000000000000, 0.0000000000000000000, 1.235000000000000098 ) ) ;
#55 = ORIENTED_EDGE ( 'NONE', *, *, #210, .T. ) ;
#56 = CARTESIAN_POINT ( 'NONE',  ( 0.0005999999999999902980, 7.347880794884000417E-20, 1.250000000000000000 ) ) ;
#57 = VERTEX_POINT ( 'NONE', #18 ) ;
#58 = CARTESIAN_POINT ( 'NONE',  ( 0.0000000000000000000, 0.0000000000000000000, 1.250000000000000000 ) ) ;
#59 = DIRECTION ( 'NONE',  ( 1.000000000000000000, 0.0000000000000000000, 0.0000000000000000000 ) ) ;
#60 = CARTESIAN_POINT ( 'NONE',  ( 0.0000000000000000000, 0.0000000000000000000, 1.250000000000000000 ) ) ;
#61 = DIRECTION ( 'NONE',  ( -0.0000000000000000000, -0.0000000000000000000, 1.000000000000000000 ) ) ;
#62 = LINE ( 'NONE', #37, #31 ) ;
#63 = DIRECTION ( 'NONE',  ( 1.000000000000000000, 0.0000000000000000000, 0.0000000000000000000 ) ) ;
#64 = AXIS2_PLACEMENT_3D ( 'NONE', #238, #289, #88 ) ;
#65 = PRODUCT_CONTEXT ( 'NONE', #246, 'mechanical' ) ;
#66 = AXIS2_PLACEMENT_3D ( 'NONE', #54, #249, #227 ) ;
#67 = DIMENSIONAL_EXPONENTS ( 1.000000000000000000, 0.0000000000000000000, 0.0000000000000000000, 0.0000000000000000000, 0.0000000000000000000, 0.0000000000000000000, 0.0000000000000000000 ) ;
#68 = CARTESIAN_POINT ( 'NONE',  ( -0.01559999999999999928, 0.0000000000000000000, 1.235000000000000098 ) ) ;
#69 = DIRECTION ( 'NONE',  ( 0.4999999999999975575, 0.0000000000000000000, 0.8660254037844400399 ) ) ;
#70 = APPLICATION_PROTOCOL_DEFINITION ( 'draft international standard', 'automotive_design', 1998, #146 ) ;
#71 = ADVANCED_FACE ( 'NONE', ( #36 ), #166, .T. ) ;
#72 = VECTOR ( 'NONE', #95, 39.37007874015748143 ) ;
#73 = PRODUCT_RELATED_PRODUCT_CATEGORY ( 'part', '', ( #247 ) ) ;
#74 = AXIS2_PLACEMENT_3D ( 'NONE', #175, #38, #59 ) ;
#75 = VECTOR ( 'NONE', #13, 39.37007874015748143 ) ;
#76 = EDGE_CURVE ( 'NONE', #236, #7, #265, .T. ) ;
#77 = ORIENTED_EDGE ( 'NONE', *, *, #210, .F. ) ;
#78 = PRODUCT_DEFINITION_CONTEXT ( 'detailed design', #146, 'design' ) ;
#79 = PRESENTATION_STYLE_ASSIGNMENT (( #29 ) ) ;
#80 = ORIENTED_EDGE ( 'NONE', *, *, #98, .T. ) ;
#81 = CARTESIAN_POINT ( 'NONE',  ( 0.0000000000000000000, 0.0000000000000000000, 0.0000000000000000000 ) ) ;
#82 = ORIENTED_EDGE ( 'NONE', *, *, #261, .T. ) ;
#83 = EDGE_CURVE ( 'NONE', #319, #158, #270, .T. ) ;
#84 = ORIENTED_EDGE ( 'NONE', *, *, #93, .T. ) ;
#85 = EDGE_LOOP ( 'NONE', ( #278, #82, #305, #103 ) ) ;
#86 = DIMENSIONAL_EXPONENTS ( 1.000000000000000000, 0.0000000000000000000, 0.0000000000000000000, 0.0000000000000000000, 0.0000000000000000000, 0.0000000000000000000, 0.0000000000000000000 ) ;
#87 =( LENGTH_UNIT ( ) NAMED_UNIT ( * ) SI_UNIT ( $, .METRE. ) );
#88 = DIRECTION ( 'NONE',  ( -1.000000000000000000, 0.0000000000000000000, 0.0000000000000000000 ) ) ;
#89 = CARTESIAN_POINT ( 'NONE',  ( 0.0000000000000000000, 0.0000000000000000000, 0.5000000000000001110 ) ) ;
#90 = DIRECTION ( 'NONE',  ( -0.0000000000000000000, -0.0000000000000000000, 1.000000000000000000 ) ) ;
#91 = FACE_OUTER_BOUND ( 'NONE', #85, .T. ) ;
#92 = CARTESIAN_POINT ( 'NONE',  ( 0.0000000000000000000, 0.0000000000000000000, 0.009343382625878535533 ) ) ;
#93 = EDGE_CURVE ( 'NONE', #57, #319, #202, .T. ) ;
#94 = SURFACE_SIDE_STYLE ('',( #222 ) ) ;
#95 = DIRECTION ( 'NONE',  ( -0.0000000000000000000, -0.0000000000000000000, -1.000000000000000000 ) ) ;
#96 = PRESENTATION_LAYER_ASSIGNMENT (  '', '', ( #24 ) ) ;
#97 =( CONVERSION_BASED_UNIT ( 'INCH', #245 ) LENGTH_UNIT ( ) NAMED_UNIT ( #67 ) );
#98 = EDGE_CURVE ( 'NONE', #255, #236, #196, .T. ) ;
#99 = CONICAL_SURFACE ( 'NONE', #150, 0.0005999999999999902980, 0.7853981633974492782 ) ;
#100 = AXIS2_PLACEMENT_3D ( 'NONE', #115, #220, #136 ) ;
#101 = AXIS2_PLACEMENT_3D ( 'NONE', #258, #216, #191 ) ;
#102 = CARTESIAN_POINT ( 'NONE',  ( 0.01555000000000019041, 0.0000000000000000000, 0.009343382625878535533 ) ) ;
#103 = ORIENTED_EDGE ( 'NONE', *, *, #201, .F. ) ;
#104 = LINE ( 'NONE', #284, #267 ) ;
#105 = ORIENTED_EDGE ( 'NONE', *, *, #5, .T. ) ;
#106 = LINE ( 'NONE', #133, #286 ) ;
#107 = COLOUR_RGB ( '',0.7921568627450980005, 0.8196078431372548767, 0.9333333333333333481 ) ;
#108 = SURFACE_SIDE_STYLE ('',( #110 ) ) ;
#109 = ORIENTED_EDGE ( 'NONE', *, *, #98, .F. ) ;
#110 = SURFACE_STYLE_FILL_AREA ( #256 ) ;
#111 = PLANE ( 'NONE',  #46 ) ;
#112 = CARTESIAN_POINT ( 'NONE',  ( 0.0000000000000000000, 0.0000000000000000000, 0.0000000000000000000 ) ) ;
#113 = VECTOR ( 'NONE', #217, 39.37007874015748143 ) ;
#114 = DIRECTION ( 'NONE',  ( -1.000000000000000000, 0.0000000000000000000, 0.0000000000000000000 ) ) ;
#115 = CARTESIAN_POINT ( 'NONE',  ( 0.0000000000000000000, 0.0000000000000000000, 0.5000000000000001110 ) ) ;
#116 = CYLINDRICAL_SURFACE ( 'NONE', #51, 0.01559999999999999928 ) ;
#117 =( LENGTH_UNIT ( ) NAMED_UNIT ( * ) SI_UNIT ( $, .METRE. ) );
#118 = DIRECTION ( 'NONE',  ( 0.0000000000000000000, 0.0000000000000000000, 1.000000000000000000 ) ) ;
#119 = CONICAL_SURFACE ( 'NONE', #224, 65.52281426576944057, 1.029744258676661195 ) ;
#120 = CARTESIAN_POINT ( 'NONE',  ( 0.0000000000000000000, 0.0000000000000000000, 0.0000000000000000000 ) ) ;
#121 = CONICAL_SURFACE ( 'NONE', #302, 0.0005999999999999902980, 0.7853981633974492782 ) ;
#122 = PRODUCT_DEFINITION ( 'UNKNOWN', '', #273, #78 ) ;
#123 = AXIS2_PLACEMENT_3D ( 'NONE', #294, #298, #317 ) ;
#124 = DIRECTION ( 'NONE',  ( 1.000000000000000000, 0.0000000000000000000, 0.0000000000000000000 ) ) ;
#125 = EDGE_LOOP ( 'NONE', ( #109, #281, #283 ) ) ;
#126 = CARTESIAN_POINT ( 'NONE',  ( 0.0000000000000000000, 0.0000000000000000000, 1.235000000000000098 ) ) ;
#127 = EDGE_LOOP ( 'NONE', ( #129, #310, #204, #33 ) ) ;
#128 =( LENGTH_UNIT ( ) NAMED_UNIT ( * ) SI_UNIT ( $, .METRE. ) );
#129 = ORIENTED_EDGE ( 'NONE', *, *, #149, .T. ) ;
#130 = DIRECTION ( 'NONE',  ( 0.0000000000000000000, 0.0000000000000000000, 1.000000000000000000 ) ) ;
#131 = VERTEX_POINT ( 'NONE', #198 ) ;
#132 = CIRCLE ( 'NONE', #152, 0.0005999999999999902980 ) ;
#133 = CARTESIAN_POINT ( 'NONE',  ( 0.01555000000000036388, 0.0000000000000000000, 1.235000000000000098 ) ) ;
#134 = EDGE_LOOP ( 'NONE', ( #230, #228, #285, #9 ) ) ;
#135 =( NAMED_UNIT ( * ) SI_UNIT ( $, .STERADIAN. ) SOLID_ANGLE_UNIT ( ) );
#136 = DIRECTION ( 'NONE',  ( 1.000000000000000000, 0.0000000000000000000, 0.0000000000000000000 ) ) ;
#137 = FACE_OUTER_BOUND ( 'NONE', #134, .T. ) ;
#138 = DIRECTION ( 'NONE',  ( -1.000000000000000000, 0.0000000000000000000, 0.0000000000000000000 ) ) ;
#139 = VECTOR ( 'NONE', #61, 39.37007874015748143 ) ;
#140 = VECTOR ( 'NONE', #163, 39.37007874015748143 ) ;
#141 = ADVANCED_FACE ( 'NONE', ( #266 ), #235, .T. ) ;
#142 = DIRECTION ( 'NONE',  ( -1.000000000000000000, 0.0000000000000000000, 0.0000000000000000000 ) ) ;
#143 = FACE_OUTER_BOUND ( 'NONE', #292, .T. ) ;
#144 = DIRECTION ( 'NONE',  ( -0.0000000000000000000, -0.0000000000000000000, 1.000000000000000000 ) ) ;
#145 = CARTESIAN_POINT ( 'NONE',  ( -0.01555000000000036388, 1.904325772674178631E-18, 1.235000000000000098 ) ) ;
#146 = APPLICATION_CONTEXT ( 'automotive_design' ) ;
#147 = CIRCLE ( 'NONE', #185, 0.01559999999999999928 ) ;
#148 = EDGE_CURVE ( 'NONE', #236, #259, #106, .T. ) ;
#149 = EDGE_CURVE ( 'NONE', #319, #57, #147, .T. ) ;
#150 = AXIS2_PLACEMENT_3D ( 'NONE', #195, #262, #142 ) ;
#151 = MANIFOLD_SOLID_BREP ( 'Cut-Revolve1', #223 ) ;
#152 = AXIS2_PLACEMENT_3D ( 'NONE', #161, #203, #306 ) ;
#153 = DIRECTION ( 'NONE',  ( 0.0000000000000000000, 0.0000000000000000000, -1.000000000000000000 ) ) ;
#154 = ORIENTED_EDGE ( 'NONE', *, *, #288, .F. ) ;
#155 = UNCERTAINTY_MEASURE_WITH_UNIT (LENGTH_MEASURE( 1.000000000000000082E-05 ), #97, 'distance_accuracy_value', 'NONE');
#156 = CONICAL_SURFACE ( 'NONE', #123, 65.52281426576944057, 1.029744258676661195 ) ;
#157 = DIRECTION ( 'NONE',  ( 1.000000000000000000, 0.0000000000000000000, 0.0000000000000000000 ) ) ;
#158 = VERTEX_POINT ( 'NONE', #32 ) ;
#159 = CARTESIAN_POINT ( 'NONE',  ( 0.01555000000000053735, 0.0000000000000000000, 0.5000000000000001110 ) ) ;
#160 = ORIENTED_EDGE ( 'NONE', *, *, #300, .F. ) ;
#161 = CARTESIAN_POINT ( 'NONE',  ( 0.0000000000000000000, 0.0000000000000000000, 1.250000000000000000 ) ) ;
#162 = ORIENTED_EDGE ( 'NONE', *, *, #323, .F. ) ;
#163 = DIRECTION ( 'NONE',  ( 0.7071067811865483499, 8.659560562354943952E-17, -0.7071067811865467956 ) ) ;
#164 = EDGE_CURVE ( 'NONE', #255, #7, #104, .T. ) ;
#165 = ORIENTED_EDGE ( 'NONE', *, *, #76, .T. ) ;
#166 = CONICAL_SURFACE ( 'NONE', #100, 0.01555000000000053735, 0.5235987755982960401 ) ;
#167 = FACE_OUTER_BOUND ( 'NONE', #125, .T. ) ;
#168 = CARTESIAN_POINT ( 'NONE',  ( -0.01555000000000053735, 1.907387389672034912E-18, 0.5000000000000001110 ) ) ;
#169 = CARTESIAN_POINT ( 'NONE',  ( -0.01555000000000053735, 1.904325772674200201E-18, 0.5000000000000001110 ) ) ;
#170 = LINE ( 'NONE', #321, #231 ) ;
#171 = ORIENTED_EDGE ( 'NONE', *, *, #164, .F. ) ;
#172 = CIRCLE ( 'NONE', #10, 0.0005999999999999902980 ) ;
#173 = FILL_AREA_STYLE ('',( #1 ) ) ;
#174 =( CONVERSION_BASED_UNIT ( 'INCH', #264 ) LENGTH_UNIT ( ) NAMED_UNIT ( #214 ) );
#175 = CARTESIAN_POINT ( 'NONE',  ( 0.0000000000000000000, 0.0000000000000000000, 0.5000866025403776227 ) ) ;
#176 = APPLICATION_PROTOCOL_DEFINITION ( 'draft international standard', 'automotive_design', 1998, #246 ) ;
#177 = AXIS2_PLACEMENT_3D ( 'NONE', #92, #90, #63 ) ;
#178 =( NAMED_UNIT ( * ) PLANE_ANGLE_UNIT ( ) SI_UNIT ( $, .RADIAN. ) );
#179 = AXIS2_PLACEMENT_3D ( 'NONE', #242, #297, #41 ) ;
#180 = UNCERTAINTY_MEASURE_WITH_UNIT (LENGTH_MEASURE( 1.000000000000000082E-05 ), #174, 'distance_accuracy_value', 'NONE');
#181 = FACE_OUTER_BOUND ( 'NONE', #209, .T. ) ;
#182 = EDGE_LOOP ( 'NONE', ( #212, #53 ) ) ;
#183 = VERTEX_POINT ( 'NONE', #52 ) ;
#184 = CIRCLE ( 'NONE', #74, 0.01559999999999999928 ) ;
#185 = AXIS2_PLACEMENT_3D ( 'NONE', #126, #153, #157 ) ;
#186 = CARTESIAN_POINT ( 'NONE',  ( 0.0000000000000000000, 0.0000000000000000000, 1.235000000000000098 ) ) ;
#187 = ORIENTED_EDGE ( 'NONE', *, *, #28, .F. ) ;
#188 = EDGE_CURVE ( 'NONE', #27, #259, #22, .T. ) ;
#189 = DIRECTION ( 'NONE',  ( 1.000000000000000000, 0.0000000000000000000, 0.0000000000000000000 ) ) ;
#190 = ORIENTED_EDGE ( 'NONE', *, *, #268, .F. ) ;
#191 = DIRECTION ( 'NONE',  ( 1.000000000000000000, 0.0000000000000000000, 0.0000000000000000000 ) ) ;
#192 = EDGE_LOOP ( 'NONE', ( #165, #105, #160, #206 ) ) ;
#193 = FACE_OUTER_BOUND ( 'NONE', #252, .T. ) ;
#194 = DIRECTION ( 'NONE',  ( -0.0000000000000000000, -0.0000000000000000000, -1.000000000000000000 ) ) ;
#195 = CARTESIAN_POINT ( 'NONE',  ( 0.0000000000000000000, 0.0000000000000000000, 1.250000000000000000 ) ) ;
#196 = LINE ( 'NONE', #112, #113 ) ;
#197 = DIRECTION ( 'NONE',  ( -0.4999999999999975575, 6.123233995736736454E-17, 0.8660254037844400399 ) ) ;
#198 = CARTESIAN_POINT ( 'NONE',  ( 0.01559999999999999928, 1.910449006669871164E-18, 0.5000866025403776227 ) ) ;
#199 = CIRCLE ( 'NONE', #101, 0.01559999999999999928 ) ;
#200 = SHAPE_DEFINITION_REPRESENTATION ( #244, #21 ) ;
#201 = EDGE_CURVE ( 'NONE', #25, #319, #49, .T. ) ;
#202 = CIRCLE ( 'NONE', #218, 0.01559999999999999928 ) ;
#203 = DIRECTION ( 'NONE',  ( 0.0000000000000000000, 0.0000000000000000000, 1.000000000000000000 ) ) ;
#204 = ORIENTED_EDGE ( 'NONE', *, *, #268, .T. ) ;
#205 = DIRECTION ( 'NONE',  ( -0.0000000000000000000, -0.0000000000000000000, 1.000000000000000000 ) ) ;
#206 = ORIENTED_EDGE ( 'NONE', *, *, #148, .F. ) ;
#207 = AXIS2_PLACEMENT_3D ( 'NONE', #186, #254, #124 ) ;
#208 = LENGTH_MEASURE_WITH_UNIT ( LENGTH_MEASURE( 0.02539999999999999897 ), #128 );
#209 = EDGE_LOOP ( 'NONE', ( #30, #55, #35, #307 ) ) ;
#210 = EDGE_CURVE ( 'NONE', #7, #236, #248, .T. ) ;
#211 = CARTESIAN_POINT ( 'NONE',  ( 0.0000000000000000000, 0.0000000000000000000, 0.5000000000000001110 ) ) ;
#212 = ORIENTED_EDGE ( 'NONE', *, *, #239, .T. ) ;
#213 = ADVANCED_FACE ( 'NONE', ( #181 ), #47, .T. ) ;
#214 = DIMENSIONAL_EXPONENTS ( 1.000000000000000000, 0.0000000000000000000, 0.0000000000000000000, 0.0000000000000000000, 0.0000000000000000000, 0.0000000000000000000, 0.0000000000000000000 ) ;
#215 = CARTESIAN_POINT ( 'NONE',  ( -0.01555000000000019041, 1.904325772674157831E-18, 0.009343382625878535533 ) ) ;
#216 = DIRECTION ( 'NONE',  ( -0.0000000000000000000, -0.0000000000000000000, 1.000000000000000000 ) ) ;
#217 = DIRECTION ( 'NONE',  ( 0.8571673007021157753, 0.0000000000000000000, 0.5150380749100483824 ) ) ;
#218 = AXIS2_PLACEMENT_3D ( 'NONE', #20, #237, #16 ) ;
#219 = DIRECTION ( 'NONE',  ( 1.000000000000000000, 0.0000000000000000000, 0.0000000000000000000 ) ) ;
#220 = DIRECTION ( 'NONE',  ( -0.0000000000000000000, -0.0000000000000000000, 1.000000000000000000 ) ) ;
#221 = CARTESIAN_POINT ( 'NONE',  ( -0.01559999999999999928, 0.0000000000000000000, 1.250000000000000000 ) ) ;
#222 = SURFACE_STYLE_FILL_AREA ( #173 ) ;
#223 = CLOSED_SHELL ( 'NONE', ( #141, #295, #71, #301, #2, #44, #274, #315, #271, #23, #213 ) ) ;
#224 = AXIS2_PLACEMENT_3D ( 'NONE', #15, #318, #293 ) ;
#225 = STYLED_ITEM ( 'NONE', ( #243 ), #21 ) ;
#226 = AXIS2_PLACEMENT_3D ( 'NONE', #120, #118, #272 ) ;
#227 = DIRECTION ( 'NONE',  ( 1.000000000000000000, 0.0000000000000000000, 0.0000000000000000000 ) ) ;
#228 = ORIENTED_EDGE ( 'NONE', *, *, #239, .F. ) ;
#229 = CARTESIAN_POINT ( 'NONE',  ( 0.0000000000000000000, 0.0000000000000000000, 0.009343382625878535533 ) ) ;
#230 = ORIENTED_EDGE ( 'NONE', *, *, #261, .F. ) ;
#231 = VECTOR ( 'NONE', #69, 39.37007874015748143 ) ;
#232 = AXIS2_PLACEMENT_3D ( 'NONE', #211, #205, #189 ) ;
#233 = DIRECTION ( 'NONE',  ( 1.000000000000000000, 0.0000000000000000000, 0.0000000000000000000 ) ) ;
#234 = ORIENTED_EDGE ( 'NONE', *, *, #300, .T. ) ;
#235 = CYLINDRICAL_SURFACE ( 'NONE', #207, 0.01555000000000036388 ) ;
#236 = VERTEX_POINT ( 'NONE', #102 ) ;
#237 = DIRECTION ( 'NONE',  ( 0.0000000000000000000, 0.0000000000000000000, -1.000000000000000000 ) ) ;
#238 = CARTESIAN_POINT ( 'NONE',  ( 0.0000000000000000000, 0.0000000000000000000, 1.250000000000000000 ) ) ;
#239 = EDGE_CURVE ( 'NONE', #25, #183, #132, .T. ) ;
#240 = MECHANICAL_DESIGN_GEOMETRIC_PRESENTATION_REPRESENTATION (  '', ( #225 ), #4 ) ;
#241 = LINE ( 'NONE', #145, #139 ) ;
#242 = CARTESIAN_POINT ( 'NONE',  ( 0.0000000000000000000, 0.0000000000000000000, 0.5000000000000001110 ) ) ;
#243 = PRESENTATION_STYLE_ASSIGNMENT (( #45 ) ) ;
#244 = PRODUCT_DEFINITION_SHAPE ( 'NONE', 'NONE',  #122 ) ;
#245 = LENGTH_MEASURE_WITH_UNIT ( LENGTH_MEASURE( 0.02539999999999999897 ), #117 );
#246 = APPLICATION_CONTEXT ( 'automotive_design' ) ;
#247 = PRODUCT ( 'Micro_DR-031-2', 'Micro_DR-031-2', '', ( #65 ) ) ;
#248 = CIRCLE ( 'NONE', #299, 0.01555000000000019041 ) ;
#249 = DIRECTION ( 'NONE',  ( -0.0000000000000000000, -0.0000000000000000000, 1.000000000000000000 ) ) ;
#250 = ORIENTED_EDGE ( 'NONE', *, *, #83, .T. ) ;
#251 = FILL_AREA_STYLE_COLOUR ( '', #107 ) ;
#252 = EDGE_LOOP ( 'NONE', ( #154, #277, #312, #14 ) ) ;
#253 = EDGE_CURVE ( 'NONE', #183, #25, #172, .T. ) ;
#254 = DIRECTION ( 'NONE',  ( -0.0000000000000000000, -0.0000000000000000000, 1.000000000000000000 ) ) ;
#255 = VERTEX_POINT ( 'NONE', #81 ) ;
#256 = FILL_AREA_STYLE ('',( #251 ) ) ;
#257 = EDGE_LOOP ( 'NONE', ( #162, #84, #250, #48 ) ) ;
#258 = CARTESIAN_POINT ( 'NONE',  ( 0.0000000000000000000, 0.0000000000000000000, 0.5000866025403776227 ) ) ;
#259 = VERTEX_POINT ( 'NONE', #159 ) ;
#260 = FACE_OUTER_BOUND ( 'NONE', #257, .T. ) ;
#261 = EDGE_CURVE ( 'NONE', #183, #57, #280, .T. ) ;
#262 = DIRECTION ( 'NONE',  ( 0.0000000000000000000, 0.0000000000000000000, -1.000000000000000000 ) ) ;
#263 = CYLINDRICAL_SURFACE ( 'NONE', #64, 0.01559999999999999928 ) ;
#264 = LENGTH_MEASURE_WITH_UNIT ( LENGTH_MEASURE( 0.02539999999999999897 ), #87 );
#265 = CIRCLE ( 'NONE', #177, 0.01555000000000019041 ) ;
#266 = FACE_OUTER_BOUND ( 'NONE', #192, .T. ) ;
#267 = VECTOR ( 'NONE', #26, 39.37007874015748143 ) ;
#268 = EDGE_CURVE ( 'NONE', #131, #158, #199, .T. ) ;
#269 = DIRECTION ( 'NONE',  ( 1.000000000000000000, 0.0000000000000000000, -0.0000000000000000000 ) ) ;
#270 = LINE ( 'NONE', #221, #72 ) ;
#271 = ADVANCED_FACE ( 'NONE', ( #193 ), #303, .T. ) ;
#272 = DIRECTION ( 'NONE',  ( 1.000000000000000000, 0.0000000000000000000, 0.0000000000000000000 ) ) ;
#273 = PRODUCT_DEFINITION_FORMATION_WITH_SPECIFIED_SOURCE ( 'ANY', '', #247, .NOT_KNOWN. ) ;
#274 = ADVANCED_FACE ( 'NONE', ( #316 ), #111, .T. ) ;
#275 =( GEOMETRIC_REPRESENTATION_CONTEXT ( 3 ) GLOBAL_UNCERTAINTY_ASSIGNED_CONTEXT ( ( #304 ) ) GLOBAL_UNIT_ASSIGNED_CONTEXT ( ( #6, #311, #8 ) ) REPRESENTATION_CONTEXT ( 'NONE', 'WORKASPACE' ) );
#276 = CARTESIAN_POINT ( 'NONE',  ( -0.0005999999999999902980, 0.0000000000000000000, 1.250000000000000000 ) ) ;
#277 = ORIENTED_EDGE ( 'NONE', *, *, #188, .T. ) ;
#278 = ORIENTED_EDGE ( 'NONE', *, *, #253, .F. ) ;
#279 = VECTOR ( 'NONE', #197, 39.37007874015748143 ) ;
#280 = LINE ( 'NONE', #56, #140 ) ;
#281 = ORIENTED_EDGE ( 'NONE', *, *, #164, .T. ) ;
#282 = DIRECTION ( 'NONE',  ( 1.000000000000000000, 0.0000000000000000000, 0.0000000000000000000 ) ) ;
#283 = ORIENTED_EDGE ( 'NONE', *, *, #76, .F. ) ;
#284 = CARTESIAN_POINT ( 'NONE',  ( 0.0000000000000000000, 0.0000000000000000000, 0.0000000000000000000 ) ) ;
#285 = ORIENTED_EDGE ( 'NONE', *, *, #201, .T. ) ;
#286 = VECTOR ( 'NONE', #11, 39.37007874015748143 ) ;
#287 = DIRECTION ( 'NONE',  ( 0.0000000000000000000, 0.0000000000000000000, 1.000000000000000000 ) ) ;
#288 = EDGE_CURVE ( 'NONE', #27, #158, #39, .T. ) ;
#289 = DIRECTION ( 'NONE',  ( -0.0000000000000000000, -0.0000000000000000000, -1.000000000000000000 ) ) ;
#290 = PRESENTATION_LAYER_ASSIGNMENT (  '', '', ( #225 ) ) ;
#291 = DIRECTION ( 'NONE',  ( -0.0000000000000000000, -0.0000000000000000000, -1.000000000000000000 ) ) ;
#292 = EDGE_LOOP ( 'NONE', ( #171, #80, #77 ) ) ;
#293 = DIRECTION ( 'NONE',  ( 1.000000000000000000, 0.0000000000000000000, 0.0000000000000000000 ) ) ;
#294 = CARTESIAN_POINT ( 'NONE',  ( 0.0000000000000000000, 0.0000000000000000000, 39.37007874015748143 ) ) ;
#295 = ADVANCED_FACE ( 'NONE', ( #167 ), #119, .T. ) ;
#296 =( NAMED_UNIT ( * ) SI_UNIT ( $, .STERADIAN. ) SOLID_ANGLE_UNIT ( ) );
#297 = DIRECTION ( 'NONE',  ( -0.0000000000000000000, -0.0000000000000000000, 1.000000000000000000 ) ) ;
#298 = DIRECTION ( 'NONE',  ( -0.0000000000000000000, -0.0000000000000000000, 1.000000000000000000 ) ) ;
#299 = AXIS2_PLACEMENT_3D ( 'NONE', #229, #313, #282 ) ;
#300 = EDGE_CURVE ( 'NONE', #259, #27, #3, .T. ) ;
#301 = ADVANCED_FACE ( 'NONE', ( #91 ), #121, .T. ) ;
#302 = AXIS2_PLACEMENT_3D ( 'NONE', #58, #17, #114 ) ;
#303 = CONICAL_SURFACE ( 'NONE', #322, 0.01555000000000053735, 0.5235987755982960401 ) ;
#304 = UNCERTAINTY_MEASURE_WITH_UNIT (LENGTH_MEASURE( 1.000000000000000082E-05 ), #6, 'distance_accuracy_value', 'NONE');
#305 = ORIENTED_EDGE ( 'NONE', *, *, #149, .F. ) ;
#306 = DIRECTION ( 'NONE',  ( 1.000000000000000000, 0.0000000000000000000, 0.0000000000000000000 ) ) ;
#307 = ORIENTED_EDGE ( 'NONE', *, *, #188, .F. ) ;
#308 =( GEOMETRIC_REPRESENTATION_CONTEXT ( 3 ) GLOBAL_UNCERTAINTY_ASSIGNED_CONTEXT ( ( #180 ) ) GLOBAL_UNIT_ASSIGNED_CONTEXT ( ( #174, #19, #135 ) ) REPRESENTATION_CONTEXT ( 'NONE', 'WORKASPACE' ) );
#309 = CARTESIAN_POINT ( 'NONE',  ( 0.0000000000000000000, 0.0000000000000000000, 1.250000000000000000 ) ) ;
#310 = ORIENTED_EDGE ( 'NONE', *, *, #323, .T. ) ;
#311 =( NAMED_UNIT ( * ) PLANE_ANGLE_UNIT ( ) SI_UNIT ( $, .RADIAN. ) );
#312 = ORIENTED_EDGE ( 'NONE', *, *, #28, .T. ) ;
#313 = DIRECTION ( 'NONE',  ( -0.0000000000000000000, -0.0000000000000000000, 1.000000000000000000 ) ) ;
#314 = CARTESIAN_POINT ( 'NONE',  ( -0.0005999999999999902980, 0.0000000000000000000, 1.250000000000000000 ) ) ;
#315 = ADVANCED_FACE ( 'NONE', ( #137 ), #99, .T. ) ;
#316 = FACE_OUTER_BOUND ( 'NONE', #182, .T. ) ;
#317 = DIRECTION ( 'NONE',  ( 1.000000000000000000, 0.0000000000000000000, 0.0000000000000000000 ) ) ;
#318 = DIRECTION ( 'NONE',  ( -0.0000000000000000000, -0.0000000000000000000, 1.000000000000000000 ) ) ;
#319 = VERTEX_POINT ( 'NONE', #68 ) ;
#320 = COLOUR_RGB ( '',0.7921568627450980005, 0.8196078431372548767, 0.9333333333333333481 ) ;
#321 = CARTESIAN_POINT ( 'NONE',  ( 0.01555000000000053735, 0.0000000000000000000, 0.5000000000000001110 ) ) ;
#322 = AXIS2_PLACEMENT_3D ( 'NONE', #89, #144, #219 ) ;
#323 = EDGE_CURVE ( 'NONE', #57, #131, #62, .T. ) ;
ENDSEC;
END-ISO-10303-21;
