ISO-10303-21;
HEADER;
FILE_DESCRIPTION (( 'STEP AP214' ),
    '1' );
FILE_NAME ('Micro_SHR-625-4.STEP',
    '2021-09-02T08:57:51',
    ( '' ),
    ( '' ),
    'SwSTEP 2.0',
    'SolidWorks 2020',
    '' );
FILE_SCHEMA (( 'AUTOMOTIVE_DESIGN' ));
ENDSEC;

DATA;
#1 = AXIS2_PLACEMENT_3D ( 'NONE', #190, #115, #70 ) ;
#2 = ORIENTED_EDGE ( 'NONE', *, *, #236, .F. ) ;
#3 = EDGE_LOOP ( 'NONE', ( #31, #162, #127, #27 ) ) ;
#4 = FACE_OUTER_BOUND ( 'NONE', #141, .T. ) ;
#5 = AXIS2_PLACEMENT_3D ( 'NONE', #178, #82, #57 ) ;
#6 = AXIS2_PLACEMENT_3D ( 'NONE', #91, #23, #163 ) ;
#7 = LENGTH_MEASURE_WITH_UNIT ( LENGTH_MEASURE( 0.02539999999999999897 ), #215 );
#8 = MANIFOLD_SOLID_BREP ( 'Cut-Revolve1', #59 ) ;
#9 = VERTEX_POINT ( 'NONE', #196 ) ;
#10 = UNCERTAINTY_MEASURE_WITH_UNIT (LENGTH_MEASURE( 1.000000000000000082E-05 ), #118, 'distance_accuracy_value', 'NONE');
#11 = DIRECTION ( 'NONE',  ( -1.000000000000000000, 0.0000000000000000000, 0.0000000000000000000 ) ) ;
#12 = DIRECTION ( 'NONE',  ( -1.224646799147353207E-16, -0.0000000000000000000, -1.000000000000000000 ) ) ;
#13 = CARTESIAN_POINT ( 'NONE',  ( -0.3121874999999997846, 3.823194226088142147E-17, 1.250000000000000000 ) ) ;
#14 = FACE_OUTER_BOUND ( 'NONE', #98, .T. ) ;
#15 = FACE_OUTER_BOUND ( 'NONE', #102, .T. ) ;
#16 = LINE ( 'NONE', #110, #43 ) ;
#17 = ORIENTED_EDGE ( 'NONE', *, *, #84, .F. ) ;
#18 = DIRECTION ( 'NONE',  ( 1.000000000000000000, 0.0000000000000000000, 0.0000000000000000000 ) ) ;
#19 = CIRCLE ( 'NONE', #22, 0.3121874999999998956 ) ;
#20 = EDGE_CURVE ( 'NONE', #35, #9, #198, .T. ) ;
#21 = MECHANICAL_DESIGN_GEOMETRIC_PRESENTATION_REPRESENTATION (  '', ( #150 ), #170 ) ;
#22 = AXIS2_PLACEMENT_3D ( 'NONE', #130, #12, #63 ) ;
#23 = DIRECTION ( 'NONE',  ( -1.224646799147353207E-16, -0.0000000000000000000, -1.000000000000000000 ) ) ;
#24 = EDGE_LOOP ( 'NONE', ( #284, #172 ) ) ;
#25 = EDGE_CURVE ( 'NONE', #209, #238, #122, .T. ) ;
#26 = SURFACE_STYLE_USAGE ( .BOTH. , #140 ) ;
#27 = ORIENTED_EDGE ( 'NONE', *, *, #227, .F. ) ;
#28 = CIRCLE ( 'NONE', #214, 0.3125000000000000000 ) ;
#29 = PRODUCT_DEFINITION_CONTEXT ( 'detailed design', #137, 'design' ) ;
#30 = PRODUCT_CONTEXT ( 'NONE', #278, 'mechanical' ) ;
#31 = ORIENTED_EDGE ( 'NONE', *, *, #185, .F. ) ;
#32 = VECTOR ( 'NONE', #132, 39.37007874015748143 ) ;
#33 = CIRCLE ( 'NONE', #1, 0.3125000000000000000 ) ;
#34 = ORIENTED_EDGE ( 'NONE', *, *, #133, .T. ) ;
#35 = VERTEX_POINT ( 'NONE', #267 ) ;
#36 = ADVANCED_FACE ( 'NONE', ( #4 ), #100, .T. ) ;
#37 = CARTESIAN_POINT ( 'NONE',  ( 0.2975000000000003197, 3.735172737399428256E-17, 3.500000000000000000 ) ) ;
#38 = AXIS2_PLACEMENT_3D ( 'NONE', #73, #147, #174 ) ;
#39 = CARTESIAN_POINT ( 'NONE',  ( 4.682062571497486343E-33, 0.0000000000000000000, 3.823194226088142147E-17 ) ) ;
#40 = DIRECTION ( 'NONE',  ( 0.0000000000000000000, 0.0000000000000000000, 1.000000000000000000 ) ) ;
#41 = LINE ( 'NONE', #156, #32 ) ;
#42 = DIRECTION ( 'NONE',  ( 1.000000000000000000, 0.0000000000000000000, 0.0000000000000000000 ) ) ;
#43 = VECTOR ( 'NONE', #289, 39.37007874015748143 ) ;
#44 = ORIENTED_EDGE ( 'NONE', *, *, #93, .T. ) ;
#45 =( CONVERSION_BASED_UNIT ( 'INCH', #65 ) LENGTH_UNIT ( ) NAMED_UNIT ( #246 ) );
#46 = ADVANCED_BREP_SHAPE_REPRESENTATION ( 'Micro_SHR-625-4', ( #8, #38 ), #179 ) ;
#47 = LENGTH_MEASURE_WITH_UNIT ( LENGTH_MEASURE( 0.02539999999999999897 ), #48 );
#48 =( LENGTH_UNIT ( ) NAMED_UNIT ( * ) SI_UNIT ( $, .METRE. ) );
#49 = ORIENTED_EDGE ( 'NONE', *, *, #55, .F. ) ;
#50 = ADVANCED_FACE ( 'NONE', ( #173 ), #72, .T. ) ;
#51 = ORIENTED_EDGE ( 'NONE', *, *, #133, .F. ) ;
#52 = ORIENTED_EDGE ( 'NONE', *, *, #268, .F. ) ;
#53 = LINE ( 'NONE', #149, #107 ) ;
#54 = DIRECTION ( 'NONE',  ( -0.0000000000000000000, -0.0000000000000000000, -1.000000000000000000 ) ) ;
#55 = EDGE_CURVE ( 'NONE', #238, #296, #53, .T. ) ;
#56 = DIRECTION ( 'NONE',  ( 1.000000000000000000, 0.0000000000000000000, 0.0000000000000000000 ) ) ;
#57 = DIRECTION ( 'NONE',  ( -1.000000000000000000, 0.0000000000000000000, 1.224646799147353207E-16 ) ) ;
#58 = PRESENTATION_LAYER_ASSIGNMENT (  '', '', ( #134 ) ) ;
#59 = CLOSED_SHELL ( 'NONE', ( #80, #181, #264, #36, #50, #274, #169, #131, #277, #225 ) ) ;
#60 = CARTESIAN_POINT ( 'NONE',  ( 0.3121874999999998956, 3.823194226088142147E-17, -3.823194226088142147E-17 ) ) ;
#61 = CIRCLE ( 'NONE', #271, 0.3125000000000000000 ) ;
#62 = FACE_OUTER_BOUND ( 'NONE', #99, .T. ) ;
#63 = DIRECTION ( 'NONE',  ( -1.000000000000000000, 0.0000000000000000000, 0.0000000000000000000 ) ) ;
#64 = DIRECTION ( 'NONE',  ( 1.000000000000000000, 0.0000000000000000000, -0.0000000000000000000 ) ) ;
#65 = LENGTH_MEASURE_WITH_UNIT ( LENGTH_MEASURE( 0.02539999999999999897 ), #186 );
#66 = ORIENTED_EDGE ( 'NONE', *, *, #197, .F. ) ;
#67 = DIRECTION ( 'NONE',  ( -1.000000000000000000, 0.0000000000000000000, 0.0000000000000000000 ) ) ;
#68 = CARTESIAN_POINT ( 'NONE',  ( 0.0000000000000000000, 0.0000000000000000000, 3.484999999999999432 ) ) ;
#69 = ORIENTED_EDGE ( 'NONE', *, *, #217, .F. ) ;
#70 = DIRECTION ( 'NONE',  ( 1.000000000000000000, 0.0000000000000000000, 0.0000000000000000000 ) ) ;
#71 = ORIENTED_EDGE ( 'NONE', *, *, #165, .F. ) ;
#72 = CYLINDRICAL_SURFACE ( 'NONE', #285, 0.3125000000000000000 ) ;
#73 = CARTESIAN_POINT ( 'NONE',  ( 0.0000000000000000000, 0.0000000000000000000, 0.0000000000000000000 ) ) ;
#74 = VERTEX_POINT ( 'NONE', #168 ) ;
#75 = PRODUCT_DEFINITION_FORMATION_WITH_SPECIFIED_SOURCE ( 'ANY', '', #273, .NOT_KNOWN. ) ;
#76 = ORIENTED_EDGE ( 'NONE', *, *, #158, .T. ) ;
#77 = CARTESIAN_POINT ( 'NONE',  ( 0.2975000000000003197, 3.643324227463378817E-17, 3.500000000000000000 ) ) ;
#78 = COLOUR_RGB ( '',0.7921568627450980005, 0.8196078431372548767, 0.9333333333333333481 ) ;
#79 = LINE ( 'NONE', #13, #257 ) ;
#80 = ADVANCED_FACE ( 'NONE', ( #15 ), #153, .T. ) ;
#81 = CARTESIAN_POINT ( 'NONE',  ( 0.0000000000000000000, 0.0000000000000000000, 3.500000000000000000 ) ) ;
#82 = DIRECTION ( 'NONE',  ( -1.224646799147353207E-16, -0.0000000000000000000, -1.000000000000000000 ) ) ;
#83 = CONICAL_SURFACE ( 'NONE', #124, 0.3121874999999998956, 0.1745329251994340303 ) ;
#84 = EDGE_CURVE ( 'NONE', #207, #283, #19, .T. ) ;
#85 = AXIS2_PLACEMENT_3D ( 'NONE', #270, #222, #135 ) ;
#86 = PRODUCT_DEFINITION_SHAPE ( 'NONE', 'NONE',  #191 ) ;
#87 = CARTESIAN_POINT ( 'NONE',  ( 1.532978910536522803E-16, 0.0000000000000000000, 1.251772275568631132 ) ) ;
#88 = DIRECTION ( 'NONE',  ( -1.000000000000000000, 0.0000000000000000000, 1.224646799147353207E-16 ) ) ;
#89 = FACE_OUTER_BOUND ( 'NONE', #3, .T. ) ;
#90 = AXIS2_PLACEMENT_3D ( 'NONE', #206, #183, #67 ) ;
#91 = CARTESIAN_POINT ( 'NONE',  ( 0.0000000000000000000, 0.0000000000000000000, 0.0000000000000000000 ) ) ;
#92 = ORIENTED_EDGE ( 'NONE', *, *, #197, .T. ) ;
#93 = EDGE_CURVE ( 'NONE', #207, #9, #79, .T. ) ;
#94 = VERTEX_POINT ( 'NONE', #221 ) ;
#95 = ORIENTED_EDGE ( 'NONE', *, *, #25, .F. ) ;
#96 = CARTESIAN_POINT ( 'NONE',  ( 0.3125000000000001665, 3.827021247335480159E-17, 1.251772275568631132 ) ) ;
#97 = EDGE_LOOP ( 'NONE', ( #254, #52, #280, #92 ) ) ;
#98 = EDGE_LOOP ( 'NONE', ( #117, #76 ) ) ;
#99 = EDGE_LOOP ( 'NONE', ( #17, #44, #184, #71 ) ) ;
#100 = CYLINDRICAL_SURFACE ( 'NONE', #113, 0.3125000000000000000 ) ;
#101 = MECHANICAL_DESIGN_GEOMETRIC_PRESENTATION_REPRESENTATION (  '', ( #134 ), #231 ) ;
#102 = EDGE_LOOP ( 'NONE', ( #112, #34, #229, #171 ) ) ;
#103 =( CONVERSION_BASED_UNIT ( 'INCH', #7 ) LENGTH_UNIT ( ) NAMED_UNIT ( #216 ) );
#104 = DIRECTION ( 'NONE',  ( 0.0000000000000000000, 0.0000000000000000000, -1.000000000000000000 ) ) ;
#105 = LINE ( 'NONE', #159, #138 ) ;
#106 = DIRECTION ( 'NONE',  ( -1.224646799147353207E-16, -0.0000000000000000000, -1.000000000000000000 ) ) ;
#107 = VECTOR ( 'NONE', #151, 39.37007874015748143 ) ;
#108 = AXIS2_PLACEMENT_3D ( 'NONE', #276, #104, #226 ) ;
#109 = DIRECTION ( 'NONE',  ( -0.1736481776669313026, 2.126576849575784549E-17, 0.9848077530122077983 ) ) ;
#110 = CARTESIAN_POINT ( 'NONE',  ( -0.2975000000000003197, 0.0000000000000000000, 3.500000000000000000 ) ) ;
#111 = FILL_AREA_STYLE_COLOUR ( '', #295 ) ;
#112 = ORIENTED_EDGE ( 'NONE', *, *, #84, .T. ) ;
#113 = AXIS2_PLACEMENT_3D ( 'NONE', #145, #54, #11 ) ;
#114 = CONICAL_SURFACE ( 'NONE', #139, 0.2975000000000003197, 0.7853981633974300713 ) ;
#115 = DIRECTION ( 'NONE',  ( -1.224646799147353207E-16, -0.0000000000000000000, -1.000000000000000000 ) ) ;
#116 = CARTESIAN_POINT ( 'NONE',  ( 0.0000000000000000000, 0.0000000000000000000, 3.500000000000000000 ) ) ;
#117 = ORIENTED_EDGE ( 'NONE', *, *, #128, .T. ) ;
#118 =( CONVERSION_BASED_UNIT ( 'INCH', #47 ) LENGTH_UNIT ( ) NAMED_UNIT ( #120 ) );
#119 = EDGE_CURVE ( 'NONE', #238, #35, #61, .T. ) ;
#120 = DIMENSIONAL_EXPONENTS ( 1.000000000000000000, 0.0000000000000000000, 0.0000000000000000000, 0.0000000000000000000, 0.0000000000000000000, 0.0000000000000000000, 0.0000000000000000000 ) ;
#121 = UNCERTAINTY_MEASURE_WITH_UNIT (LENGTH_MEASURE( 1.000000000000000082E-05 ), #103, 'distance_accuracy_value', 'NONE');
#122 = LINE ( 'NONE', #77, #224 ) ;
#123 = CARTESIAN_POINT ( 'NONE',  ( 0.0000000000000000000, 0.0000000000000000000, 3.500000000000000000 ) ) ;
#124 = AXIS2_PLACEMENT_3D ( 'NONE', #252, #201, #219 ) ;
#125 =( NAMED_UNIT ( * ) PLANE_ANGLE_UNIT ( ) SI_UNIT ( $, .RADIAN. ) );
#126 = EDGE_CURVE ( 'NONE', #207, #94, #105, .T. ) ;
#127 = ORIENTED_EDGE ( 'NONE', *, *, #288, .F. ) ;
#128 = EDGE_CURVE ( 'NONE', #94, #74, #195, .T. ) ;
#129 = DIRECTION ( 'NONE',  ( 1.224646799147353207E-16, 0.0000000000000000000, 1.000000000000000000 ) ) ;
#130 = CARTESIAN_POINT ( 'NONE',  ( 1.530808498934191571E-16, 0.0000000000000000000, 1.250000000000000000 ) ) ;
#131 = ADVANCED_FACE ( 'NONE', ( #275 ), #83, .T. ) ;
#132 = DIRECTION ( 'NONE',  ( 0.1736481776669315247, 0.0000000000000000000, 0.9848077530122077983 ) ) ;
#133 = EDGE_CURVE ( 'NONE', #283, #74, #253, .T. ) ;
#134 = STYLED_ITEM ( 'NONE', ( #193 ), #8 ) ;
#135 = DIRECTION ( 'NONE',  ( 1.000000000000000000, 0.0000000000000000000, -0.0000000000000000000 ) ) ;
#136 = DIRECTION ( 'NONE',  ( 0.0000000000000000000, 0.0000000000000000000, 1.000000000000000000 ) ) ;
#137 = APPLICATION_CONTEXT ( 'automotive_design' ) ;
#138 = VECTOR ( 'NONE', #106, 39.37007874015748143 ) ;
#139 = AXIS2_PLACEMENT_3D ( 'NONE', #116, #230, #233 ) ;
#140 = SURFACE_SIDE_STYLE ('',( #237 ) ) ;
#141 = EDGE_LOOP ( 'NONE', ( #164, #192, #2, #298 ) ) ;
#142 = CARTESIAN_POINT ( 'NONE',  ( 0.3125000000000000000, 3.827021247335478926E-17, 3.484999999999999432 ) ) ;
#143 = FILL_AREA_STYLE ('',( #111 ) ) ;
#144 = ORIENTED_EDGE ( 'NONE', *, *, #119, .T. ) ;
#145 = CARTESIAN_POINT ( 'NONE',  ( 0.0000000000000000000, 0.0000000000000000000, 3.500000000000000000 ) ) ;
#146 =( NAMED_UNIT ( * ) PLANE_ANGLE_UNIT ( ) SI_UNIT ( $, .RADIAN. ) );
#147 = DIRECTION ( 'NONE',  ( 0.0000000000000000000, 0.0000000000000000000, 1.000000000000000000 ) ) ;
#148 = ORIENTED_EDGE ( 'NONE', *, *, #227, .T. ) ;
#149 = CARTESIAN_POINT ( 'NONE',  ( 0.3125000000000000000, 3.827021247335478926E-17, 3.500000000000000000 ) ) ;
#150 = STYLED_ITEM ( 'NONE', ( #203 ), #46 ) ;
#151 = DIRECTION ( 'NONE',  ( -0.0000000000000000000, -0.0000000000000000000, -1.000000000000000000 ) ) ;
#152 = CARTESIAN_POINT ( 'NONE',  ( -0.3121874999999997846, 3.825107736711810845E-17, 1.250000000000000000 ) ) ;
#153 = CYLINDRICAL_SURFACE ( 'NONE', #154, 0.3121874999999998956 ) ;
#154 = AXIS2_PLACEMENT_3D ( 'NONE', #223, #248, #88 ) ;
#155 = AXIS2_PLACEMENT_3D ( 'NONE', #199, #40, #200 ) ;
#156 = CARTESIAN_POINT ( 'NONE',  ( 0.3121875000000000622, 0.0000000000000000000, 1.250000000000000000 ) ) ;
#157 = CARTESIAN_POINT ( 'NONE',  ( 1.530808498934191571E-16, 0.0000000000000000000, 1.250000000000000000 ) ) ;
#158 = EDGE_CURVE ( 'NONE', #74, #94, #292, .T. ) ;
#159 = CARTESIAN_POINT ( 'NONE',  ( -0.3121874999999998956, 0.0000000000000000000, 3.823194226088142147E-17 ) ) ;
#160 = CONICAL_SURFACE ( 'NONE', #250, 0.3121874999999998956, 0.1745329251994340303 ) ;
#161 =( NAMED_UNIT ( * ) SI_UNIT ( $, .STERADIAN. ) SOLID_ANGLE_UNIT ( ) );
#162 = ORIENTED_EDGE ( 'NONE', *, *, #25, .T. ) ;
#163 = DIRECTION ( 'NONE',  ( -1.000000000000000000, 0.0000000000000000000, 1.224646799147353207E-16 ) ) ;
#164 = ORIENTED_EDGE ( 'NONE', *, *, #288, .T. ) ;
#165 = EDGE_CURVE ( 'NONE', #283, #296, #41, .T. ) ;
#166 = AXIS2_PLACEMENT_3D ( 'NONE', #39, #269, #176 ) ;
#167 = FACE_OUTER_BOUND ( 'NONE', #258, .T. ) ;
#168 = CARTESIAN_POINT ( 'NONE',  ( 0.3121874999999998956, 3.823194226088142147E-17, 0.0000000000000000000 ) ) ;
#169 = ADVANCED_FACE ( 'NONE', ( #180 ), #189, .T. ) ;
#170 =( GEOMETRIC_REPRESENTATION_CONTEXT ( 3 ) GLOBAL_UNCERTAINTY_ASSIGNED_CONTEXT ( ( #263 ) ) GLOBAL_UNIT_ASSIGNED_CONTEXT ( ( #45, #125, #239 ) ) REPRESENTATION_CONTEXT ( 'NONE', 'WORKASPACE' ) );
#171 = ORIENTED_EDGE ( 'NONE', *, *, #126, .F. ) ;
#172 = ORIENTED_EDGE ( 'NONE', *, *, #185, .T. ) ;
#173 = FACE_OUTER_BOUND ( 'NONE', #297, .T. ) ;
#174 = DIRECTION ( 'NONE',  ( 1.000000000000000000, 0.0000000000000000000, 0.0000000000000000000 ) ) ;
#175 = SURFACE_STYLE_USAGE ( .BOTH. , #286 ) ;
#176 = DIRECTION ( 'NONE',  ( -1.000000000000000000, 0.0000000000000000000, 1.224646799147353207E-16 ) ) ;
#177 = CARTESIAN_POINT ( 'NONE',  ( 0.0000000000000000000, 0.0000000000000000000, 3.484999999999999432 ) ) ;
#178 = CARTESIAN_POINT ( 'NONE',  ( 4.682062571497486343E-33, 0.0000000000000000000, 3.823194226088142147E-17 ) ) ;
#179 =( GEOMETRIC_REPRESENTATION_CONTEXT ( 3 ) GLOBAL_UNCERTAINTY_ASSIGNED_CONTEXT ( ( #10 ) ) GLOBAL_UNIT_ASSIGNED_CONTEXT ( ( #118, #187, #161 ) ) REPRESENTATION_CONTEXT ( 'NONE', 'WORKASPACE' ) );
#180 = FACE_OUTER_BOUND ( 'NONE', #261, .T. ) ;
#181 = ADVANCED_FACE ( 'NONE', ( #62 ), #160, .T. ) ;
#182 = DIRECTION ( 'NONE',  ( 1.000000000000000000, 0.0000000000000000000, 0.0000000000000000000 ) ) ;
#183 = DIRECTION ( 'NONE',  ( -1.224646799147353207E-16, -0.0000000000000000000, -1.000000000000000000 ) ) ;
#184 = ORIENTED_EDGE ( 'NONE', *, *, #236, .T. ) ;
#185 = EDGE_CURVE ( 'NONE', #209, #188, #282, .T. ) ;
#186 =( LENGTH_UNIT ( ) NAMED_UNIT ( * ) SI_UNIT ( $, .METRE. ) );
#187 =( NAMED_UNIT ( * ) PLANE_ANGLE_UNIT ( ) SI_UNIT ( $, .RADIAN. ) );
#188 = VERTEX_POINT ( 'NONE', #293 ) ;
#189 = CONICAL_SURFACE ( 'NONE', #108, 0.2975000000000003197, 0.7853981633974300713 ) ;
#190 = CARTESIAN_POINT ( 'NONE',  ( 1.532978910536522803E-16, 0.0000000000000000000, 1.251772275568631132 ) ) ;
#191 = PRODUCT_DEFINITION ( 'UNKNOWN', '', #75, #29 ) ;
#192 = ORIENTED_EDGE ( 'NONE', *, *, #55, .T. ) ;
#193 = PRESENTATION_STYLE_ASSIGNMENT (( #175 ) ) ;
#194 = DIRECTION ( 'NONE',  ( -0.0000000000000000000, -0.0000000000000000000, -1.000000000000000000 ) ) ;
#195 = CIRCLE ( 'NONE', #5, 0.3121874999999998956 ) ;
#196 = CARTESIAN_POINT ( 'NONE',  ( -0.3124999999999998890, 0.0000000000000000000, 1.251772275568631132 ) ) ;
#197 = EDGE_CURVE ( 'NONE', #296, #9, #28, .T. ) ;
#198 = LINE ( 'NONE', #241, #281 ) ;
#199 = CARTESIAN_POINT ( 'NONE',  ( 0.0000000000000000000, 0.0000000000000000000, 3.500000000000000000 ) ) ;
#200 = DIRECTION ( 'NONE',  ( 1.000000000000000000, 0.0000000000000000000, 0.0000000000000000000 ) ) ;
#201 = DIRECTION ( 'NONE',  ( 1.224646799147353207E-16, 0.0000000000000000000, 1.000000000000000000 ) ) ;
#202 = PRODUCT_RELATED_PRODUCT_CATEGORY ( 'part', '', ( #273 ) ) ;
#203 = PRESENTATION_STYLE_ASSIGNMENT (( #26 ) ) ;
#204 = CYLINDRICAL_SURFACE ( 'NONE', #6, 0.3121874999999998956 ) ;
#205 = AXIS2_PLACEMENT_3D ( 'NONE', #68, #259, #18 ) ;
#206 = CARTESIAN_POINT ( 'NONE',  ( 1.530808498934191571E-16, 0.0000000000000000000, 1.250000000000000000 ) ) ;
#207 = VERTEX_POINT ( 'NONE', #152 ) ;
#208 = CARTESIAN_POINT ( 'NONE',  ( 0.0000000000000000000, 0.0000000000000000000, 3.500000000000000000 ) ) ;
#209 = VERTEX_POINT ( 'NONE', #37 ) ;
#210 = CIRCLE ( 'NONE', #205, 0.3125000000000000000 ) ;
#211 = FILL_AREA_STYLE ('',( #245 ) ) ;
#212 = DIRECTION ( 'NONE',  ( 0.7071067811865346942, 8.659560562354773853E-17, -0.7071067811865603403 ) ) ;
#213 = VECTOR ( 'NONE', #290, 39.37007874015748143 ) ;
#214 = AXIS2_PLACEMENT_3D ( 'NONE', #87, #291, #56 ) ;
#215 =( LENGTH_UNIT ( ) NAMED_UNIT ( * ) SI_UNIT ( $, .METRE. ) );
#216 = DIMENSIONAL_EXPONENTS ( 1.000000000000000000, 0.0000000000000000000, 0.0000000000000000000, 0.0000000000000000000, 0.0000000000000000000, 0.0000000000000000000, 0.0000000000000000000 ) ;
#217 = EDGE_CURVE ( 'NONE', #188, #209, #244, .T. ) ;
#218 =( NAMED_UNIT ( * ) SI_UNIT ( $, .STERADIAN. ) SOLID_ANGLE_UNIT ( ) );
#219 = DIRECTION ( 'NONE',  ( 1.000000000000000000, 0.0000000000000000000, 0.0000000000000000000 ) ) ;
#220 = AXIS2_PLACEMENT_3D ( 'NONE', #81, #272, #42 ) ;
#221 = CARTESIAN_POINT ( 'NONE',  ( -0.3121874999999998956, 0.0000000000000000000, 7.646388452176284293E-17 ) ) ;
#222 = DIRECTION ( 'NONE',  ( 0.0000000000000000000, 0.0000000000000000000, 1.000000000000000000 ) ) ;
#223 = CARTESIAN_POINT ( 'NONE',  ( 0.0000000000000000000, 0.0000000000000000000, 0.0000000000000000000 ) ) ;
#224 = VECTOR ( 'NONE', #212, 39.37007874015748143 ) ;
#225 = ADVANCED_FACE ( 'NONE', ( #14 ), #294, .F. ) ;
#226 = DIRECTION ( 'NONE',  ( -1.000000000000000000, 0.0000000000000000000, 0.0000000000000000000 ) ) ;
#227 = EDGE_CURVE ( 'NONE', #188, #35, #16, .T. ) ;
#228 = PLANE ( 'NONE',  #232 ) ;
#229 = ORIENTED_EDGE ( 'NONE', *, *, #128, .F. ) ;
#230 = DIRECTION ( 'NONE',  ( 0.0000000000000000000, 0.0000000000000000000, -1.000000000000000000 ) ) ;
#231 =( GEOMETRIC_REPRESENTATION_CONTEXT ( 3 ) GLOBAL_UNCERTAINTY_ASSIGNED_CONTEXT ( ( #121 ) ) GLOBAL_UNIT_ASSIGNED_CONTEXT ( ( #103, #146, #218 ) ) REPRESENTATION_CONTEXT ( 'NONE', 'WORKASPACE' ) );
#232 = AXIS2_PLACEMENT_3D ( 'NONE', #208, #136, #64 ) ;
#233 = DIRECTION ( 'NONE',  ( -1.000000000000000000, 0.0000000000000000000, 0.0000000000000000000 ) ) ;
#234 = ORIENTED_EDGE ( 'NONE', *, *, #158, .F. ) ;
#235 = ORIENTED_EDGE ( 'NONE', *, *, #119, .F. ) ;
#236 = EDGE_CURVE ( 'NONE', #9, #296, #33, .T. ) ;
#237 = SURFACE_STYLE_FILL_AREA ( #143 ) ;
#238 = VERTEX_POINT ( 'NONE', #142 ) ;
#239 =( NAMED_UNIT ( * ) SI_UNIT ( $, .STERADIAN. ) SOLID_ANGLE_UNIT ( ) );
#240 = DIRECTION ( 'NONE',  ( -0.0000000000000000000, -0.0000000000000000000, -1.000000000000000000 ) ) ;
#241 = CARTESIAN_POINT ( 'NONE',  ( -0.3125000000000000000, 0.0000000000000000000, 3.500000000000000000 ) ) ;
#242 = APPLICATION_PROTOCOL_DEFINITION ( 'draft international standard', 'automotive_design', 1998, #137 ) ;
#243 = SURFACE_STYLE_FILL_AREA ( #211 ) ;
#244 = CIRCLE ( 'NONE', #220, 0.2975000000000003197 ) ;
#245 = FILL_AREA_STYLE_COLOUR ( '', #78 ) ;
#246 = DIMENSIONAL_EXPONENTS ( 1.000000000000000000, 0.0000000000000000000, 0.0000000000000000000, 0.0000000000000000000, 0.0000000000000000000, 0.0000000000000000000, 0.0000000000000000000 ) ;
#247 = ORIENTED_EDGE ( 'NONE', *, *, #20, .T. ) ;
#248 = DIRECTION ( 'NONE',  ( -1.224646799147353207E-16, -0.0000000000000000000, -1.000000000000000000 ) ) ;
#249 = DIRECTION ( 'NONE',  ( 0.0000000000000000000, 0.0000000000000000000, -1.000000000000000000 ) ) ;
#250 = AXIS2_PLACEMENT_3D ( 'NONE', #157, #129, #251 ) ;
#251 = DIRECTION ( 'NONE',  ( 1.000000000000000000, 0.0000000000000000000, 0.0000000000000000000 ) ) ;
#252 = CARTESIAN_POINT ( 'NONE',  ( 1.530808498934191571E-16, 0.0000000000000000000, 1.250000000000000000 ) ) ;
#253 = LINE ( 'NONE', #60, #213 ) ;
#254 = ORIENTED_EDGE ( 'NONE', *, *, #93, .F. ) ;
#255 = APPLICATION_PROTOCOL_DEFINITION ( 'draft international standard', 'automotive_design', 1998, #278 ) ;
#256 = CIRCLE ( 'NONE', #90, 0.3121874999999998956 ) ;
#257 = VECTOR ( 'NONE', #109, 39.37007874015748143 ) ;
#258 = EDGE_LOOP ( 'NONE', ( #51, #287, #260, #234 ) ) ;
#259 = DIRECTION ( 'NONE',  ( 0.0000000000000000000, 0.0000000000000000000, -1.000000000000000000 ) ) ;
#260 = ORIENTED_EDGE ( 'NONE', *, *, #126, .T. ) ;
#261 = EDGE_LOOP ( 'NONE', ( #95, #69, #148, #235 ) ) ;
#262 = PRESENTATION_LAYER_ASSIGNMENT (  '', '', ( #150 ) ) ;
#263 = UNCERTAINTY_MEASURE_WITH_UNIT (LENGTH_MEASURE( 1.000000000000000082E-05 ), #45, 'distance_accuracy_value', 'NONE');
#264 = ADVANCED_FACE ( 'NONE', ( #89 ), #114, .T. ) ;
#265 = SHAPE_DEFINITION_REPRESENTATION ( #86, #46 ) ;
#266 = DIRECTION ( 'NONE',  ( -1.000000000000000000, 0.0000000000000000000, 0.0000000000000000000 ) ) ;
#267 = CARTESIAN_POINT ( 'NONE',  ( -0.3125000000000000000, 0.0000000000000000000, 3.484999999999999432 ) ) ;
#268 = EDGE_CURVE ( 'NONE', #283, #207, #256, .T. ) ;
#269 = DIRECTION ( 'NONE',  ( -1.224646799147353207E-16, -0.0000000000000000000, -1.000000000000000000 ) ) ;
#270 = CARTESIAN_POINT ( 'NONE',  ( 0.0000000000000000000, 0.0000000000000000000, 0.0000000000000000000 ) ) ;
#271 = AXIS2_PLACEMENT_3D ( 'NONE', #177, #249, #182 ) ;
#272 = DIRECTION ( 'NONE',  ( 0.0000000000000000000, 0.0000000000000000000, 1.000000000000000000 ) ) ;
#273 = PRODUCT ( 'Micro_SHR-625-4', 'Micro_SHR-625-4', '', ( #30 ) ) ;
#274 = ADVANCED_FACE ( 'NONE', ( #299 ), #228, .T. ) ;
#275 = FACE_OUTER_BOUND ( 'NONE', #97, .T. ) ;
#276 = CARTESIAN_POINT ( 'NONE',  ( 0.0000000000000000000, 0.0000000000000000000, 3.500000000000000000 ) ) ;
#277 = ADVANCED_FACE ( 'NONE', ( #167 ), #204, .T. ) ;
#278 = APPLICATION_CONTEXT ( 'automotive_design' ) ;
#279 = CARTESIAN_POINT ( 'NONE',  ( 0.3121875000000000622, 0.0000000000000000000, 1.250000000000000000 ) ) ;
#280 = ORIENTED_EDGE ( 'NONE', *, *, #165, .T. ) ;
#281 = VECTOR ( 'NONE', #194, 39.37007874015748143 ) ;
#282 = CIRCLE ( 'NONE', #155, 0.2975000000000003197 ) ;
#283 = VERTEX_POINT ( 'NONE', #279 ) ;
#284 = ORIENTED_EDGE ( 'NONE', *, *, #217, .T. ) ;
#285 = AXIS2_PLACEMENT_3D ( 'NONE', #123, #240, #266 ) ;
#286 = SURFACE_SIDE_STYLE ('',( #243 ) ) ;
#287 = ORIENTED_EDGE ( 'NONE', *, *, #268, .T. ) ;
#288 = EDGE_CURVE ( 'NONE', #35, #238, #210, .T. ) ;
#289 = DIRECTION ( 'NONE',  ( -0.7071067811865346942, 0.0000000000000000000, -0.7071067811865603403 ) ) ;
#290 = DIRECTION ( 'NONE',  ( -1.224646799147353207E-16, -0.0000000000000000000, -1.000000000000000000 ) ) ;
#291 = DIRECTION ( 'NONE',  ( -1.224646799147353207E-16, -0.0000000000000000000, -1.000000000000000000 ) ) ;
#292 = CIRCLE ( 'NONE', #166, 0.3121874999999998956 ) ;
#293 = CARTESIAN_POINT ( 'NONE',  ( -0.2975000000000003197, 0.0000000000000000000, 3.500000000000000000 ) ) ;
#294 = PLANE ( 'NONE',  #85 ) ;
#295 = COLOUR_RGB ( '',0.7921568627450980005, 0.8196078431372548767, 0.9333333333333333481 ) ;
#296 = VERTEX_POINT ( 'NONE', #96 ) ;
#297 = EDGE_LOOP ( 'NONE', ( #49, #144, #247, #66 ) ) ;
#298 = ORIENTED_EDGE ( 'NONE', *, *, #20, .F. ) ;
#299 = FACE_OUTER_BOUND ( 'NONE', #24, .T. ) ;
ENDSEC;
END-ISO-10303-21;
