ISO-10303-21;
HEADER;
FILE_DESCRIPTION (( 'STEP AP214' ),
    '1' );
FILE_NAME ('Micro_BMS-022-2X.STEP',
    '2021-09-03T14:59:01',
    ( '' ),
    ( '' ),
    'SwSTEP 2.0',
    'SolidWorks 2020',
    '' );
FILE_SCHEMA (( 'AUTOMOTIVE_DESIGN' ));
ENDSEC;

DATA;
#1 = PRODUCT_DEFINITION_SHAPE ( 'NONE', 'NONE',  #191 ) ;
#2 = CARTESIAN_POINT ( 'NONE',  ( 3.981735749243191540E-17, 0.0000000000000000000, 0.3251333978103262412 ) ) ;
#3 = EDGE_CURVE ( 'NONE', #86, #201, #107, .T. ) ;
#4 = DIRECTION ( 'NONE',  ( -1.000000000000000000, 0.0000000000000000000, 1.224646799147353454E-16 ) ) ;
#5 = ORIENTED_EDGE ( 'NONE', *, *, #313, .F. ) ;
#6 = CARTESIAN_POINT ( 'NONE',  ( -0.01098899999999999530, 4.499903431126991876E-18, 0.03300000000000000155 ) ) ;
#7 = DIRECTION ( 'NONE',  ( 0.0000000000000000000, 0.0000000000000000000, -1.000000000000000000 ) ) ;
#8 = VECTOR ( 'NONE', #47, 39.37007874015748143 ) ;
#9 = DIRECTION ( 'NONE',  ( 1.000000000000000000, 0.0000000000000000000, 0.0000000000000000000 ) ) ;
#10 = ORIENTED_EDGE ( 'NONE', *, *, #307, .F. ) ;
#11 = EDGE_CURVE ( 'NONE', #164, #66, #233, .T. ) ;
#12 = ORIENTED_EDGE ( 'NONE', *, *, #15, .F. ) ;
#13 = DIRECTION ( 'NONE',  ( 0.1736481776669313581, 0.0000000000000000000, 0.9848077530122077983 ) ) ;
#14 = LENGTH_MEASURE_WITH_UNIT ( LENGTH_MEASURE( 0.02539999999999999897 ), #314 );
#15 = EDGE_CURVE ( 'NONE', #244, #111, #39, .T. ) ;
#16 = DIRECTION ( 'NONE',  ( 0.7071067811865456854, 8.659560562354911904E-17, -0.7071067811865493491 ) ) ;
#17 = DIRECTION ( 'NONE',  ( 1.224646799147353207E-16, 1.000000000000000000, -0.0000000000000000000 ) ) ;
#18 = ORIENTED_EDGE ( 'NONE', *, *, #15, .T. ) ;
#19 = PRODUCT_DEFINITION_CONTEXT ( 'detailed design', #118, 'design' ) ;
#20 = CARTESIAN_POINT ( 'NONE',  ( -0.01098900000000000224, 0.0000000000000000000, 1.345764367583026979E-18 ) ) ;
#21 = DIRECTION ( 'NONE',  ( -1.224646799147353454E-16, -0.0000000000000000000, -1.000000000000000000 ) ) ;
#22 = AXIS2_PLACEMENT_3D ( 'NONE', #256, #183, #280 ) ;
#23 = AXIS2_PLACEMENT_3D ( 'NONE', #62, #188, #140 ) ;
#24 = DIRECTION ( 'NONE',  ( -1.000000000000000000, 1.224646799147353207E-16, 0.0000000000000000000 ) ) ;
#25 = DIRECTION ( 'NONE',  ( -1.224646799147353454E-16, -0.0000000000000000000, -1.000000000000000000 ) ) ;
#26 = ADVANCED_FACE ( 'NONE', ( #141 ), #185, .T. ) ;
#27 = DIRECTION ( 'NONE',  ( 1.000000000000000000, 0.0000000000000000000, -0.0000000000000000000 ) ) ;
#28 = DIRECTION ( 'NONE',  ( -1.000000000000000000, 0.0000000000000000000, 0.0000000000000000000 ) ) ;
#29 = DIRECTION ( 'NONE',  ( -1.000000000000000000, 0.0000000000000000000, 0.0000000000000000000 ) ) ;
#30 = DIRECTION ( 'NONE',  ( -1.224646799147353454E-16, -0.0000000000000000000, -1.000000000000000000 ) ) ;
#31 = ADVANCED_FACE ( 'NONE', ( #186 ), #238, .T. ) ;
#32 = AXIS2_PLACEMENT_3D ( 'NONE', #2, #269, #42 ) ;
#33 = AXIS2_PLACEMENT_3D ( 'NONE', #251, #30, #28 ) ;
#34 = ORIENTED_EDGE ( 'NONE', *, *, #153, .T. ) ;
#35 = MECHANICAL_DESIGN_GEOMETRIC_PRESENTATION_REPRESENTATION (  '', ( #254 ), #160 ) ;
#36 = CARTESIAN_POINT ( 'NONE',  ( 1.345764367583026786E-18, 0.0000000000000000000, 0.01098900000000000050 ) ) ;
#37 = PRESENTATION_STYLE_ASSIGNMENT (( #213 ) ) ;
#38 = ORIENTED_EDGE ( 'NONE', *, *, #3, .F. ) ;
#39 = LINE ( 'NONE', #84, #226 ) ;
#40 = AXIS2_PLACEMENT_3D ( 'NONE', #248, #245, #225 ) ;
#41 = ORIENTED_EDGE ( 'NONE', *, *, #100, .T. ) ;
#42 = DIRECTION ( 'NONE',  ( 1.000000000000000000, 0.0000000000000000000, 0.0000000000000000000 ) ) ;
#43 = ADVANCED_BREP_SHAPE_REPRESENTATION ( 'Micro_BMS-022-2X', ( #63, #234 ), #98 ) ;
#44 = ORIENTED_EDGE ( 'NONE', *, *, #158, .T. ) ;
#45 = FACE_OUTER_BOUND ( 'NONE', #235, .T. ) ;
#46 = DIRECTION ( 'NONE',  ( 1.000000000000000000, 0.0000000000000000000, 0.0000000000000000000 ) ) ;
#47 = DIRECTION ( 'NONE',  ( -1.224646799147353454E-16, -0.0000000000000000000, -1.000000000000000000 ) ) ;
#48 = AXIS2_PLACEMENT_3D ( 'NONE', #205, #129, #9 ) ;
#49 = AXIS2_PLACEMENT_3D ( 'NONE', #115, #216, #285 ) ;
#50 = DIMENSIONAL_EXPONENTS ( 1.000000000000000000, 0.0000000000000000000, 0.0000000000000000000, 0.0000000000000000000, 0.0000000000000000000, 0.0000000000000000000, 0.0000000000000000000 ) ;
#51 = CARTESIAN_POINT ( 'NONE',  ( -0.06250000000000000000, 0.0000000000000000000, 1.500000000000000222 ) ) ;
#52 = DIRECTION ( 'NONE',  ( 0.0000000000000000000, 0.0000000000000000000, 1.000000000000000000 ) ) ;
#53 = FACE_OUTER_BOUND ( 'NONE', #318, .T. ) ;
#54 = ORIENTED_EDGE ( 'NONE', *, *, #139, .T. ) ;
#55 = ADVANCED_FACE ( 'NONE', ( #258 ), #73, .T. ) ;
#56 = ORIENTED_EDGE ( 'NONE', *, *, #158, .F. ) ;
#57 = DIRECTION ( 'NONE',  ( 1.000000000000000000, 0.0000000000000000000, 0.0000000000000000000 ) ) ;
#58 = EDGE_LOOP ( 'NONE', ( #260, #41, #310, #173 ) ) ;
#59 = FILL_AREA_STYLE ('',( #288 ) ) ;
#60 = PRODUCT_RELATED_PRODUCT_CATEGORY ( 'part', '', ( #175 ) ) ;
#61 = ORIENTED_EDGE ( 'NONE', *, *, #150, .T. ) ;
#62 = CARTESIAN_POINT ( 'NONE',  ( 1.345764367583026786E-18, 0.0000000000000000000, 0.01098900000000000050 ) ) ;
#63 = MANIFOLD_SOLID_BREP ( 'Fillet1', #189 ) ;
#64 = DIRECTION ( 'NONE',  ( 1.000000000000000000, 0.0000000000000000000, 0.0000000000000000000 ) ) ;
#65 = ORIENTED_EDGE ( 'NONE', *, *, #178, .F. ) ;
#66 = VERTEX_POINT ( 'NONE', #148 ) ;
#67 = CARTESIAN_POINT ( 'NONE',  ( 4.041334437186266650E-18, 0.0000000000000000000, 0.03300000000000000155 ) ) ;
#68 = ADVANCED_FACE ( 'NONE', ( #45 ), #136, .T. ) ;
#69 = SHAPE_DEFINITION_REPRESENTATION ( #1, #43 ) ;
#70 = CARTESIAN_POINT ( 'NONE',  ( 0.0000000000000000000, 0.0000000000000000000, 1.500000000000000222 ) ) ;
#71 = ORIENTED_EDGE ( 'NONE', *, *, #139, .F. ) ;
#72 = AXIS2_PLACEMENT_3D ( 'NONE', #138, #106, #228 ) ;
#73 = CONICAL_SURFACE ( 'NONE', #131, 0.04750000000000064587, 0.7853981633974457255 ) ;
#74 = ADVANCED_FACE ( 'NONE', ( #196 ), #135, .T. ) ;
#75 = CARTESIAN_POINT ( 'NONE',  ( 0.0000000000000000000, 0.0000000000000000000, 0.0000000000000000000 ) ) ;
#76 = AXIS2_PLACEMENT_3D ( 'NONE', #67, #21, #87 ) ;
#77 = DIRECTION ( 'NONE',  ( 0.0000000000000000000, 0.0000000000000000000, -1.000000000000000000 ) ) ;
#78 = CARTESIAN_POINT ( 'NONE',  ( 0.0000000000000000000, 0.0000000000000000000, 1.500000000000000222 ) ) ;
#79 = AXIS2_PLACEMENT_3D ( 'NONE', #36, #161, #7 ) ;
#80 = CARTESIAN_POINT ( 'NONE',  ( 3.981735749243191540E-17, 0.0000000000000000000, 0.3251333978103262412 ) ) ;
#81 = ORIENTED_EDGE ( 'NONE', *, *, #11, .T. ) ;
#82 = STYLED_ITEM ( 'NONE', ( #37 ), #43 ) ;
#83 = CARTESIAN_POINT ( 'NONE',  ( 0.0000000000000000000, 0.0000000000000000000, 1.500000000000000222 ) ) ;
#84 = CARTESIAN_POINT ( 'NONE',  ( 0.04750000000000064587, 5.817072295950006528E-18, 1.500000000000000222 ) ) ;
#85 =( LENGTH_UNIT ( ) NAMED_UNIT ( * ) SI_UNIT ( $, .METRE. ) );
#86 = VERTEX_POINT ( 'NONE', #174 ) ;
#87 = DIRECTION ( 'NONE',  ( -1.000000000000000000, 0.0000000000000000000, 0.0000000000000000000 ) ) ;
#88 = ORIENTED_EDGE ( 'NONE', *, *, #178, .T. ) ;
#89 = CARTESIAN_POINT ( 'NONE',  ( 0.0000000000000000000, 0.0000000000000000000, 1.500000000000000222 ) ) ;
#90 = AXIS2_PLACEMENT_3D ( 'NONE', #89, #172, #270 ) ;
#91 = LENGTH_MEASURE_WITH_UNIT ( LENGTH_MEASURE( 0.02539999999999999897 ), #85 );
#92 = DIRECTION ( 'NONE',  ( -0.1736481776669311639, 2.126576849575783008E-17, 0.9848077530122080203 ) ) ;
#93 = EDGE_CURVE ( 'NONE', #309, #164, #323, .T. ) ;
#94 = CONICAL_SURFACE ( 'NONE', #134, 0.04750000000000064587, 0.7853981633974457255 ) ;
#95 = ORIENTED_EDGE ( 'NONE', *, *, #100, .F. ) ;
#96 = FACE_OUTER_BOUND ( 'NONE', #58, .T. ) ;
#97 = UNCERTAINTY_MEASURE_WITH_UNIT (LENGTH_MEASURE( 1.000000000000000082E-05 ), #232, 'distance_accuracy_value', 'NONE');
#98 =( GEOMETRIC_REPRESENTATION_CONTEXT ( 3 ) GLOBAL_UNCERTAINTY_ASSIGNED_CONTEXT ( ( #97 ) ) GLOBAL_UNIT_ASSIGNED_CONTEXT ( ( #232, #207, #284 ) ) REPRESENTATION_CONTEXT ( 'NONE', 'WORKASPACE' ) );
#99 = ORIENTED_EDGE ( 'NONE', *, *, #93, .F. ) ;
#100 = EDGE_CURVE ( 'NONE', #164, #320, #243, .T. ) ;
#101 = VECTOR ( 'NONE', #13, 39.37007874015748143 ) ;
#102 = DIMENSIONAL_EXPONENTS ( 1.000000000000000000, 0.0000000000000000000, 0.0000000000000000000, 0.0000000000000000000, 0.0000000000000000000, 0.0000000000000000000, 0.0000000000000000000 ) ;
#103 = ORIENTED_EDGE ( 'NONE', *, *, #143, .T. ) ;
#104 = COLOUR_RGB ( '',0.7921568627450980005, 0.8196078431372548767, 0.9333333333333333481 ) ;
#105 = CARTESIAN_POINT ( 'NONE',  ( -0.06250000000000000000, 0.0000000000000000000, 1.485000000000000764 ) ) ;
#106 = DIRECTION ( 'NONE',  ( 0.0000000000000000000, 0.0000000000000000000, -1.000000000000000000 ) ) ;
#107 = LINE ( 'NONE', #168, #204 ) ;
#108 = FILL_AREA_STYLE_COLOUR ( '', #104 ) ;
#109 = ORIENTED_EDGE ( 'NONE', *, *, #176, .T. ) ;
#110 =( CONVERSION_BASED_UNIT ( 'INCH', #91 ) LENGTH_UNIT ( ) NAMED_UNIT ( #127 ) );
#111 = VERTEX_POINT ( 'NONE', #193 ) ;
#112 = SURFACE_STYLE_FILL_AREA ( #144 ) ;
#113 =( CONVERSION_BASED_UNIT ( 'INCH', #14 ) LENGTH_UNIT ( ) NAMED_UNIT ( #50 ) );
#114 = COLOUR_RGB ( '',0.7921568627450980005, 0.8196078431372548767, 0.9333333333333333481 ) ;
#115 = CARTESIAN_POINT ( 'NONE',  ( 1.345764367583026786E-18, 0.0000000000000000000, 0.01098900000000000050 ) ) ;
#116 = EDGE_LOOP ( 'NONE', ( #192, #279, #54, #273 ) ) ;
#117 = LINE ( 'NONE', #218, #298 ) ;
#118 = APPLICATION_CONTEXT ( 'automotive_design' ) ;
#119 =( NAMED_UNIT ( * ) SI_UNIT ( $, .STERADIAN. ) SOLID_ANGLE_UNIT ( ) );
#120 = CIRCLE ( 'NONE', #253, 0.01098900000000000224 ) ;
#121 = ADVANCED_FACE ( 'NONE', ( #154 ), #149, .T. ) ;
#122 = AXIS2_PLACEMENT_3D ( 'NONE', #80, #159, #227 ) ;
#123 = CARTESIAN_POINT ( 'NONE',  ( 0.0000000000000000000, 0.0000000000000000000, 0.0000000000000000000 ) ) ;
#124 = EDGE_LOOP ( 'NONE', ( #5, #34, #257 ) ) ;
#125 = EDGE_LOOP ( 'NONE', ( #241, #182, #266 ) ) ;
#126 = EDGE_CURVE ( 'NONE', #320, #246, #120, .T. ) ;
#127 = DIMENSIONAL_EXPONENTS ( 1.000000000000000000, 0.0000000000000000000, 0.0000000000000000000, 0.0000000000000000000, 0.0000000000000000000, 0.0000000000000000000, 0.0000000000000000000 ) ;
#128 = DIRECTION ( 'NONE',  ( 1.224646799147353454E-16, 0.0000000000000000000, 1.000000000000000000 ) ) ;
#129 = DIRECTION ( 'NONE',  ( 1.224646799147353454E-16, 0.0000000000000000000, 1.000000000000000000 ) ) ;
#130 = UNCERTAINTY_MEASURE_WITH_UNIT (LENGTH_MEASURE( 1.000000000000000082E-05 ), #113, 'distance_accuracy_value', 'NONE');
#131 = AXIS2_PLACEMENT_3D ( 'NONE', #286, #265, #29 ) ;
#132 = DIRECTION ( 'NONE',  ( 0.0000000000000000000, 0.0000000000000000000, -1.000000000000000000 ) ) ;
#133 = SURFACE_STYLE_FILL_AREA ( #59 ) ;
#134 = AXIS2_PLACEMENT_3D ( 'NONE', #83, #77, #206 ) ;
#135 = CONICAL_SURFACE ( 'NONE', #221, 0.01098900000000000050, 0.1745329251994338637 ) ;
#136 = CYLINDRICAL_SURFACE ( 'NONE', #40, 0.06250000000000000000 ) ;
#137 = ORIENTED_EDGE ( 'NONE', *, *, #176, .F. ) ;
#138 = CARTESIAN_POINT ( 'NONE',  ( 0.0000000000000000000, 0.0000000000000000000, 1.485000000000000764 ) ) ;
#139 = EDGE_CURVE ( 'NONE', #201, #209, #302, .T. ) ;
#140 = DIRECTION ( 'NONE',  ( 1.000000000000000000, 0.0000000000000000000, 0.0000000000000000000 ) ) ;
#141 = FACE_OUTER_BOUND ( 'NONE', #124, .T. ) ;
#142 = VERTEX_POINT ( 'NONE', #223 ) ;
#143 = EDGE_CURVE ( 'NONE', #309, #246, #324, .T. ) ;
#144 = FILL_AREA_STYLE ('',( #108 ) ) ;
#145 = EDGE_LOOP ( 'NONE', ( #99, #44, #61, #212 ) ) ;
#146 = CARTESIAN_POINT ( 'NONE',  ( 1.345764367583026786E-18, 0.0000000000000000000, 0.01098900000000000050 ) ) ;
#147 = EDGE_LOOP ( 'NONE', ( #109, #88 ) ) ;
#148 = CARTESIAN_POINT ( 'NONE',  ( 0.06250000000000004163, 7.654042494670960626E-18, 0.3251333978103262412 ) ) ;
#149 = CYLINDRICAL_SURFACE ( 'NONE', #190, 0.01098900000000000224 ) ;
#150 = EDGE_CURVE ( 'NONE', #209, #66, #152, .T. ) ;
#151 = AXIS2_PLACEMENT_3D ( 'NONE', #255, #132, #57 ) ;
#152 = CIRCLE ( 'NONE', #32, 0.06250000000000000000 ) ;
#153 = EDGE_CURVE ( 'NONE', #142, #246, #315, .T. ) ;
#154 = FACE_OUTER_BOUND ( 'NONE', #195, .T. ) ;
#155 = PRODUCT_DEFINITION_FORMATION_WITH_SPECIFIED_SOURCE ( 'ANY', '', #175, .NOT_KNOWN. ) ;
#156 = APPLICATION_CONTEXT ( 'automotive_design' ) ;
#157 = CARTESIAN_POINT ( 'NONE',  ( 0.04750000000000064587, 6.735557395310482421E-18, 1.500000000000000222 ) ) ;
#158 = EDGE_CURVE ( 'NONE', #309, #209, #117, .T. ) ;
#159 = DIRECTION ( 'NONE',  ( -1.224646799147353454E-16, -0.0000000000000000000, -1.000000000000000000 ) ) ;
#160 =( GEOMETRIC_REPRESENTATION_CONTEXT ( 3 ) GLOBAL_UNCERTAINTY_ASSIGNED_CONTEXT ( ( #130 ) ) GLOBAL_UNIT_ASSIGNED_CONTEXT ( ( #113, #200, #119 ) ) REPRESENTATION_CONTEXT ( 'NONE', 'WORKASPACE' ) );
#161 = DIRECTION ( 'NONE',  ( 0.0000000000000000000, -1.000000000000000000, 0.0000000000000000000 ) ) ;
#162 = ORIENTED_EDGE ( 'NONE', *, *, #317, .T. ) ;
#163 = CARTESIAN_POINT ( 'NONE',  ( 0.0000000000000000000, 0.0000000000000000000, 1.500000000000000222 ) ) ;
#164 = VERTEX_POINT ( 'NONE', #295 ) ;
#165 = FACE_OUTER_BOUND ( 'NONE', #147, .T. ) ;
#166 = AXIS2_PLACEMENT_3D ( 'NONE', #78, #52, #27 ) ;
#167 = SURFACE_STYLE_USAGE ( .BOTH. , #230 ) ;
#168 = CARTESIAN_POINT ( 'NONE',  ( -0.04750000000000064587, 0.0000000000000000000, 1.500000000000000222 ) ) ;
#169 = ORIENTED_EDGE ( 'NONE', *, *, #250, .T. ) ;
#170 = EDGE_CURVE ( 'NONE', #111, #66, #321, .T. ) ;
#171 = DIRECTION ( 'NONE',  ( 1.224646799147353454E-16, 0.0000000000000000000, 1.000000000000000000 ) ) ;
#172 = DIRECTION ( 'NONE',  ( 0.0000000000000000000, 0.0000000000000000000, 1.000000000000000000 ) ) ;
#173 = ORIENTED_EDGE ( 'NONE', *, *, #143, .F. ) ;
#174 = CARTESIAN_POINT ( 'NONE',  ( -0.04750000000000064587, 0.0000000000000000000, 1.500000000000000222 ) ) ;
#175 = PRODUCT ( 'Micro_BMS-022-2X', 'Micro_BMS-022-2X', '', ( #239 ) ) ;
#176 = EDGE_CURVE ( 'NONE', #86, #244, #293, .T. ) ;
#177 = AXIS2_PLACEMENT_3D ( 'NONE', #70, #272, #46 ) ;
#178 = EDGE_CURVE ( 'NONE', #244, #86, #283, .T. ) ;
#179 = CARTESIAN_POINT ( 'NONE',  ( 4.041334437186266650E-18, 0.0000000000000000000, 0.03300000000000000155 ) ) ;
#180 = CIRCLE ( 'NONE', #122, 0.06250000000000000000 ) ;
#181 = CARTESIAN_POINT ( 'NONE',  ( 1.345764367583026786E-18, 0.0000000000000000000, 0.01098900000000000050 ) ) ;
#182 = ORIENTED_EDGE ( 'NONE', *, *, #313, .T. ) ;
#183 = DIRECTION ( 'NONE',  ( 1.224646799147353454E-16, 0.0000000000000000000, 1.000000000000000000 ) ) ;
#184 =( LENGTH_UNIT ( ) NAMED_UNIT ( * ) SI_UNIT ( $, .METRE. ) );
#185 = SPHERICAL_SURFACE ( 'NONE', #23, 0.01098900000000000050 ) ;
#186 = FACE_OUTER_BOUND ( 'NONE', #125, .T. ) ;
#187 = CYLINDRICAL_SURFACE ( 'NONE', #322, 0.06250000000000000000 ) ;
#188 = DIRECTION ( 'NONE',  ( 0.0000000000000000000, 1.000000000000000000, 0.0000000000000000000 ) ) ;
#189 = CLOSED_SHELL ( 'NONE', ( #26, #198, #74, #203, #68, #236, #275, #55, #282, #121, #31 ) ) ;
#190 = AXIS2_PLACEMENT_3D ( 'NONE', #123, #199, #220 ) ;
#191 = PRODUCT_DEFINITION ( 'UNKNOWN', '', #155, #19 ) ;
#192 = ORIENTED_EDGE ( 'NONE', *, *, #170, .F. ) ;
#193 = CARTESIAN_POINT ( 'NONE',  ( 0.06250000000000000000, 7.654042494670956004E-18, 1.485000000000000764 ) ) ;
#194 =( NAMED_UNIT ( * ) SI_UNIT ( $, .STERADIAN. ) SOLID_ANGLE_UNIT ( ) );
#195 = EDGE_LOOP ( 'NONE', ( #95, #169, #103, #162 ) ) ;
#196 = FACE_OUTER_BOUND ( 'NONE', #145, .T. ) ;
#197 = CARTESIAN_POINT ( 'NONE',  ( 0.06250000000000000000, 7.654042494670956004E-18, 1.500000000000000222 ) ) ;
#198 = ADVANCED_FACE ( 'NONE', ( #96 ), #301, .T. ) ;
#199 = DIRECTION ( 'NONE',  ( -1.224646799147353454E-16, -0.0000000000000000000, -1.000000000000000000 ) ) ;
#200 =( NAMED_UNIT ( * ) PLANE_ANGLE_UNIT ( ) SI_UNIT ( $, .RADIAN. ) );
#201 = VERTEX_POINT ( 'NONE', #105 ) ;
#202 = CIRCLE ( 'NONE', #72, 0.06250000000000000000 ) ;
#203 = ADVANCED_FACE ( 'NONE', ( #53 ), #94, .T. ) ;
#204 = VECTOR ( 'NONE', #312, 39.37007874015748143 ) ;
#205 = CARTESIAN_POINT ( 'NONE',  ( 4.041334437186266650E-18, 0.0000000000000000000, 0.03300000000000000155 ) ) ;
#206 = DIRECTION ( 'NONE',  ( -1.000000000000000000, 0.0000000000000000000, 0.0000000000000000000 ) ) ;
#207 =( NAMED_UNIT ( * ) PLANE_ANGLE_UNIT ( ) SI_UNIT ( $, .RADIAN. ) );
#208 = VECTOR ( 'NONE', #25, 39.37007874015748143 ) ;
#209 = VERTEX_POINT ( 'NONE', #304 ) ;
#210 = APPLICATION_PROTOCOL_DEFINITION ( 'draft international standard', 'automotive_design', 1998, #156 ) ;
#211 = ORIENTED_EDGE ( 'NONE', *, *, #3, .T. ) ;
#212 = ORIENTED_EDGE ( 'NONE', *, *, #11, .F. ) ;
#213 = SURFACE_STYLE_USAGE ( .BOTH. , #215 ) ;
#214 = ORIENTED_EDGE ( 'NONE', *, *, #170, .T. ) ;
#215 = SURFACE_SIDE_STYLE ('',( #112 ) ) ;
#216 = DIRECTION ( 'NONE',  ( 0.0000000000000000000, 1.000000000000000000, 0.0000000000000000000 ) ) ;
#217 = ORIENTED_EDGE ( 'NONE', *, *, #307, .T. ) ;
#218 = CARTESIAN_POINT ( 'NONE',  ( -0.01098899999999999530, 1.345764367583026593E-18, 0.03300000000000000155 ) ) ;
#219 = CARTESIAN_POINT ( 'NONE',  ( 0.0000000000000000000, 0.0000000000000000000, 0.0000000000000000000 ) ) ;
#220 = DIRECTION ( 'NONE',  ( -1.000000000000000000, 0.0000000000000000000, 1.224646799147353454E-16 ) ) ;
#221 = AXIS2_PLACEMENT_3D ( 'NONE', #179, #128, #278 ) ;
#222 = MECHANICAL_DESIGN_GEOMETRIC_PRESENTATION_REPRESENTATION (  '', ( #82 ), #305 ) ;
#223 = CARTESIAN_POINT ( 'NONE',  ( 2.018646551374540083E-18, 0.0000000000000000000, 0.0000000000000000000 ) ) ;
#224 = DIRECTION ( 'NONE',  ( -1.224646799147353454E-16, -0.0000000000000000000, -1.000000000000000000 ) ) ;
#225 = DIRECTION ( 'NONE',  ( -1.000000000000000000, 0.0000000000000000000, 0.0000000000000000000 ) ) ;
#226 = VECTOR ( 'NONE', #16, 39.37007874015748143 ) ;
#227 = DIRECTION ( 'NONE',  ( 1.000000000000000000, 0.0000000000000000000, 0.0000000000000000000 ) ) ;
#228 = DIRECTION ( 'NONE',  ( 1.000000000000000000, 0.0000000000000000000, 0.0000000000000000000 ) ) ;
#229 = CARTESIAN_POINT ( 'NONE',  ( -0.01098900000000000050, 0.0000000000000000000, 0.01098900000000000224 ) ) ;
#230 = SURFACE_SIDE_STYLE ('',( #133 ) ) ;
#231 = VECTOR ( 'NONE', #296, 39.37007874015748143 ) ;
#232 =( CONVERSION_BASED_UNIT ( 'INCH', #259 ) LENGTH_UNIT ( ) NAMED_UNIT ( #102 ) );
#233 = LINE ( 'NONE', #292, #101 ) ;
#234 = AXIS2_PLACEMENT_3D ( 'NONE', #219, #291, #64 ) ;
#235 = EDGE_LOOP ( 'NONE', ( #217, #214, #294, #71 ) ) ;
#236 = ADVANCED_FACE ( 'NONE', ( #281 ), #187, .T. ) ;
#237 =( NAMED_UNIT ( * ) PLANE_ANGLE_UNIT ( ) SI_UNIT ( $, .RADIAN. ) );
#238 = SPHERICAL_SURFACE ( 'NONE', #49, 0.01098900000000000050 ) ;
#239 = PRODUCT_CONTEXT ( 'NONE', #156, 'mechanical' ) ;
#240 = DIRECTION ( 'NONE',  ( -0.0000000000000000000, -0.0000000000000000000, -1.000000000000000000 ) ) ;
#241 = ORIENTED_EDGE ( 'NONE', *, *, #153, .F. ) ;
#242 = EDGE_CURVE ( 'NONE', #66, #209, #180, .T. ) ;
#243 = LINE ( 'NONE', #277, #208 ) ;
#244 = VERTEX_POINT ( 'NONE', #157 ) ;
#245 = DIRECTION ( 'NONE',  ( -0.0000000000000000000, -0.0000000000000000000, -1.000000000000000000 ) ) ;
#246 = VERTEX_POINT ( 'NONE', #229 ) ;
#247 = AXIS2_PLACEMENT_3D ( 'NONE', #146, #17, #24 ) ;
#248 = CARTESIAN_POINT ( 'NONE',  ( 0.0000000000000000000, 0.0000000000000000000, 1.500000000000000222 ) ) ;
#249 = DIRECTION ( 'NONE',  ( -1.000000000000000000, 0.0000000000000000000, 1.942175125170811881E-16 ) ) ;
#250 = EDGE_CURVE ( 'NONE', #164, #309, #261, .T. ) ;
#251 = CARTESIAN_POINT ( 'NONE',  ( 4.041334437186266650E-18, 0.0000000000000000000, 0.03300000000000000155 ) ) ;
#252 = CIRCLE ( 'NONE', #79, 0.01098900000000000050 ) ;
#253 = AXIS2_PLACEMENT_3D ( 'NONE', #181, #171, #249 ) ;
#254 = STYLED_ITEM ( 'NONE', ( #264 ), #63 ) ;
#255 = CARTESIAN_POINT ( 'NONE',  ( 0.0000000000000000000, 0.0000000000000000000, 1.485000000000000764 ) ) ;
#256 = CARTESIAN_POINT ( 'NONE',  ( 1.345764367583026786E-18, 0.0000000000000000000, 0.01098900000000000050 ) ) ;
#257 = ORIENTED_EDGE ( 'NONE', *, *, #126, .F. ) ;
#258 = FACE_OUTER_BOUND ( 'NONE', #290, .T. ) ;
#259 = LENGTH_MEASURE_WITH_UNIT ( LENGTH_MEASURE( 0.02539999999999999897 ), #184 );
#260 = ORIENTED_EDGE ( 'NONE', *, *, #93, .T. ) ;
#261 = CIRCLE ( 'NONE', #33, 0.01098900000000000050 ) ;
#262 = PLANE ( 'NONE',  #166 ) ;
#263 = EDGE_CURVE ( 'NONE', #111, #201, #303, .T. ) ;
#264 = PRESENTATION_STYLE_ASSIGNMENT (( #167 ) ) ;
#265 = DIRECTION ( 'NONE',  ( 0.0000000000000000000, 0.0000000000000000000, -1.000000000000000000 ) ) ;
#266 = ORIENTED_EDGE ( 'NONE', *, *, #317, .F. ) ;
#267 = EDGE_LOOP ( 'NONE', ( #56, #271, #81, #297 ) ) ;
#268 = CIRCLE ( 'NONE', #22, 0.01098900000000000224 ) ;
#269 = DIRECTION ( 'NONE',  ( -1.224646799147353454E-16, -0.0000000000000000000, -1.000000000000000000 ) ) ;
#270 = DIRECTION ( 'NONE',  ( 1.000000000000000000, 0.0000000000000000000, 0.0000000000000000000 ) ) ;
#271 = ORIENTED_EDGE ( 'NONE', *, *, #250, .F. ) ;
#272 = DIRECTION ( 'NONE',  ( 0.0000000000000000000, 0.0000000000000000000, 1.000000000000000000 ) ) ;
#273 = ORIENTED_EDGE ( 'NONE', *, *, #242, .F. ) ;
#274 = CONICAL_SURFACE ( 'NONE', #48, 0.01098900000000000050, 0.1745329251994338637 ) ;
#275 = ADVANCED_FACE ( 'NONE', ( #165 ), #262, .T. ) ;
#276 = VECTOR ( 'NONE', #240, 39.37007874015748143 ) ;
#277 = CARTESIAN_POINT ( 'NONE',  ( 0.01098900000000000224, 1.345764367583026786E-18, -1.345764367583026979E-18 ) ) ;
#278 = DIRECTION ( 'NONE',  ( 1.000000000000000000, 0.0000000000000000000, 0.0000000000000000000 ) ) ;
#279 = ORIENTED_EDGE ( 'NONE', *, *, #263, .T. ) ;
#280 = DIRECTION ( 'NONE',  ( -1.000000000000000000, 0.0000000000000000000, 1.942175125170811881E-16 ) ) ;
#281 = FACE_OUTER_BOUND ( 'NONE', #116, .T. ) ;
#282 = ADVANCED_FACE ( 'NONE', ( #308 ), #274, .T. ) ;
#283 = CIRCLE ( 'NONE', #177, 0.04750000000000064587 ) ;
#284 =( NAMED_UNIT ( * ) SI_UNIT ( $, .STERADIAN. ) SOLID_ANGLE_UNIT ( ) );
#285 = DIRECTION ( 'NONE',  ( 1.000000000000000000, 0.0000000000000000000, 0.0000000000000000000 ) ) ;
#286 = CARTESIAN_POINT ( 'NONE',  ( 0.0000000000000000000, 0.0000000000000000000, 1.500000000000000222 ) ) ;
#287 = DIRECTION ( 'NONE',  ( -1.000000000000000000, 0.0000000000000000000, 0.0000000000000000000 ) ) ;
#288 = FILL_AREA_STYLE_COLOUR ( '', #114 ) ;
#289 = AXIS2_PLACEMENT_3D ( 'NONE', #75, #224, #4 ) ;
#290 = EDGE_LOOP ( 'NONE', ( #12, #137, #211, #325 ) ) ;
#291 = DIRECTION ( 'NONE',  ( 0.0000000000000000000, 0.0000000000000000000, 1.000000000000000000 ) ) ;
#292 = CARTESIAN_POINT ( 'NONE',  ( 0.01098900000000000397, 0.0000000000000000000, 0.03300000000000000155 ) ) ;
#293 = CIRCLE ( 'NONE', #90, 0.04750000000000064587 ) ;
#294 = ORIENTED_EDGE ( 'NONE', *, *, #150, .F. ) ;
#295 = CARTESIAN_POINT ( 'NONE',  ( 0.01098900000000000397, 0.0000000000000000000, 0.03300000000000000155 ) ) ;
#296 = DIRECTION ( 'NONE',  ( -0.0000000000000000000, -0.0000000000000000000, -1.000000000000000000 ) ) ;
#297 = ORIENTED_EDGE ( 'NONE', *, *, #242, .T. ) ;
#298 = VECTOR ( 'NONE', #92, 39.37007874015747433 ) ;
#299 = UNCERTAINTY_MEASURE_WITH_UNIT (LENGTH_MEASURE( 1.000000000000000082E-05 ), #110, 'distance_accuracy_value', 'NONE');
#300 = PRESENTATION_LAYER_ASSIGNMENT (  '', '', ( #254 ) ) ;
#301 = CYLINDRICAL_SURFACE ( 'NONE', #289, 0.01098900000000000224 ) ;
#302 = LINE ( 'NONE', #51, #276 ) ;
#303 = CIRCLE ( 'NONE', #151, 0.06250000000000000000 ) ;
#304 = CARTESIAN_POINT ( 'NONE',  ( -0.06249999999999995837, 0.0000000000000000000, 0.3251333978103262412 ) ) ;
#305 =( GEOMETRIC_REPRESENTATION_CONTEXT ( 3 ) GLOBAL_UNCERTAINTY_ASSIGNED_CONTEXT ( ( #299 ) ) GLOBAL_UNIT_ASSIGNED_CONTEXT ( ( #110, #237, #194 ) ) REPRESENTATION_CONTEXT ( 'NONE', 'WORKASPACE' ) );
#306 = CARTESIAN_POINT ( 'NONE',  ( 0.01098900000000000397, 1.345764367583026786E-18, 0.01098899999999999703 ) ) ;
#307 = EDGE_CURVE ( 'NONE', #201, #111, #202, .T. ) ;
#308 = FACE_OUTER_BOUND ( 'NONE', #267, .T. ) ;
#309 = VERTEX_POINT ( 'NONE', #6 ) ;
#310 = ORIENTED_EDGE ( 'NONE', *, *, #126, .T. ) ;
#311 = DIRECTION ( 'NONE',  ( -0.0000000000000000000, -0.0000000000000000000, -1.000000000000000000 ) ) ;
#312 = DIRECTION ( 'NONE',  ( -0.7071067811865456854, 0.0000000000000000000, -0.7071067811865493491 ) ) ;
#313 = EDGE_CURVE ( 'NONE', #142, #320, #252, .T. ) ;
#314 =( LENGTH_UNIT ( ) NAMED_UNIT ( * ) SI_UNIT ( $, .METRE. ) );
#315 = CIRCLE ( 'NONE', #247, 0.01098900000000000050 ) ;
#316 = PRESENTATION_LAYER_ASSIGNMENT (  '', '', ( #82 ) ) ;
#317 = EDGE_CURVE ( 'NONE', #246, #320, #268, .T. ) ;
#318 = EDGE_LOOP ( 'NONE', ( #65, #18, #10, #38 ) ) ;
#319 = APPLICATION_PROTOCOL_DEFINITION ( 'draft international standard', 'automotive_design', 1998, #118 ) ;
#320 = VERTEX_POINT ( 'NONE', #306 ) ;
#321 = LINE ( 'NONE', #197, #231 ) ;
#322 = AXIS2_PLACEMENT_3D ( 'NONE', #163, #311, #287 ) ;
#323 = CIRCLE ( 'NONE', #76, 0.01098900000000000050 ) ;
#324 = LINE ( 'NONE', #20, #8 ) ;
#325 = ORIENTED_EDGE ( 'NONE', *, *, #263, .F. ) ;
ENDSEC;
END-ISO-10303-21;
