ISO-10303-21;
HEADER;
FILE_DESCRIPTION (( 'STEP AP214' ),
    '1' );
FILE_NAME ('Micro_KC-125-190-030.STEP',
    '2021-09-03T19:06:57',
    ( '' ),
    ( '' ),
    'SwSTEP 2.0',
    'SolidWorks 2020',
    '' );
FILE_SCHEMA (( 'AUTOMOTIVE_DESIGN' ));
ENDSEC;

DATA;
#1 = ADVANCED_FACE ( 'NONE', ( #71 ), #130, .T. ) ;
#2 = LINE ( 'NONE', #91, #127 ) ;
#3 = AXIS2_PLACEMENT_3D ( 'NONE', #118, #357, #95 ) ;
#4 = ORIENTED_EDGE ( 'NONE', *, *, #324, .F. ) ;
#5 = STYLED_ITEM ( 'NONE', ( #90 ), #270 ) ;
#6 = ORIENTED_EDGE ( 'NONE', *, *, #324, .T. ) ;
#7 = ORIENTED_EDGE ( 'NONE', *, *, #42, .T. ) ;
#8 = FACE_OUTER_BOUND ( 'NONE', #34, .T. ) ;
#9 = AXIS2_PLACEMENT_3D ( 'NONE', #170, #106, #290 ) ;
#10 = VERTEX_POINT ( 'NONE', #288 ) ;
#11 = DIRECTION ( 'NONE',  ( 0.0000000000000000000, 0.0000000000000000000, 1.000000000000000000 ) ) ;
#12 = DIRECTION ( 'NONE',  ( -0.0000000000000000000, -0.0000000000000000000, -1.000000000000000000 ) ) ;
#13 = AXIS2_PLACEMENT_3D ( 'NONE', #235, #180, #179 ) ;
#14 = CIRCLE ( 'NONE', #88, 0.04750000000000064587 ) ;
#15 = SHAPE_DEFINITION_REPRESENTATION ( #131, #172 ) ;
#16 = PLANE ( 'NONE',  #378 ) ;
#17 = DIRECTION ( 'NONE',  ( 0.0000000000000000000, 0.0000000000000000000, 1.000000000000000000 ) ) ;
#18 = ADVANCED_FACE ( 'NONE', ( #8 ), #225, .T. ) ;
#19 = AXIS2_PLACEMENT_3D ( 'NONE', #116, #93, #89 ) ;
#20 = CONICAL_SURFACE ( 'NONE', #257, 0.03100000000000001713, 0.7853981633974502774 ) ;
#21 = CARTESIAN_POINT ( 'NONE',  ( -0.03100000000000001713, 3.796405077356796551E-18, 0.1899999999999999745 ) ) ;
#22 = DIRECTION ( 'NONE',  ( -0.0000000000000000000, -0.0000000000000000000, -1.000000000000000000 ) ) ;
#23 = CARTESIAN_POINT ( 'NONE',  ( 0.0000000000000000000, 0.0000000000000000000, 1.500000000000000222 ) ) ;
#24 = DIRECTION ( 'NONE',  ( -0.0000000000000000000, -0.0000000000000000000, -1.000000000000000000 ) ) ;
#25 = AXIS2_PLACEMENT_3D ( 'NONE', #41, #12, #368 ) ;
#26 = EDGE_LOOP ( 'NONE', ( #336, #279, #27, #223 ) ) ;
#27 = ORIENTED_EDGE ( 'NONE', *, *, #330, .T. ) ;
#28 = DIRECTION ( 'NONE',  ( 1.000000000000000000, 0.0000000000000000000, 0.0000000000000000000 ) ) ;
#29 = EDGE_LOOP ( 'NONE', ( #187, #7, #301, #66 ) ) ;
#30 = APPLICATION_PROTOCOL_DEFINITION ( 'draft international standard', 'automotive_design', 1998, #186 ) ;
#31 = PRESENTATION_LAYER_ASSIGNMENT (  '', '', ( #215 ) ) ;
#32 = VERTEX_POINT ( 'NONE', #198 ) ;
#33 = CARTESIAN_POINT ( 'NONE',  ( -0.06250000000000000000, 0.0000000000000000000, 1.500000000000000222 ) ) ;
#34 = EDGE_LOOP ( 'NONE', ( #248, #228, #375, #160 ) ) ;
#35 = EDGE_LOOP ( 'NONE', ( #83, #129 ) ) ;
#36 = PRESENTATION_STYLE_ASSIGNMENT (( #275 ) ) ;
#37 = ORIENTED_EDGE ( 'NONE', *, *, #87, .T. ) ;
#38 = MECHANICAL_DESIGN_GEOMETRIC_PRESENTATION_REPRESENTATION (  '', ( #5 ), #310 ) ;
#39 = CONICAL_SURFACE ( 'NONE', #264, 0.04750000000000064587, 0.7853981633974457255 ) ;
#40 = LINE ( 'NONE', #33, #75 ) ;
#41 = CARTESIAN_POINT ( 'NONE',  ( 0.0000000000000000000, 0.0000000000000000000, 0.03000000000000000583 ) ) ;
#42 = EDGE_CURVE ( 'NONE', #337, #92, #144, .T. ) ;
#43 = DIRECTION ( 'NONE',  ( -0.0000000000000000000, -0.0000000000000000000, -1.000000000000000000 ) ) ;
#44 = DIRECTION ( 'NONE',  ( 1.000000000000000000, 0.0000000000000000000, 0.0000000000000000000 ) ) ;
#45 = LINE ( 'NONE', #53, #65 ) ;
#46 = CIRCLE ( 'NONE', #244, 0.06250000000000000000 ) ;
#47 = CARTESIAN_POINT ( 'NONE',  ( 0.0000000000000000000, 0.0000000000000000000, 0.0000000000000000000 ) ) ;
#48 = DIRECTION ( 'NONE',  ( -1.000000000000000000, 0.0000000000000000000, 0.0000000000000000000 ) ) ;
#49 = EDGE_CURVE ( 'NONE', #304, #10, #345, .T. ) ;
#50 = ORIENTED_EDGE ( 'NONE', *, *, #313, .T. ) ;
#51 = FACE_OUTER_BOUND ( 'NONE', #307, .T. ) ;
#52 = CIRCLE ( 'NONE', #305, 0.06250000000000000000 ) ;
#53 = CARTESIAN_POINT ( 'NONE',  ( 0.06250000000000000000, 7.654042494670956004E-18, 1.500000000000000222 ) ) ;
#54 = CYLINDRICAL_SURFACE ( 'NONE', #13, 0.06250000000000000000 ) ;
#55 = ORIENTED_EDGE ( 'NONE', *, *, #291, .F. ) ;
#56 = CIRCLE ( 'NONE', #325, 0.06250000000000000000 ) ;
#57 = CARTESIAN_POINT ( 'NONE',  ( 0.0000000000000000000, 0.0000000000000000000, 0.0000000000000000000 ) ) ;
#58 = ORIENTED_EDGE ( 'NONE', *, *, #210, .F. ) ;
#59 = CARTESIAN_POINT ( 'NONE',  ( 0.0000000000000000000, 0.0000000000000000000, 0.0000000000000000000 ) ) ;
#60 = CARTESIAN_POINT ( 'NONE',  ( -0.03100000000000000325, 0.0000000000000000000, 0.03000000000000000583 ) ) ;
#61 = ORIENTED_EDGE ( 'NONE', *, *, #146, .F. ) ;
#62 = ADVANCED_FACE ( 'NONE', ( #286 ), #20, .T. ) ;
#63 = CARTESIAN_POINT ( 'NONE',  ( 0.0000000000000000000, 0.0000000000000000000, 0.0000000000000000000 ) ) ;
#64 = DIRECTION ( 'NONE',  ( 1.000000000000000000, 0.0000000000000000000, 0.0000000000000000000 ) ) ;
#65 = VECTOR ( 'NONE', #346, 39.37007874015748143 ) ;
#66 = ORIENTED_EDGE ( 'NONE', *, *, #250, .F. ) ;
#67 = CARTESIAN_POINT ( 'NONE',  ( -0.04750000000000064587, 0.0000000000000000000, 1.500000000000000222 ) ) ;
#68 = EDGE_LOOP ( 'NONE', ( #111, #207, #276, #184 ) ) ;
#69 = DIMENSIONAL_EXPONENTS ( 1.000000000000000000, 0.0000000000000000000, 0.0000000000000000000, 0.0000000000000000000, 0.0000000000000000000, 0.0000000000000000000, 0.0000000000000000000 ) ;
#70 = DIRECTION ( 'NONE',  ( 0.0000000000000000000, 0.0000000000000000000, -1.000000000000000000 ) ) ;
#71 = FACE_OUTER_BOUND ( 'NONE', #115, .T. ) ;
#72 = CONICAL_SURFACE ( 'NONE', #274, 0.04750000000000064587, 0.7853981633974457255 ) ;
#73 = EDGE_CURVE ( 'NONE', #327, #337, #256, .T. ) ;
#74 = AXIS2_PLACEMENT_3D ( 'NONE', #263, #139, #347 ) ;
#75 = VECTOR ( 'NONE', #192, 39.37007874015748143 ) ;
#76 = ORIENTED_EDGE ( 'NONE', *, *, #212, .F. ) ;
#77 = PLANE ( 'NONE',  #9 ) ;
#78 = DIRECTION ( 'NONE',  ( -0.0000000000000000000, -0.0000000000000000000, -1.000000000000000000 ) ) ;
#79 = EDGE_CURVE ( 'NONE', #164, #240, #182, .T. ) ;
#80 = DIRECTION ( 'NONE',  ( -1.000000000000000000, 0.0000000000000000000, 0.0000000000000000000 ) ) ;
#81 = ORIENTED_EDGE ( 'NONE', *, *, #231, .T. ) ;
#82 = CARTESIAN_POINT ( 'NONE',  ( 0.0000000000000000000, 0.0000000000000000000, 1.500000000000000222 ) ) ;
#83 = ORIENTED_EDGE ( 'NONE', *, *, #79, .F. ) ;
#84 = APPLICATION_PROTOCOL_DEFINITION ( 'draft international standard', 'automotive_design', 1998, #308 ) ;
#85 = UNCERTAINTY_MEASURE_WITH_UNIT (LENGTH_MEASURE( 1.000000000000000082E-05 ), #104, 'distance_accuracy_value', 'NONE');
#86 = DIRECTION ( 'NONE',  ( -0.0000000000000000000, -0.0000000000000000000, -1.000000000000000000 ) ) ;
#87 = EDGE_CURVE ( 'NONE', #362, #327, #14, .T. ) ;
#88 = AXIS2_PLACEMENT_3D ( 'NONE', #191, #360, #306 ) ;
#89 = DIRECTION ( 'NONE',  ( -1.000000000000000000, 0.0000000000000000000, 0.0000000000000000000 ) ) ;
#90 = PRESENTATION_STYLE_ASSIGNMENT (( #245 ) ) ;
#91 = CARTESIAN_POINT ( 'NONE',  ( 0.03100000000000000672, 3.796405077356795780E-18, 0.0000000000000000000 ) ) ;
#92 = VERTEX_POINT ( 'NONE', #161 ) ;
#93 = DIRECTION ( 'NONE',  ( -0.0000000000000000000, -0.0000000000000000000, -1.000000000000000000 ) ) ;
#94 = ORIENTED_EDGE ( 'NONE', *, *, #231, .F. ) ;
#95 = DIRECTION ( 'NONE',  ( -1.000000000000000000, 0.0000000000000000000, 0.0000000000000000000 ) ) ;
#96 = EDGE_LOOP ( 'NONE', ( #37, #50 ) ) ;
#97 = FILL_AREA_STYLE_COLOUR ( '', #363 ) ;
#98 = CARTESIAN_POINT ( 'NONE',  ( 0.0000000000000000000, 0.0000000000000000000, 0.1899999999999999745 ) ) ;
#99 = ORIENTED_EDGE ( 'NONE', *, *, #309, .F. ) ;
#100 = CARTESIAN_POINT ( 'NONE',  ( 0.06250000000000000000, 7.654042494670956004E-18, 0.0000000000000000000 ) ) ;
#101 = DIRECTION ( 'NONE',  ( 1.000000000000000000, 0.0000000000000000000, 0.0000000000000000000 ) ) ;
#102 = FILL_AREA_STYLE ('',( #97 ) ) ;
#103 = DIRECTION ( 'NONE',  ( 0.0000000000000000000, 0.0000000000000000000, 1.000000000000000000 ) ) ;
#104 =( CONVERSION_BASED_UNIT ( 'INCH', #128 ) LENGTH_UNIT ( ) NAMED_UNIT ( #356 ) );
#105 = CARTESIAN_POINT ( 'NONE',  ( 0.04750000000000064587, 5.817072295950006528E-18, 1.500000000000000222 ) ) ;
#106 = DIRECTION ( 'NONE',  ( 0.0000000000000000000, 0.0000000000000000000, 1.000000000000000000 ) ) ;
#107 = CARTESIAN_POINT ( 'NONE',  ( 0.0000000000000000000, 0.0000000000000000000, 1.500000000000000222 ) ) ;
#108 = LINE ( 'NONE', #21, #216 ) ;
#109 = MECHANICAL_DESIGN_GEOMETRIC_PRESENTATION_REPRESENTATION (  '', ( #215 ), #262 ) ;
#110 = DIRECTION ( 'NONE',  ( -0.0000000000000000000, -0.0000000000000000000, -1.000000000000000000 ) ) ;
#111 = ORIENTED_EDGE ( 'NONE', *, *, #73, .F. ) ;
#112 = FACE_OUTER_BOUND ( 'NONE', #117, .T. ) ;
#113 = SURFACE_SIDE_STYLE ('',( #239 ) ) ;
#114 = CARTESIAN_POINT ( 'NONE',  ( 0.0000000000000000000, 0.0000000000000000000, 0.1899999999999999745 ) ) ;
#115 = EDGE_LOOP ( 'NONE', ( #76, #193, #81, #329 ) ) ;
#116 = CARTESIAN_POINT ( 'NONE',  ( 0.0000000000000000000, 0.0000000000000000000, 0.03000000000000000583 ) ) ;
#117 = EDGE_LOOP ( 'NONE', ( #241, #99 ) ) ;
#118 = CARTESIAN_POINT ( 'NONE',  ( 0.0000000000000000000, 0.0000000000000000000, 0.02999999999999999542 ) ) ;
#119 = CIRCLE ( 'NONE', #340, 0.03100000000000001713 ) ;
#120 = EDGE_CURVE ( 'NONE', #293, #304, #126, .T. ) ;
#121 = VERTEX_POINT ( 'NONE', #259 ) ;
#122 =( LENGTH_UNIT ( ) NAMED_UNIT ( * ) SI_UNIT ( $, .METRE. ) );
#123 = ADVANCED_FACE ( 'NONE', ( #174 ), #371, .T. ) ;
#124 = VERTEX_POINT ( 'NONE', #374 ) ;
#125 = DIRECTION ( 'NONE',  ( -1.000000000000000000, 0.0000000000000000000, 0.0000000000000000000 ) ) ;
#126 = LINE ( 'NONE', #249, #197 ) ;
#127 = VECTOR ( 'NONE', #323, 39.37007874015748143 ) ;
#128 = LENGTH_MEASURE_WITH_UNIT ( LENGTH_MEASURE( 0.02539999999999999897 ), #122 );
#129 = ORIENTED_EDGE ( 'NONE', *, *, #315, .F. ) ;
#130 = CONICAL_SURFACE ( 'NONE', #190, 0.03100000000000001713, 0.7853981633974502774 ) ;
#131 = PRODUCT_DEFINITION_SHAPE ( 'NONE', 'NONE',  #261 ) ;
#132 = FACE_OUTER_BOUND ( 'NONE', #68, .T. ) ;
#133 = ORIENTED_EDGE ( 'NONE', *, *, #49, .F. ) ;
#134 = EDGE_CURVE ( 'NONE', #124, #366, #52, .T. ) ;
#135 =( NAMED_UNIT ( * ) SI_UNIT ( $, .STERADIAN. ) SOLID_ANGLE_UNIT ( ) );
#136 = DIRECTION ( 'NONE',  ( 1.000000000000000000, 0.0000000000000000000, 0.0000000000000000000 ) ) ;
#137 = DIRECTION ( 'NONE',  ( -1.000000000000000000, 0.0000000000000000000, 0.0000000000000000000 ) ) ;
#138 = PRODUCT_DEFINITION_FORMATION_WITH_SPECIFIED_SOURCE ( 'ANY', '', #331, .NOT_KNOWN. ) ;
#139 = DIRECTION ( 'NONE',  ( 0.0000000000000000000, 0.0000000000000000000, -1.000000000000000000 ) ) ;
#140 = FACE_OUTER_BOUND ( 'NONE', #96, .T. ) ;
#141 = CARTESIAN_POINT ( 'NONE',  ( 0.0000000000000000000, 0.0000000000000000000, 0.0000000000000000000 ) ) ;
#142 = AXIS2_PLACEMENT_3D ( 'NONE', #63, #162, #44 ) ;
#143 = ORIENTED_EDGE ( 'NONE', *, *, #201, .T. ) ;
#144 = CIRCLE ( 'NONE', #282, 0.06250000000000000000 ) ;
#145 = CIRCLE ( 'NONE', #295, 0.06250000000000000000 ) ;
#146 = EDGE_CURVE ( 'NONE', #92, #32, #230, .T. ) ;
#147 = UNCERTAINTY_MEASURE_WITH_UNIT (LENGTH_MEASURE( 1.000000000000000082E-05 ), #153, 'distance_accuracy_value', 'NONE');
#148 = LINE ( 'NONE', #234, #232 ) ;
#149 = DIRECTION ( 'NONE',  ( -1.000000000000000000, 0.0000000000000000000, 0.0000000000000000000 ) ) ;
#150 = DIRECTION ( 'NONE',  ( 0.0000000000000000000, 0.0000000000000000000, -1.000000000000000000 ) ) ;
#151 = EDGE_CURVE ( 'NONE', #240, #366, #45, .T. ) ;
#152 = VECTOR ( 'NONE', #372, 39.37007874015748143 ) ;
#153 =( CONVERSION_BASED_UNIT ( 'INCH', #350 ) LENGTH_UNIT ( ) NAMED_UNIT ( #69 ) );
#154 =( NAMED_UNIT ( * ) PLANE_ANGLE_UNIT ( ) SI_UNIT ( $, .RADIAN. ) );
#155 = EDGE_LOOP ( 'NONE', ( #173, #143, #326, #61 ) ) ;
#156 =( LENGTH_UNIT ( ) NAMED_UNIT ( * ) SI_UNIT ( $, .METRE. ) );
#157 = ORIENTED_EDGE ( 'NONE', *, *, #49, .T. ) ;
#158 = ADVANCED_FACE ( 'NONE', ( #51 ), #342, .T. ) ;
#159 =( LENGTH_UNIT ( ) NAMED_UNIT ( * ) SI_UNIT ( $, .METRE. ) );
#160 = ORIENTED_EDGE ( 'NONE', *, *, #330, .F. ) ;
#161 = CARTESIAN_POINT ( 'NONE',  ( -0.06250000000000000000, 0.0000000000000000000, 1.485000000000000764 ) ) ;
#162 = DIRECTION ( 'NONE',  ( 0.0000000000000000000, 0.0000000000000000000, 1.000000000000000000 ) ) ;
#163 =( CONVERSION_BASED_UNIT ( 'INCH', #335 ) LENGTH_UNIT ( ) NAMED_UNIT ( #247 ) );
#164 = VERTEX_POINT ( 'NONE', #376 ) ;
#165 = EDGE_LOOP ( 'NONE', ( #157, #367 ) ) ;
#166 = EDGE_LOOP ( 'NONE', ( #196, #269, #319, #58 ) ) ;
#167 = PRODUCT_CONTEXT ( 'NONE', #186, 'mechanical' ) ;
#168 = PRODUCT_DEFINITION_CONTEXT ( 'detailed design', #308, 'design' ) ;
#169 = CARTESIAN_POINT ( 'NONE',  ( 0.06250000000000001388, 7.654042494670957545E-18, 0.02999999999999999542 ) ) ;
#170 = CARTESIAN_POINT ( 'NONE',  ( 0.0000000000000000000, 0.0000000000000000000, 0.0000000000000000000 ) ) ;
#171 = LINE ( 'NONE', #233, #364 ) ;
#172 = ADVANCED_BREP_SHAPE_REPRESENTATION ( 'Micro_KC-125-190-030', ( #270, #142 ), #280 ) ;
#173 = ORIENTED_EDGE ( 'NONE', *, *, #224, .T. ) ;
#174 = FACE_OUTER_BOUND ( 'NONE', #155, .T. ) ;
#175 = AXIS2_PLACEMENT_3D ( 'NONE', #302, #322, #28 ) ;
#176 = COLOUR_RGB ( '',0.7921568627450980005, 0.8196078431372548767, 0.9333333333333333481 ) ;
#177 = UNCERTAINTY_MEASURE_WITH_UNIT (LENGTH_MEASURE( 1.000000000000000082E-05 ), #163, 'distance_accuracy_value', 'NONE');
#178 = CARTESIAN_POINT ( 'NONE',  ( 0.06250000000000001388, 0.0000000000000000000, 0.02999999999999999889 ) ) ;
#179 = DIRECTION ( 'NONE',  ( -1.000000000000000000, 0.0000000000000000000, 0.0000000000000000000 ) ) ;
#180 = DIRECTION ( 'NONE',  ( -0.0000000000000000000, -0.0000000000000000000, -1.000000000000000000 ) ) ;
#181 = ADVANCED_FACE ( 'NONE', ( #140 ), #16, .T. ) ;
#182 = CIRCLE ( 'NONE', #209, 0.06250000000000001388 ) ;
#183 = DIRECTION ( 'NONE',  ( 1.000000000000000000, 0.0000000000000000000, 0.0000000000000000000 ) ) ;
#184 = ORIENTED_EDGE ( 'NONE', *, *, #42, .F. ) ;
#185 = DIRECTION ( 'NONE',  ( 0.0000000000000000000, 0.0000000000000000000, 1.000000000000000000 ) ) ;
#186 = APPLICATION_CONTEXT ( 'automotive_design' ) ;
#187 = ORIENTED_EDGE ( 'NONE', *, *, #201, .F. ) ;
#188 = ADVANCED_FACE ( 'NONE', ( #112 ), #77, .F. ) ;
#189 = DIRECTION ( 'NONE',  ( 1.000000000000000000, 0.0000000000000000000, 0.0000000000000000000 ) ) ;
#190 = AXIS2_PLACEMENT_3D ( 'NONE', #283, #103, #101 ) ;
#191 = CARTESIAN_POINT ( 'NONE',  ( 0.0000000000000000000, 0.0000000000000000000, 1.500000000000000222 ) ) ;
#192 = DIRECTION ( 'NONE',  ( -0.0000000000000000000, -0.0000000000000000000, -1.000000000000000000 ) ) ;
#193 = ORIENTED_EDGE ( 'NONE', *, *, #255, .F. ) ;
#194 = DIRECTION ( 'NONE',  ( -0.0000000000000000000, -0.0000000000000000000, -1.000000000000000000 ) ) ;
#195 = PRODUCT_RELATED_PRODUCT_CATEGORY ( 'part', '', ( #331 ) ) ;
#196 = ORIENTED_EDGE ( 'NONE', *, *, #313, .F. ) ;
#197 = VECTOR ( 'NONE', #78, 39.37007874015748143 ) ;
#198 = CARTESIAN_POINT ( 'NONE',  ( -0.06250000000000000000, 0.0000000000000000000, 0.2214999999999998359 ) ) ;
#199 = CARTESIAN_POINT ( 'NONE',  ( 0.0000000000000000000, 0.0000000000000000000, 1.500000000000000222 ) ) ;
#200 = DIRECTION ( 'NONE',  ( -0.0000000000000000000, -0.0000000000000000000, -1.000000000000000000 ) ) ;
#201 = EDGE_CURVE ( 'NONE', #337, #121, #260, .T. ) ;
#202 = CARTESIAN_POINT ( 'NONE',  ( 0.06250000000000000000, 7.654042494670956004E-18, 1.500000000000000222 ) ) ;
#203 = DIRECTION ( 'NONE',  ( -0.0000000000000000000, -0.0000000000000000000, -1.000000000000000000 ) ) ;
#204 = AXIS2_PLACEMENT_3D ( 'NONE', #294, #86, #48 ) ;
#205 = FACE_OUTER_BOUND ( 'NONE', #29, .T. ) ;
#206 = DIRECTION ( 'NONE',  ( 1.000000000000000000, 0.0000000000000000000, -0.0000000000000000000 ) ) ;
#207 = ORIENTED_EDGE ( 'NONE', *, *, #87, .F. ) ;
#208 = FACE_BOUND ( 'NONE', #165, .T. ) ;
#209 = AXIS2_PLACEMENT_3D ( 'NONE', #312, #43, #137 ) ;
#210 = EDGE_CURVE ( 'NONE', #362, #92, #171, .T. ) ;
#211 = FACE_OUTER_BOUND ( 'NONE', #272, .T. ) ;
#212 = EDGE_CURVE ( 'NONE', #293, #32, #108, .T. ) ;
#213 = FACE_OUTER_BOUND ( 'NONE', #26, .T. ) ;
#214 =( NAMED_UNIT ( * ) SI_UNIT ( $, .STERADIAN. ) SOLID_ANGLE_UNIT ( ) );
#215 = STYLED_ITEM ( 'NONE', ( #36 ), #172 ) ;
#216 = VECTOR ( 'NONE', #229, 39.37007874015748143 ) ;
#217 = CARTESIAN_POINT ( 'NONE',  ( -0.03100000000000001713, 5.725223786013877433E-18, 0.1899999999999999745 ) ) ;
#218 = ORIENTED_EDGE ( 'NONE', *, *, #277, .T. ) ;
#219 = CARTESIAN_POINT ( 'NONE',  ( 0.0000000000000000000, 0.0000000000000000000, 0.1899999999999999745 ) ) ;
#220 = ORIENTED_EDGE ( 'NONE', *, *, #358, .T. ) ;
#221 = EDGE_LOOP ( 'NONE', ( #4, #254, #220, #94 ) ) ;
#222 = ADVANCED_FACE ( 'NONE', ( #205 ), #318, .T. ) ;
#223 = ORIENTED_EDGE ( 'NONE', *, *, #134, .T. ) ;
#224 = EDGE_CURVE ( 'NONE', #92, #337, #243, .T. ) ;
#225 = CYLINDRICAL_SURFACE ( 'NONE', #369, 0.06250000000000000000 ) ;
#226 = SURFACE_SIDE_STYLE ('',( #361 ) ) ;
#227 = CARTESIAN_POINT ( 'NONE',  ( 0.0000000000000000000, 0.0000000000000000000, 1.500000000000000222 ) ) ;
#228 = ORIENTED_EDGE ( 'NONE', *, *, #151, .T. ) ;
#229 = DIRECTION ( 'NONE',  ( -0.7071067811865489050, 8.659560562354950115E-17, 0.7071067811865461294 ) ) ;
#230 = LINE ( 'NONE', #258, #268 ) ;
#231 = EDGE_CURVE ( 'NONE', #252, #121, #148, .T. ) ;
#232 = VECTOR ( 'NONE', #348, 39.37007874015748143 ) ;
#233 = CARTESIAN_POINT ( 'NONE',  ( -0.04750000000000064587, 0.0000000000000000000, 1.500000000000000222 ) ) ;
#234 = CARTESIAN_POINT ( 'NONE',  ( 0.03100000000000001713, 0.0000000000000000000, 0.1899999999999999745 ) ) ;
#235 = CARTESIAN_POINT ( 'NONE',  ( 0.0000000000000000000, 0.0000000000000000000, 1.500000000000000222 ) ) ;
#236 = CIRCLE ( 'NONE', #19, 0.03100000000000000325 ) ;
#237 = ADVANCED_FACE ( 'NONE', ( #208, #314 ), #321, .T. ) ;
#238 = AXIS2_PLACEMENT_3D ( 'NONE', #107, #22, #292 ) ;
#239 = SURFACE_STYLE_FILL_AREA ( #351 ) ;
#240 = VERTEX_POINT ( 'NONE', #169 ) ;
#241 = ORIENTED_EDGE ( 'NONE', *, *, #134, .F. ) ;
#242 = AXIS2_PLACEMENT_3D ( 'NONE', #219, #328, #149 ) ;
#243 = CIRCLE ( 'NONE', #74, 0.06250000000000000000 ) ;
#244 = AXIS2_PLACEMENT_3D ( 'NONE', #365, #194, #189 ) ;
#245 = SURFACE_STYLE_USAGE ( .BOTH. , #113 ) ;
#246 = ADVANCED_FACE ( 'NONE', ( #289 ), #39, .T. ) ;
#247 = DIMENSIONAL_EXPONENTS ( 1.000000000000000000, 0.0000000000000000000, 0.0000000000000000000, 0.0000000000000000000, 0.0000000000000000000, 0.0000000000000000000, 0.0000000000000000000 ) ;
#248 = ORIENTED_EDGE ( 'NONE', *, *, #79, .T. ) ;
#249 = CARTESIAN_POINT ( 'NONE',  ( -0.03100000000000000672, 0.0000000000000000000, 0.0000000000000000000 ) ) ;
#250 = EDGE_CURVE ( 'NONE', #121, #32, #145, .T. ) ;
#251 = AXIS2_PLACEMENT_3D ( 'NONE', #178, #296, #370 ) ;
#252 = VERTEX_POINT ( 'NONE', #273 ) ;
#253 =( NAMED_UNIT ( * ) SI_UNIT ( $, .STERADIAN. ) SOLID_ANGLE_UNIT ( ) );
#254 = ORIENTED_EDGE ( 'NONE', *, *, #212, .T. ) ;
#255 = EDGE_CURVE ( 'NONE', #252, #293, #119, .T. ) ;
#256 = LINE ( 'NONE', #105, #355 ) ;
#257 = AXIS2_PLACEMENT_3D ( 'NONE', #98, #11, #136 ) ;
#258 = CARTESIAN_POINT ( 'NONE',  ( -0.06250000000000000000, 0.0000000000000000000, 1.500000000000000222 ) ) ;
#259 = CARTESIAN_POINT ( 'NONE',  ( 0.06250000000000000000, 7.654042494670956004E-18, 0.2214999999999998359 ) ) ;
#260 = LINE ( 'NONE', #202, #152 ) ;
#261 = PRODUCT_DEFINITION ( 'UNKNOWN', '', #138, #168 ) ;
#262 =( GEOMETRIC_REPRESENTATION_CONTEXT ( 3 ) GLOBAL_UNCERTAINTY_ASSIGNED_CONTEXT ( ( #177 ) ) GLOBAL_UNIT_ASSIGNED_CONTEXT ( ( #163, #281, #135 ) ) REPRESENTATION_CONTEXT ( 'NONE', 'WORKASPACE' ) );
#263 = CARTESIAN_POINT ( 'NONE',  ( 0.0000000000000000000, 0.0000000000000000000, 1.485000000000000764 ) ) ;
#264 = AXIS2_PLACEMENT_3D ( 'NONE', #23, #150, #352 ) ;
#265 = ORIENTED_EDGE ( 'NONE', *, *, #120, .T. ) ;
#266 = DIRECTION ( 'NONE',  ( 1.000000000000000000, 0.0000000000000000000, 0.0000000000000000000 ) ) ;
#267 = CARTESIAN_POINT ( 'NONE',  ( 0.0000000000000000000, 0.0000000000000000000, 0.2214999999999998359 ) ) ;
#268 = VECTOR ( 'NONE', #110, 39.37007874015748143 ) ;
#269 = ORIENTED_EDGE ( 'NONE', *, *, #73, .T. ) ;
#270 = MANIFOLD_SOLID_BREP ( 'Cut-Revolve1', #334 ) ;
#271 = DIRECTION ( 'NONE',  ( -0.0000000000000000000, -0.0000000000000000000, -1.000000000000000000 ) ) ;
#272 = EDGE_LOOP ( 'NONE', ( #6, #218, #133, #299 ) ) ;
#273 = CARTESIAN_POINT ( 'NONE',  ( 0.03100000000000001713, 0.0000000000000000000, 0.1899999999999999745 ) ) ;
#274 = AXIS2_PLACEMENT_3D ( 'NONE', #199, #70, #125 ) ;
#275 = SURFACE_STYLE_USAGE ( .BOTH. , #226 ) ;
#276 = ORIENTED_EDGE ( 'NONE', *, *, #210, .T. ) ;
#277 = EDGE_CURVE ( 'NONE', #252, #10, #2, .T. ) ;
#278 =( NAMED_UNIT ( * ) PLANE_ANGLE_UNIT ( ) SI_UNIT ( $, .RADIAN. ) );
#279 = ORIENTED_EDGE ( 'NONE', *, *, #315, .T. ) ;
#280 =( GEOMETRIC_REPRESENTATION_CONTEXT ( 3 ) GLOBAL_UNCERTAINTY_ASSIGNED_CONTEXT ( ( #85 ) ) GLOBAL_UNIT_ASSIGNED_CONTEXT ( ( #104, #278, #253 ) ) REPRESENTATION_CONTEXT ( 'NONE', 'WORKASPACE' ) );
#281 =( NAMED_UNIT ( * ) PLANE_ANGLE_UNIT ( ) SI_UNIT ( $, .RADIAN. ) );
#282 = AXIS2_PLACEMENT_3D ( 'NONE', #311, #332, #64 ) ;
#283 = CARTESIAN_POINT ( 'NONE',  ( 0.0000000000000000000, 0.0000000000000000000, 0.1899999999999999745 ) ) ;
#284 = ADVANCED_FACE ( 'NONE', ( #213 ), #54, .T. ) ;
#285 = CARTESIAN_POINT ( 'NONE',  ( 0.04750000000000064587, 6.735557395310482421E-18, 1.500000000000000222 ) ) ;
#286 = FACE_OUTER_BOUND ( 'NONE', #221, .T. ) ;
#287 = ADVANCED_FACE ( 'NONE', ( #211 ), #297, .T. ) ;
#288 = CARTESIAN_POINT ( 'NONE',  ( 0.03100000000000000325, 3.796405077356795010E-18, 0.03000000000000000583 ) ) ;
#289 = FACE_OUTER_BOUND ( 'NONE', #166, .T. ) ;
#290 = DIRECTION ( 'NONE',  ( 1.000000000000000000, 0.0000000000000000000, -0.0000000000000000000 ) ) ;
#291 = EDGE_CURVE ( 'NONE', #10, #304, #236, .T. ) ;
#292 = DIRECTION ( 'NONE',  ( -1.000000000000000000, 0.0000000000000000000, 0.0000000000000000000 ) ) ;
#293 = VERTEX_POINT ( 'NONE', #217 ) ;
#294 = CARTESIAN_POINT ( 'NONE',  ( 0.0000000000000000000, 0.0000000000000000000, 1.500000000000000222 ) ) ;
#295 = AXIS2_PLACEMENT_3D ( 'NONE', #267, #303, #183 ) ;
#296 = DIRECTION ( 'NONE',  ( 0.0000000000000000000, 0.0000000000000000000, 1.000000000000000000 ) ) ;
#297 = CYLINDRICAL_SURFACE ( 'NONE', #298, 0.03100000000000000672 ) ;
#298 = AXIS2_PLACEMENT_3D ( 'NONE', #57, #271, #379 ) ;
#299 = ORIENTED_EDGE ( 'NONE', *, *, #120, .F. ) ;
#300 = DIRECTION ( 'NONE',  ( -1.000000000000000000, 0.0000000000000000000, 0.0000000000000000000 ) ) ;
#301 = ORIENTED_EDGE ( 'NONE', *, *, #146, .T. ) ;
#302 = CARTESIAN_POINT ( 'NONE',  ( 0.0000000000000000000, 0.0000000000000000000, 1.500000000000000222 ) ) ;
#303 = DIRECTION ( 'NONE',  ( -0.0000000000000000000, -0.0000000000000000000, -1.000000000000000000 ) ) ;
#304 = VERTEX_POINT ( 'NONE', #60 ) ;
#305 = AXIS2_PLACEMENT_3D ( 'NONE', #141, #17, #343 ) ;
#306 = DIRECTION ( 'NONE',  ( 1.000000000000000000, 0.0000000000000000000, 0.0000000000000000000 ) ) ;
#307 = EDGE_LOOP ( 'NONE', ( #359, #354, #265, #55 ) ) ;
#308 = APPLICATION_CONTEXT ( 'automotive_design' ) ;
#309 = EDGE_CURVE ( 'NONE', #366, #124, #56, .T. ) ;
#310 =( GEOMETRIC_REPRESENTATION_CONTEXT ( 3 ) GLOBAL_UNCERTAINTY_ASSIGNED_CONTEXT ( ( #147 ) ) GLOBAL_UNIT_ASSIGNED_CONTEXT ( ( #153, #154, #214 ) ) REPRESENTATION_CONTEXT ( 'NONE', 'WORKASPACE' ) );
#311 = CARTESIAN_POINT ( 'NONE',  ( 0.0000000000000000000, 0.0000000000000000000, 1.485000000000000764 ) ) ;
#312 = CARTESIAN_POINT ( 'NONE',  ( 0.0000000000000000000, 0.0000000000000000000, 0.02999999999999999542 ) ) ;
#313 = EDGE_CURVE ( 'NONE', #327, #362, #344, .T. ) ;
#314 = FACE_OUTER_BOUND ( 'NONE', #35, .T. ) ;
#315 = EDGE_CURVE ( 'NONE', #240, #164, #373, .T. ) ;
#316 = AXIS2_PLACEMENT_3D ( 'NONE', #47, #203, #80 ) ;
#317 = DIRECTION ( 'NONE',  ( 0.0000000000000000000, 0.0000000000000000000, 1.000000000000000000 ) ) ;
#318 = CYLINDRICAL_SURFACE ( 'NONE', #204, 0.06250000000000000000 ) ;
#319 = ORIENTED_EDGE ( 'NONE', *, *, #224, .F. ) ;
#320 = DIRECTION ( 'NONE',  ( -0.7071067811865456854, 0.0000000000000000000, -0.7071067811865493491 ) ) ;
#321 = PLANE ( 'NONE',  #251 ) ;
#322 = DIRECTION ( 'NONE',  ( 0.0000000000000000000, 0.0000000000000000000, 1.000000000000000000 ) ) ;
#323 = DIRECTION ( 'NONE',  ( -0.0000000000000000000, -0.0000000000000000000, -1.000000000000000000 ) ) ;
#324 = EDGE_CURVE ( 'NONE', #293, #252, #333, .T. ) ;
#325 = AXIS2_PLACEMENT_3D ( 'NONE', #59, #185, #266 ) ;
#326 = ORIENTED_EDGE ( 'NONE', *, *, #358, .F. ) ;
#327 = VERTEX_POINT ( 'NONE', #285 ) ;
#328 = DIRECTION ( 'NONE',  ( -0.0000000000000000000, -0.0000000000000000000, -1.000000000000000000 ) ) ;
#329 = ORIENTED_EDGE ( 'NONE', *, *, #250, .T. ) ;
#330 = EDGE_CURVE ( 'NONE', #164, #124, #40, .T. ) ;
#331 = PRODUCT ( 'Micro_KC-125-190-030', 'Micro_KC-125-190-030', '', ( #167 ) ) ;
#332 = DIRECTION ( 'NONE',  ( 0.0000000000000000000, 0.0000000000000000000, -1.000000000000000000 ) ) ;
#333 = CIRCLE ( 'NONE', #242, 0.03100000000000001713 ) ;
#334 = CLOSED_SHELL ( 'NONE', ( #18, #287, #62, #246, #123, #222, #181, #349, #1, #158, #237, #188, #284 ) ) ;
#335 = LENGTH_MEASURE_WITH_UNIT ( LENGTH_MEASURE( 0.02539999999999999897 ), #159 );
#336 = ORIENTED_EDGE ( 'NONE', *, *, #151, .F. ) ;
#337 = VERTEX_POINT ( 'NONE', #338 ) ;
#338 = CARTESIAN_POINT ( 'NONE',  ( 0.06250000000000000000, 7.654042494670956004E-18, 1.485000000000000764 ) ) ;
#339 = DIRECTION ( 'NONE',  ( -1.000000000000000000, 0.0000000000000000000, 0.0000000000000000000 ) ) ;
#340 = AXIS2_PLACEMENT_3D ( 'NONE', #114, #24, #300 ) ;
#341 = DIRECTION ( 'NONE',  ( 0.7071067811865456854, 8.659560562354911904E-17, -0.7071067811865493491 ) ) ;
#342 = CYLINDRICAL_SURFACE ( 'NONE', #316, 0.03100000000000000672 ) ;
#343 = DIRECTION ( 'NONE',  ( 1.000000000000000000, 0.0000000000000000000, 0.0000000000000000000 ) ) ;
#344 = CIRCLE ( 'NONE', #175, 0.04750000000000064587 ) ;
#345 = CIRCLE ( 'NONE', #25, 0.03100000000000000325 ) ;
#346 = DIRECTION ( 'NONE',  ( -0.0000000000000000000, -0.0000000000000000000, -1.000000000000000000 ) ) ;
#347 = DIRECTION ( 'NONE',  ( 1.000000000000000000, 0.0000000000000000000, 0.0000000000000000000 ) ) ;
#348 = DIRECTION ( 'NONE',  ( 0.7071067811865489050, 0.0000000000000000000, 0.7071067811865461294 ) ) ;
#349 = ADVANCED_FACE ( 'NONE', ( #132 ), #72, .T. ) ;
#350 = LENGTH_MEASURE_WITH_UNIT ( LENGTH_MEASURE( 0.02539999999999999897 ), #156 );
#351 = FILL_AREA_STYLE ('',( #377 ) ) ;
#352 = DIRECTION ( 'NONE',  ( -1.000000000000000000, 0.0000000000000000000, 0.0000000000000000000 ) ) ;
#353 = PRESENTATION_LAYER_ASSIGNMENT (  '', '', ( #5 ) ) ;
#354 = ORIENTED_EDGE ( 'NONE', *, *, #255, .T. ) ;
#355 = VECTOR ( 'NONE', #341, 39.37007874015748143 ) ;
#356 = DIMENSIONAL_EXPONENTS ( 1.000000000000000000, 0.0000000000000000000, 0.0000000000000000000, 0.0000000000000000000, 0.0000000000000000000, 0.0000000000000000000, 0.0000000000000000000 ) ;
#357 = DIRECTION ( 'NONE',  ( -0.0000000000000000000, -0.0000000000000000000, -1.000000000000000000 ) ) ;
#358 = EDGE_CURVE ( 'NONE', #32, #121, #46, .T. ) ;
#359 = ORIENTED_EDGE ( 'NONE', *, *, #277, .F. ) ;
#360 = DIRECTION ( 'NONE',  ( 0.0000000000000000000, 0.0000000000000000000, 1.000000000000000000 ) ) ;
#361 = SURFACE_STYLE_FILL_AREA ( #102 ) ;
#362 = VERTEX_POINT ( 'NONE', #67 ) ;
#363 = COLOUR_RGB ( '',0.7921568627450980005, 0.8196078431372548767, 0.9333333333333333481 ) ;
#364 = VECTOR ( 'NONE', #320, 39.37007874015748143 ) ;
#365 = CARTESIAN_POINT ( 'NONE',  ( 0.0000000000000000000, 0.0000000000000000000, 0.2214999999999998359 ) ) ;
#366 = VERTEX_POINT ( 'NONE', #100 ) ;
#367 = ORIENTED_EDGE ( 'NONE', *, *, #291, .T. ) ;
#368 = DIRECTION ( 'NONE',  ( -1.000000000000000000, 0.0000000000000000000, 0.0000000000000000000 ) ) ;
#369 = AXIS2_PLACEMENT_3D ( 'NONE', #227, #200, #339 ) ;
#370 = DIRECTION ( 'NONE',  ( 1.000000000000000000, 0.0000000000000000000, -0.0000000000000000000 ) ) ;
#371 = CYLINDRICAL_SURFACE ( 'NONE', #238, 0.06250000000000000000 ) ;
#372 = DIRECTION ( 'NONE',  ( -0.0000000000000000000, -0.0000000000000000000, -1.000000000000000000 ) ) ;
#373 = CIRCLE ( 'NONE', #3, 0.06250000000000001388 ) ;
#374 = CARTESIAN_POINT ( 'NONE',  ( -0.06250000000000000000, 0.0000000000000000000, 0.0000000000000000000 ) ) ;
#375 = ORIENTED_EDGE ( 'NONE', *, *, #309, .T. ) ;
#376 = CARTESIAN_POINT ( 'NONE',  ( -0.06250000000000001388, 0.0000000000000000000, 0.02999999999999999542 ) ) ;
#377 = FILL_AREA_STYLE_COLOUR ( '', #176 ) ;
#378 = AXIS2_PLACEMENT_3D ( 'NONE', #82, #317, #206 ) ;
#379 = DIRECTION ( 'NONE',  ( -1.000000000000000000, 0.0000000000000000000, 0.0000000000000000000 ) ) ;
ENDSEC;
END-ISO-10303-21;
