ISO-10303-21;
HEADER;
FILE_DESCRIPTION (( 'STEP AP214' ),
    '1' );
FILE_NAME ('59553.STEP',
    '2023-07-24T15:10:40',
    ( '' ),
    ( '' ),
    'SwSTEP 2.0',
    'SolidWorks 2023',
    '' );
FILE_SCHEMA (( 'AUTOMOTIVE_DESIGN' ));
ENDSEC;

DATA;
#1 = DIRECTION ( 'NONE',  ( 0.000000000000000000, -0.000000000000000000, 1.000000000000000000 ) ) ;
#2 = MECHANICAL_DESIGN_GEOMETRIC_PRESENTATION_REPRESENTATION (  '', ( #231 ), #10 ) ;
#3 = STYLED_ITEM ( 'NONE', ( #193 ), #336 ) ;
#4 = CARTESIAN_POINT ( 'NONE',  ( 0.000000000000000000, 0.000000000000000000, 0.000000000000000000 ) ) ;
#5 = CYLINDRICAL_SURFACE ( 'NONE', #160, 12.50000000000000000 ) ;
#6 = VERTEX_POINT ( 'NONE', #48 ) ;
#7 = FACE_OUTER_BOUND ( 'NONE', #42, .T. ) ;
#8 = CARTESIAN_POINT ( 'NONE',  ( -3.061616997868379493E-15, 124.9999999999999858, 0.000000000000000000 ) ) ;
#9 = VERTEX_POINT ( 'NONE', #214 ) ;
#10 =( GEOMETRIC_REPRESENTATION_CONTEXT ( 3 ) GLOBAL_UNCERTAINTY_ASSIGNED_CONTEXT ( ( #280 ) ) GLOBAL_UNIT_ASSIGNED_CONTEXT ( ( #75, #142, #258 ) ) REPRESENTATION_CONTEXT ( 'NONE', 'WORKASPACE' ) );
#11 = CARTESIAN_POINT ( 'NONE',  ( 0.000000000000000000, 1.000000000000000000, 0.000000000000000000 ) ) ;
#12 = ADVANCED_FACE ( 'NONE', ( #132 ), #158, .F. ) ;
#13 = ORIENTED_EDGE ( 'NONE', *, *, #247, .F. ) ;
#14 =( NAMED_UNIT ( * ) PLANE_ANGLE_UNIT ( ) SI_UNIT ( $, .RADIAN. ) );
#15 = DIRECTION ( 'NONE',  ( -1.000000000000000000, 0.000000000000000000, 0.000000000000000000 ) ) ;
#16 = TOROIDAL_SURFACE ( 'NONE', #278, 11.50000000000000000, 1.000000000000000444 ) ;
#17 =( LENGTH_UNIT ( ) NAMED_UNIT ( * ) SI_UNIT ( .MILLI., .METRE. ) );
#18 = DIRECTION ( 'NONE',  ( -1.217753221838294133E-16, 1.000000000000000000, -0.000000000000000000 ) ) ;
#19 = EDGE_CURVE ( 'NONE', #326, #60, #203, .T. ) ;
#20 =( GEOMETRIC_REPRESENTATION_CONTEXT ( 3 ) GLOBAL_UNCERTAINTY_ASSIGNED_CONTEXT ( ( #218 ) ) GLOBAL_UNIT_ASSIGNED_CONTEXT ( ( #78, #253, #275 ) ) REPRESENTATION_CONTEXT ( 'NONE', 'WORKASPACE' ) );
#21 = TOROIDAL_SURFACE ( 'NONE', #212, 11.50000000000000000, 1.000000000000000444 ) ;
#22 = FACE_OUTER_BOUND ( 'NONE', #346, .T. ) ;
#23 = ADVANCED_BREP_SHAPE_REPRESENTATION ( '59553', ( #167, #51, #30 ), #370 ) ;
#24 = PRESENTATION_LAYER_ASSIGNMENT (  '', '', ( #331 ) ) ;
#25 = MECHANICAL_DESIGN_GEOMETRIC_PRESENTATION_REPRESENTATION (  '', ( #272 ), #217 ) ;
#26 =( NAMED_UNIT ( * ) SI_UNIT ( $, .STERADIAN. ) SOLID_ANGLE_UNIT ( ) );
#27 = UNCERTAINTY_MEASURE_WITH_UNIT (LENGTH_MEASURE( 1.000000000000000082E-05 ), #215, 'distance_accuracy_value', 'NONE');
#28 = DIRECTION ( 'NONE',  ( -1.000000000000000000, -1.217753221838294133E-16, 0.000000000000000000 ) ) ;
#29 = STYLED_ITEM ( 'NONE', ( #205 ), #71 ) ;
#30 = AXIS2_PLACEMENT_3D ( 'NONE', #335, #77, #304 ) ;
#31 = EDGE_CURVE ( 'NONE', #196, #202, #296, .T. ) ;
#32 = VERTEX_POINT ( 'NONE', #207 ) ;
#33 = LINE ( 'NONE', #166, #365 ) ;
#34 = CARTESIAN_POINT ( 'NONE',  ( -12.49999999999999112, 50.00000000000000000, 0.000000000000000000 ) ) ;
#35 = DIRECTION ( 'NONE',  ( 0.000000000000000000, 0.000000000000000000, -1.000000000000000000 ) ) ;
#36 = DIRECTION ( 'NONE',  ( -0.000000000000000000, -1.000000000000000000, -0.000000000000000000 ) ) ;
#37 = AXIS2_PLACEMENT_3D ( 'NONE', #362, #103, #276 ) ;
#38 = AXIS2_PLACEMENT_3D ( 'NONE', #8, #206, #237 ) ;
#39 = ORIENTED_EDGE ( 'NONE', *, *, #355, .T. ) ;
#40 = CARTESIAN_POINT ( 'NONE',  ( 0.000000000000000000, 1.000000000000000000, -11.50000000000000000 ) ) ;
#41 = FILL_AREA_STYLE_COLOUR ( '', #59 ) ;
#42 = EDGE_LOOP ( 'NONE', ( #171, #366, #194, #141 ) ) ;
#43 = SURFACE_STYLE_USAGE ( .BOTH. , #318 ) ;
#44 =( LENGTH_UNIT ( ) NAMED_UNIT ( * ) SI_UNIT ( .MILLI., .METRE. ) );
#45 = SURFACE_STYLE_FILL_AREA ( #98 ) ;
#46 = PRESENTATION_LAYER_ASSIGNMENT (  '', '', ( #133 ) ) ;
#47 = ADVANCED_FACE ( 'NONE', ( #184 ), #356, .T. ) ;
#48 = CARTESIAN_POINT ( 'NONE',  ( 12.50000000000000000, 124.9999999999999858, 1.530808498934191719E-15 ) ) ;
#49 = EDGE_CURVE ( 'NONE', #62, #125, #180, .T. ) ;
#50 = SURFACE_STYLE_USAGE ( .BOTH. , #79 ) ;
#51 = MANIFOLD_SOLID_BREP ( 'Revolve - Tool Body (Straight Shanked)', #344 ) ;
#52 = CARTESIAN_POINT ( 'NONE',  ( 0.000000000000000000, 1.000000000000000000, 0.000000000000000000 ) ) ;
#53 = DIRECTION ( 'NONE',  ( -1.000000000000000000, 0.000000000000000000, 0.000000000000000000 ) ) ;
#54 = ADVANCED_FACE ( 'NONE', ( #22 ), #104, .T. ) ;
#55 = APPLICATION_PROTOCOL_DEFINITION ( 'draft international standard', 'automotive_design', 1998, #283 ) ;
#56 = CARTESIAN_POINT ( 'NONE',  ( 0.000000000000000000, 0.000000000000000000, -11.50000000000000000 ) ) ;
#57 = EDGE_CURVE ( 'NONE', #326, #62, #221, .T. ) ;
#58 = AXIS2_PLACEMENT_3D ( 'NONE', #209, #18, #15 ) ;
#59 = COLOUR_RGB ( '',1.000000000000000000, 0.000000000000000000, 0.000000000000000000 ) ;
#60 = VERTEX_POINT ( 'NONE', #80 ) ;
#61 = DIRECTION ( 'NONE',  ( -0.000000000000000000, -1.000000000000000000, -0.000000000000000000 ) ) ;
#62 = VERTEX_POINT ( 'NONE', #185 ) ;
#63 = ORIENTED_EDGE ( 'NONE', *, *, #211, .T. ) ;
#64 = AXIS2_PLACEMENT_3D ( 'NONE', #52, #339, #83 ) ;
#65 = CIRCLE ( 'NONE', #97, 11.50000000000000000 ) ;
#66 = FACE_OUTER_BOUND ( 'NONE', #239, .T. ) ;
#67 = ADVANCED_FACE ( 'NONE', ( #163 ), #303, .T. ) ;
#68 = SURFACE_STYLE_FILL_AREA ( #246 ) ;
#69 =( NAMED_UNIT ( * ) PLANE_ANGLE_UNIT ( ) SI_UNIT ( $, .RADIAN. ) );
#70 = DIRECTION ( 'NONE',  ( 1.000000000000000000, 1.217753221838294133E-16, 0.000000000000000000 ) ) ;
#71 = ADVANCED_FACE ( 'NONE', ( #156 ), #21, .T. ) ;
#72 = PRESENTATION_LAYER_ASSIGNMENT (  '', '', ( #231 ) ) ;
#73 = DIRECTION ( 'NONE',  ( -1.224646799147353454E-16, 0.000000000000000000, -1.000000000000000000 ) ) ;
#74 = AXIS2_PLACEMENT_3D ( 'NONE', #138, #36, #129 ) ;
#75 =( LENGTH_UNIT ( ) NAMED_UNIT ( * ) SI_UNIT ( .MILLI., .METRE. ) );
#76 = DIRECTION ( 'NONE',  ( -1.217753221838294133E-16, 1.000000000000000000, 0.000000000000000000 ) ) ;
#77 = DIRECTION ( 'NONE',  ( 0.000000000000000000, 0.000000000000000000, 1.000000000000000000 ) ) ;
#78 =( LENGTH_UNIT ( ) NAMED_UNIT ( * ) SI_UNIT ( .MILLI., .METRE. ) );
#79 = SURFACE_SIDE_STYLE ('',( #108 ) ) ;
#80 = CARTESIAN_POINT ( 'NONE',  ( 1.469576158976823947E-15, 0.000000000000000000, 11.50000000000000000 ) ) ;
#81 = UNCERTAINTY_MEASURE_WITH_UNIT (LENGTH_MEASURE( 1.000000000000000082E-05 ), #44, 'distance_accuracy_value', 'NONE');
#82 = EDGE_CURVE ( 'NONE', #32, #176, #332, .T. ) ;
#83 = DIRECTION ( 'NONE',  ( 0.000000000000000000, 0.000000000000000000, -1.000000000000000000 ) ) ;
#84 = MECHANICAL_DESIGN_GEOMETRIC_PRESENTATION_REPRESENTATION (  '', ( #331 ), #20 ) ;
#85 = DIRECTION ( 'NONE',  ( -1.000000000000000000, 0.000000000000000000, 0.000000000000000000 ) ) ;
#86 = ORIENTED_EDGE ( 'NONE', *, *, #82, .F. ) ;
#87 = DIRECTION ( 'NONE',  ( 0.000000000000000000, 0.000000000000000000, -1.000000000000000000 ) ) ;
#88 = ORIENTED_EDGE ( 'NONE', *, *, #146, .T. ) ;
#89 = AXIS2_PLACEMENT_3D ( 'NONE', #178, #213, #70 ) ;
#90 = EDGE_LOOP ( 'NONE', ( #96, #120 ) ) ;
#91 = CARTESIAN_POINT ( 'NONE',  ( 1.530808498934191521E-15, 0.000000000000000000, 12.50000000000000000 ) ) ;
#92 = ORIENTED_EDGE ( 'NONE', *, *, #151, .F. ) ;
#93 = DIRECTION ( 'NONE',  ( -0.000000000000000000, -1.000000000000000000, -0.000000000000000000 ) ) ;
#94 = FILL_AREA_STYLE ('',( #41 ) ) ;
#95 = FACE_OUTER_BOUND ( 'NONE', #112, .T. ) ;
#96 = ORIENTED_EDGE ( 'NONE', *, *, #121, .F. ) ;
#97 = AXIS2_PLACEMENT_3D ( 'NONE', #210, #271, #177 ) ;
#98 = FILL_AREA_STYLE ('',( #302 ) ) ;
#99 = SURFACE_STYLE_USAGE ( .BOTH. , #240 ) ;
#100 = SURFACE_SIDE_STYLE ('',( #361 ) ) ;
#101 = COLOUR_RGB ( '',1.000000000000000000, 0.000000000000000000, 0.000000000000000000 ) ;
#102 = FACE_OUTER_BOUND ( 'NONE', #90, .T. ) ;
#103 = DIRECTION ( 'NONE',  ( -0.000000000000000000, -1.000000000000000000, -0.000000000000000000 ) ) ;
#104 = CYLINDRICAL_SURFACE ( 'NONE', #305, 12.49999999999999822 ) ;
#105 = MECHANICAL_DESIGN_GEOMETRIC_PRESENTATION_REPRESENTATION (  '', ( #3 ), #182 ) ;
#106 = FILL_AREA_STYLE ('',( #337 ) ) ;
#107 = EDGE_CURVE ( 'NONE', #60, #125, #65, .T. ) ;
#108 = SURFACE_STYLE_FILL_AREA ( #106 ) ;
#109 = DIRECTION ( 'NONE',  ( -1.000000000000000000, 0.000000000000000000, 0.000000000000000000 ) ) ;
#110 = AXIS2_PLACEMENT_3D ( 'NONE', #11, #223, #317 ) ;
#111 = ADVANCED_FACE ( 'NONE', ( #66 ), #312, .T. ) ;
#112 = EDGE_LOOP ( 'NONE', ( #352, #259, #149, #234 ) ) ;
#113 = DIRECTION ( 'NONE',  ( 0.000000000000000000, 0.000000000000000000, -1.000000000000000000 ) ) ;
#114 = EDGE_LOOP ( 'NONE', ( #261, #287 ) ) ;
#115 = CARTESIAN_POINT ( 'NONE',  ( 6.071532165918824830E-15, 50.00000000000000000, 0.000000000000000000 ) ) ;
#116 = AXIS2_PLACEMENT_3D ( 'NONE', #279, #300, #73 ) ;
#117 = DIRECTION ( 'NONE',  ( -0.000000000000000000, -1.000000000000000000, -0.000000000000000000 ) ) ;
#118 = FILL_AREA_STYLE_COLOUR ( '', #292 ) ;
#119 = MECHANICAL_DESIGN_GEOMETRIC_PRESENTATION_REPRESENTATION (  '', ( #29 ), #222 ) ;
#120 = ORIENTED_EDGE ( 'NONE', *, *, #31, .F. ) ;
#121 = EDGE_CURVE ( 'NONE', #202, #196, #281, .T. ) ;
#122 = ORIENTED_EDGE ( 'NONE', *, *, #254, .F. ) ;
#123 = DIRECTION ( 'NONE',  ( 0.000000000000000000, 0.000000000000000000, -1.000000000000000000 ) ) ;
#124 =( NAMED_UNIT ( * ) SI_UNIT ( $, .STERADIAN. ) SOLID_ANGLE_UNIT ( ) );
#125 = VERTEX_POINT ( 'NONE', #56 ) ;
#126 =( LENGTH_UNIT ( ) NAMED_UNIT ( * ) SI_UNIT ( .MILLI., .METRE. ) );
#127 =( GEOMETRIC_REPRESENTATION_CONTEXT ( 3 ) GLOBAL_UNCERTAINTY_ASSIGNED_CONTEXT ( ( #282 ) ) GLOBAL_UNIT_ASSIGNED_CONTEXT ( ( #174, #195, #192 ) ) REPRESENTATION_CONTEXT ( 'NONE', 'WORKASPACE' ) );
#128 = FILL_AREA_STYLE_COLOUR ( '', #101 ) ;
#129 = DIRECTION ( 'NONE',  ( 0.000000000000000000, 0.000000000000000000, -1.000000000000000000 ) ) ;
#130 = APPLICATION_PROTOCOL_DEFINITION ( 'draft international standard', 'automotive_design', 1998, #341 ) ;
#131 = PRESENTATION_LAYER_ASSIGNMENT (  '', '', ( #272 ) ) ;
#132 = FACE_OUTER_BOUND ( 'NONE', #268, .T. ) ;
#133 = STYLED_ITEM ( 'NONE', ( #329 ), #47 ) ;
#134 = VECTOR ( 'NONE', #236, 1000.000000000000000 ) ;
#135 = UNCERTAINTY_MEASURE_WITH_UNIT (LENGTH_MEASURE( 1.000000000000000082E-05 ), #144, 'distance_accuracy_value', 'NONE');
#136 = PRODUCT_DEFINITION_SHAPE ( 'NONE', 'NONE',  #311 ) ;
#137 = UNCERTAINTY_MEASURE_WITH_UNIT (LENGTH_MEASURE( 1.000000000000000082E-05 ), #293, 'distance_accuracy_value', 'NONE');
#138 = CARTESIAN_POINT ( 'NONE',  ( 0.000000000000000000, 0.000000000000000000, 0.000000000000000000 ) ) ;
#139 = AXIS2_PLACEMENT_3D ( 'NONE', #357, #93, #35 ) ;
#140 = CARTESIAN_POINT ( 'NONE',  ( -12.50000000000000178, 124.9999999999999858, 0.000000000000000000 ) ) ;
#141 = ORIENTED_EDGE ( 'NONE', *, *, #146, .F. ) ;
#142 =( NAMED_UNIT ( * ) PLANE_ANGLE_UNIT ( ) SI_UNIT ( $, .RADIAN. ) );
#143 = LINE ( 'NONE', #140, #134 ) ;
#144 =( LENGTH_UNIT ( ) NAMED_UNIT ( * ) SI_UNIT ( .MILLI., .METRE. ) );
#145 = SURFACE_STYLE_USAGE ( .BOTH. , #100 ) ;
#146 = EDGE_CURVE ( 'NONE', #32, #62, #164, .T. ) ;
#147 = CARTESIAN_POINT ( 'NONE',  ( 1.530808498934191521E-15, 50.00000000000000000, 12.50000000000000000 ) ) ;
#148 = MECHANICAL_DESIGN_GEOMETRIC_PRESENTATION_REPRESENTATION (  '', ( #306 ), #189 ) ;
#149 = ORIENTED_EDGE ( 'NONE', *, *, #247, .T. ) ;
#150 = ORIENTED_EDGE ( 'NONE', *, *, #57, .F. ) ;
#151 = EDGE_CURVE ( 'NONE', #125, #60, #310, .T. ) ;
#152 =( NAMED_UNIT ( * ) SI_UNIT ( $, .STERADIAN. ) SOLID_ANGLE_UNIT ( ) );
#153 = AXIS2_PLACEMENT_3D ( 'NONE', #4, #285, #123 ) ;
#154 = AXIS2_PLACEMENT_3D ( 'NONE', #229, #232, #85 ) ;
#155 = ORIENTED_EDGE ( 'NONE', *, *, #57, .T. ) ;
#156 = FACE_OUTER_BOUND ( 'NONE', #290, .T. ) ;
#157 = FILL_AREA_STYLE ('',( #216 ) ) ;
#158 = PLANE ( 'NONE',  #89 ) ;
#159 = VECTOR ( 'NONE', #117, 1000.000000000000000 ) ;
#160 = AXIS2_PLACEMENT_3D ( 'NONE', #313, #225, #343 ) ;
#161 = PRESENTATION_STYLE_ASSIGNMENT (( #50 ) ) ;
#162 = SURFACE_SIDE_STYLE ('',( #299 ) ) ;
#163 = FACE_OUTER_BOUND ( 'NONE', #114, .T. ) ;
#164 = LINE ( 'NONE', #172, #358 ) ;
#165 = PRODUCT_CONTEXT ( 'NONE', #341, 'mechanical' ) ;
#166 = CARTESIAN_POINT ( 'NONE',  ( 12.49999999999999467, 124.9999999999999858, 1.530808498934191324E-15 ) ) ;
#167 = MANIFOLD_SOLID_BREP ( 'Revolve - Cutting Edge', #309 ) ;
#168 = ORIENTED_EDGE ( 'NONE', *, *, #327, .T. ) ;
#169 = SURFACE_STYLE_USAGE ( .BOTH. , #319 ) ;
#170 = PRESENTATION_STYLE_ASSIGNMENT (( #43 ) ) ;
#171 = ORIENTED_EDGE ( 'NONE', *, *, #82, .T. ) ;
#172 = CARTESIAN_POINT ( 'NONE',  ( 0.000000000000000000, 0.000000000000000000, -12.50000000000000000 ) ) ;
#173 = ORIENTED_EDGE ( 'NONE', *, *, #320, .F. ) ;
#174 =( LENGTH_UNIT ( ) NAMED_UNIT ( * ) SI_UNIT ( .MILLI., .METRE. ) );
#175 = STYLED_ITEM ( 'NONE', ( #208 ), #111 ) ;
#176 = VERTEX_POINT ( 'NONE', #147 ) ;
#177 = DIRECTION ( 'NONE',  ( 0.000000000000000000, 0.000000000000000000, -1.000000000000000000 ) ) ;
#178 = CARTESIAN_POINT ( 'NONE',  ( 12.50000000000000000, 124.9999999999999858, 0.000000000000000000 ) ) ;
#179 = CARTESIAN_POINT ( 'NONE',  ( -3.061616997868379493E-15, 124.9999999999999858, 0.000000000000000000 ) ) ;
#180 = CIRCLE ( 'NONE', #249, 1.000000000000000888 ) ;
#181 = CIRCLE ( 'NONE', #154, 12.50000000000000355 ) ;
#182 =( GEOMETRIC_REPRESENTATION_CONTEXT ( 3 ) GLOBAL_UNCERTAINTY_ASSIGNED_CONTEXT ( ( #137 ) ) GLOBAL_UNIT_ASSIGNED_CONTEXT ( ( #293, #201, #266 ) ) REPRESENTATION_CONTEXT ( 'NONE', 'WORKASPACE' ) );
#183 = ADVANCED_FACE ( 'NONE', ( #95 ), #262, .T. ) ;
#184 = FACE_OUTER_BOUND ( 'NONE', #315, .T. ) ;
#185 = CARTESIAN_POINT ( 'NONE',  ( 0.000000000000000000, 1.000000000000000000, -12.50000000000000000 ) ) ;
#186 = AXIS2_PLACEMENT_3D ( 'NONE', #321, #316, #1 ) ;
#187 = COLOUR_RGB ( '',0.7921568627450980005, 0.8196078431372548767, 0.9333333333333333481 ) ;
#188 = DIRECTION ( 'NONE',  ( 0.000000000000000000, 0.000000000000000000, 1.000000000000000000 ) ) ;
#189 =( GEOMETRIC_REPRESENTATION_CONTEXT ( 3 ) GLOBAL_UNCERTAINTY_ASSIGNED_CONTEXT ( ( #135 ) ) GLOBAL_UNIT_ASSIGNED_CONTEXT ( ( #144, #14, #124 ) ) REPRESENTATION_CONTEXT ( 'NONE', 'WORKASPACE' ) );
#190 = PRODUCT_DEFINITION_FORMATION_WITH_SPECIFIED_SOURCE ( 'ANY', '', #191, .NOT_KNOWN. ) ;
#191 = PRODUCT ( '59553', '59553', '', ( #165 ) ) ;
#192 =( NAMED_UNIT ( * ) SI_UNIT ( $, .STERADIAN. ) SOLID_ANGLE_UNIT ( ) );
#193 = PRESENTATION_STYLE_ASSIGNMENT (( #169 ) ) ;
#194 = ORIENTED_EDGE ( 'NONE', *, *, #291, .F. ) ;
#195 =( NAMED_UNIT ( * ) PLANE_ANGLE_UNIT ( ) SI_UNIT ( $, .RADIAN. ) );
#196 = VERTEX_POINT ( 'NONE', #200 ) ;
#197 = DIRECTION ( 'NONE',  ( -1.217753221838294133E-16, 1.000000000000000000, -0.000000000000000000 ) ) ;
#198 = DIRECTION ( 'NONE',  ( -1.217753221838294133E-16, 1.000000000000000000, -0.000000000000000000 ) ) ;
#199 = CARTESIAN_POINT ( 'NONE',  ( 0.000000000000000000, 1.000000000000000000, 0.000000000000000000 ) ) ;
#200 = CARTESIAN_POINT ( 'NONE',  ( 12.50000000000000000, 50.00000000000000000, 1.530808498934192113E-15 ) ) ;
#201 =( NAMED_UNIT ( * ) PLANE_ANGLE_UNIT ( ) SI_UNIT ( $, .RADIAN. ) );
#202 = VERTEX_POINT ( 'NONE', #34 ) ;
#203 = CIRCLE ( 'NONE', #116, 1.000000000000000888 ) ;
#204 = PRESENTATION_LAYER_ASSIGNMENT (  '', '', ( #3 ) ) ;
#205 = PRESENTATION_STYLE_ASSIGNMENT (( #99 ) ) ;
#206 = DIRECTION ( 'NONE',  ( -1.217753221838294133E-16, 1.000000000000000000, -0.000000000000000000 ) ) ;
#207 = CARTESIAN_POINT ( 'NONE',  ( 0.000000000000000000, 50.00000000000000000, -12.50000000000000000 ) ) ;
#208 = PRESENTATION_STYLE_ASSIGNMENT (( #145 ) ) ;
#209 = CARTESIAN_POINT ( 'NONE',  ( 6.071532165918824830E-15, 50.00000000000000000, 0.000000000000000000 ) ) ;
#210 = CARTESIAN_POINT ( 'NONE',  ( 0.000000000000000000, 0.000000000000000000, 0.000000000000000000 ) ) ;
#211 = EDGE_CURVE ( 'NONE', #6, #9, #369, .T. ) ;
#212 = AXIS2_PLACEMENT_3D ( 'NONE', #265, #353, #273 ) ;
#213 = DIRECTION ( 'NONE',  ( 1.217753221838294133E-16, -1.000000000000000000, 0.000000000000000000 ) ) ;
#214 = CARTESIAN_POINT ( 'NONE',  ( -12.50000000000000711, 124.9999999999999858, 0.000000000000000000 ) ) ;
#215 =( LENGTH_UNIT ( ) NAMED_UNIT ( * ) SI_UNIT ( .MILLI., .METRE. ) );
#216 = FILL_AREA_STYLE_COLOUR ( '', #323 ) ;
#217 =( GEOMETRIC_REPRESENTATION_CONTEXT ( 3 ) GLOBAL_UNCERTAINTY_ASSIGNED_CONTEXT ( ( #308 ) ) GLOBAL_UNIT_ASSIGNED_CONTEXT ( ( #126, #69, #233 ) ) REPRESENTATION_CONTEXT ( 'NONE', 'WORKASPACE' ) );
#218 = UNCERTAINTY_MEASURE_WITH_UNIT (LENGTH_MEASURE( 1.000000000000000082E-05 ), #78, 'distance_accuracy_value', 'NONE');
#219 = CARTESIAN_POINT ( 'NONE',  ( -3.061616997868379493E-15, 124.9999999999999858, 0.000000000000000000 ) ) ;
#220 = PRODUCT_RELATED_PRODUCT_CATEGORY ( 'part', '', ( #191 ) ) ;
#221 = CIRCLE ( 'NONE', #64, 12.50000000000000000 ) ;
#222 =( GEOMETRIC_REPRESENTATION_CONTEXT ( 3 ) GLOBAL_UNCERTAINTY_ASSIGNED_CONTEXT ( ( #81 ) ) GLOBAL_UNIT_ASSIGNED_CONTEXT ( ( #44, #235, #152 ) ) REPRESENTATION_CONTEXT ( 'NONE', 'WORKASPACE' ) );
#223 = DIRECTION ( 'NONE',  ( -0.000000000000000000, -1.000000000000000000, -0.000000000000000000 ) ) ;
#224 = ORIENTED_EDGE ( 'NONE', *, *, #49, .T. ) ;
#225 = DIRECTION ( 'NONE',  ( -0.000000000000000000, -1.000000000000000000, -0.000000000000000000 ) ) ;
#226 = ORIENTED_EDGE ( 'NONE', *, *, #19, .F. ) ;
#227 = CIRCLE ( 'NONE', #324, 12.50000000000000000 ) ;
#228 = AXIS2_PLACEMENT_3D ( 'NONE', #252, #76, #28 ) ;
#229 = CARTESIAN_POINT ( 'NONE',  ( -3.061616997868379493E-15, 124.9999999999999858, 0.000000000000000000 ) ) ;
#230 = SURFACE_STYLE_FILL_AREA ( #359 ) ;
#231 = STYLED_ITEM ( 'NONE', ( #161 ), #67 ) ;
#232 = DIRECTION ( 'NONE',  ( -1.217753221838294133E-16, 1.000000000000000000, -0.000000000000000000 ) ) ;
#233 =( NAMED_UNIT ( * ) SI_UNIT ( $, .STERADIAN. ) SOLID_ANGLE_UNIT ( ) );
#234 = ORIENTED_EDGE ( 'NONE', *, *, #211, .F. ) ;
#235 =( NAMED_UNIT ( * ) PLANE_ANGLE_UNIT ( ) SI_UNIT ( $, .RADIAN. ) );
#236 = DIRECTION ( 'NONE',  ( -1.217753221838294133E-16, 1.000000000000000000, -0.000000000000000000 ) ) ;
#237 = DIRECTION ( 'NONE',  ( -1.000000000000000000, 0.000000000000000000, 0.000000000000000000 ) ) ;
#238 = ADVANCED_FACE ( 'NONE', ( #294 ), #16, .T. ) ;
#239 = EDGE_LOOP ( 'NONE', ( #86, #295 ) ) ;
#240 = SURFACE_SIDE_STYLE ('',( #68 ) ) ;
#241 = PRESENTATION_LAYER_ASSIGNMENT (  '', '', ( #175 ) ) ;
#242 = FILL_AREA_STYLE ('',( #267 ) ) ;
#243 = FILL_AREA_STYLE ('',( #128 ) ) ;
#244 = DIRECTION ( 'NONE',  ( -1.217753221838294133E-16, 1.000000000000000000, -0.000000000000000000 ) ) ;
#245 =( NAMED_UNIT ( * ) PLANE_ANGLE_UNIT ( ) SI_UNIT ( $, .RADIAN. ) );
#246 = FILL_AREA_STYLE ('',( #269 ) ) ;
#247 = EDGE_CURVE ( 'NONE', #202, #9, #143, .T. ) ;
#248 = SURFACE_STYLE_USAGE ( .BOTH. , #360 ) ;
#249 = AXIS2_PLACEMENT_3D ( 'NONE', #40, #301, #188 ) ;
#250 = MECHANICAL_DESIGN_GEOMETRIC_PRESENTATION_REPRESENTATION (  '', ( #175 ), #127 ) ;
#251 = ORIENTED_EDGE ( 'NONE', *, *, #320, .T. ) ;
#252 = CARTESIAN_POINT ( 'NONE',  ( 6.071532165918824830E-15, 50.00000000000000000, 0.000000000000000000 ) ) ;
#253 =( NAMED_UNIT ( * ) PLANE_ANGLE_UNIT ( ) SI_UNIT ( $, .RADIAN. ) );
#254 = EDGE_CURVE ( 'NONE', #176, #326, #322, .T. ) ;
#255 = UNCERTAINTY_MEASURE_WITH_UNIT (LENGTH_MEASURE( 1.000000000000000082E-05 ), #17, 'distance_accuracy_value', 'NONE');
#256 = MECHANICAL_DESIGN_GEOMETRIC_PRESENTATION_REPRESENTATION (  '', ( #133 ), #340 ) ;
#257 = CIRCLE ( 'NONE', #110, 12.50000000000000000 ) ;
#258 =( NAMED_UNIT ( * ) SI_UNIT ( $, .STERADIAN. ) SOLID_ANGLE_UNIT ( ) );
#259 = ORIENTED_EDGE ( 'NONE', *, *, #31, .T. ) ;
#260 = CARTESIAN_POINT ( 'NONE',  ( 1.530808498934191521E-15, 1.000000000000000000, 12.50000000000000000 ) ) ;
#261 = ORIENTED_EDGE ( 'NONE', *, *, #151, .T. ) ;
#262 = CYLINDRICAL_SURFACE ( 'NONE', #314, 12.49999999999999822 ) ;
#263 = AXIS2_PLACEMENT_3D ( 'NONE', #115, #198, #109 ) ;
#264 = ORIENTED_EDGE ( 'NONE', *, *, #121, .T. ) ;
#265 = CARTESIAN_POINT ( 'NONE',  ( 0.000000000000000000, 1.000000000000000000, 0.000000000000000000 ) ) ;
#266 =( NAMED_UNIT ( * ) SI_UNIT ( $, .STERADIAN. ) SOLID_ANGLE_UNIT ( ) );
#267 = FILL_AREA_STYLE_COLOUR ( '', #187 ) ;
#268 = EDGE_LOOP ( 'NONE', ( #251, #63 ) ) ;
#269 = FILL_AREA_STYLE_COLOUR ( '', #368 ) ;
#270 = ORIENTED_EDGE ( 'NONE', *, *, #49, .F. ) ;
#271 = DIRECTION ( 'NONE',  ( -0.000000000000000000, -1.000000000000000000, -0.000000000000000000 ) ) ;
#272 = STYLED_ITEM ( 'NONE', ( #325 ), #238 ) ;
#273 = DIRECTION ( 'NONE',  ( 0.000000000000000000, 0.000000000000000000, -1.000000000000000000 ) ) ;
#274 = ORIENTED_EDGE ( 'NONE', *, *, #107, .F. ) ;
#275 =( NAMED_UNIT ( * ) SI_UNIT ( $, .STERADIAN. ) SOLID_ANGLE_UNIT ( ) );
#276 = DIRECTION ( 'NONE',  ( 0.000000000000000000, 0.000000000000000000, -1.000000000000000000 ) ) ;
#277 = COLOUR_RGB ( '',1.000000000000000000, 0.000000000000000000, 0.000000000000000000 ) ;
#278 = AXIS2_PLACEMENT_3D ( 'NONE', #199, #61, #113 ) ;
#279 = CARTESIAN_POINT ( 'NONE',  ( 1.408343819019456176E-15, 1.000000000000000000, 11.50000000000000000 ) ) ;
#280 = UNCERTAINTY_MEASURE_WITH_UNIT (LENGTH_MEASURE( 1.000000000000000082E-05 ), #75, 'distance_accuracy_value', 'NONE');
#281 = CIRCLE ( 'NONE', #263, 12.49999999999999645 ) ;
#282 = UNCERTAINTY_MEASURE_WITH_UNIT (LENGTH_MEASURE( 1.000000000000000082E-05 ), #174, 'distance_accuracy_value', 'NONE');
#283 = APPLICATION_CONTEXT ( 'automotive_design' ) ;
#284 = PRESENTATION_LAYER_ASSIGNMENT (  '', '', ( #306 ) ) ;
#285 = DIRECTION ( 'NONE',  ( 0.000000000000000000, -1.000000000000000000, -0.000000000000000000 ) ) ;
#286 = DIRECTION ( 'NONE',  ( -1.000000000000000000, 0.000000000000000000, 0.000000000000000000 ) ) ;
#287 = ORIENTED_EDGE ( 'NONE', *, *, #107, .T. ) ;
#288 = DIRECTION ( 'NONE',  ( -0.000000000000000000, -1.000000000000000000, -0.000000000000000000 ) ) ;
#289 = CARTESIAN_POINT ( 'NONE',  ( 0.000000000000000000, 50.00000000000000000, 0.000000000000000000 ) ) ;
#290 = EDGE_LOOP ( 'NONE', ( #226, #155, #224, #274 ) ) ;
#291 = EDGE_CURVE ( 'NONE', #62, #326, #257, .T. ) ;
#292 = COLOUR_RGB ( '',1.000000000000000000, 0.000000000000000000, 0.000000000000000000 ) ;
#293 =( LENGTH_UNIT ( ) NAMED_UNIT ( * ) SI_UNIT ( .MILLI., .METRE. ) );
#294 = FACE_OUTER_BOUND ( 'NONE', #334, .T. ) ;
#295 = ORIENTED_EDGE ( 'NONE', *, *, #327, .F. ) ;
#296 = CIRCLE ( 'NONE', #58, 12.49999999999999645 ) ;
#297 = PLANE ( 'NONE',  #228 ) ;
#298 =( NAMED_UNIT ( * ) SI_UNIT ( $, .STERADIAN. ) SOLID_ANGLE_UNIT ( ) );
#299 = SURFACE_STYLE_FILL_AREA ( #157 ) ;
#300 = DIRECTION ( 'NONE',  ( 1.000000000000000000, 0.000000000000000000, -1.224646799147353207E-16 ) ) ;
#301 = DIRECTION ( 'NONE',  ( -1.000000000000000000, 0.000000000000000000, 0.000000000000000000 ) ) ;
#302 = FILL_AREA_STYLE_COLOUR ( '', #363 ) ;
#303 = PLANE ( 'NONE',  #153 ) ;
#304 = DIRECTION ( 'NONE',  ( 1.000000000000000000, 0.000000000000000000, 0.000000000000000000 ) ) ;
#305 = AXIS2_PLACEMENT_3D ( 'NONE', #219, #338, #53 ) ;
#306 = STYLED_ITEM ( 'NONE', ( #170 ), #167 ) ;
#307 =( NAMED_UNIT ( * ) PLANE_ANGLE_UNIT ( ) SI_UNIT ( $, .RADIAN. ) );
#308 = UNCERTAINTY_MEASURE_WITH_UNIT (LENGTH_MEASURE( 1.000000000000000082E-05 ), #126, 'distance_accuracy_value', 'NONE');
#309 = CLOSED_SHELL ( 'NONE', ( #336, #238, #67, #71, #47, #111 ) ) ;
#310 = CIRCLE ( 'NONE', #74, 11.50000000000000000 ) ;
#311 = PRODUCT_DEFINITION ( 'UNKNOWN', '', #190, #330 ) ;
#312 = PLANE ( 'NONE',  #186 ) ;
#313 = CARTESIAN_POINT ( 'NONE',  ( 0.000000000000000000, 0.000000000000000000, 0.000000000000000000 ) ) ;
#314 = AXIS2_PLACEMENT_3D ( 'NONE', #179, #244, #286 ) ;
#315 = EDGE_LOOP ( 'NONE', ( #122, #168, #88, #150 ) ) ;
#316 = DIRECTION ( 'NONE',  ( 0.000000000000000000, 1.000000000000000000, 0.000000000000000000 ) ) ;
#317 = DIRECTION ( 'NONE',  ( 0.000000000000000000, 0.000000000000000000, -1.000000000000000000 ) ) ;
#318 = SURFACE_SIDE_STYLE ('',( #354 ) ) ;
#319 = SURFACE_SIDE_STYLE ('',( #348 ) ) ;
#320 = EDGE_CURVE ( 'NONE', #9, #6, #181, .T. ) ;
#321 = CARTESIAN_POINT ( 'NONE',  ( 0.000000000000000000, 50.00000000000000000, 0.000000000000000000 ) ) ;
#322 = LINE ( 'NONE', #91, #159 ) ;
#323 = COLOUR_RGB ( '',0.7921568627450980005, 0.8196078431372548767, 0.9333333333333333481 ) ;
#324 = AXIS2_PLACEMENT_3D ( 'NONE', #289, #351, #87 ) ;
#325 = PRESENTATION_STYLE_ASSIGNMENT (( #328 ) ) ;
#326 = VERTEX_POINT ( 'NONE', #260 ) ;
#327 = EDGE_CURVE ( 'NONE', #176, #32, #227, .T. ) ;
#328 = SURFACE_STYLE_USAGE ( .BOTH. , #349 ) ;
#329 = PRESENTATION_STYLE_ASSIGNMENT (( #248 ) ) ;
#330 = PRODUCT_DEFINITION_CONTEXT ( 'detailed design', #283, 'design' ) ;
#331 = STYLED_ITEM ( 'NONE', ( #367 ), #51 ) ;
#332 = CIRCLE ( 'NONE', #139, 12.50000000000000000 ) ;
#333 = SURFACE_STYLE_USAGE ( .BOTH. , #162 ) ;
#334 = EDGE_LOOP ( 'NONE', ( #350, #342, #92, #270 ) ) ;
#335 = CARTESIAN_POINT ( 'NONE',  ( 0.000000000000000000, 0.000000000000000000, 0.000000000000000000 ) ) ;
#336 = ADVANCED_FACE ( 'NONE', ( #7 ), #5, .T. ) ;
#337 = FILL_AREA_STYLE_COLOUR ( '', #277 ) ;
#338 = DIRECTION ( 'NONE',  ( -1.217753221838294133E-16, 1.000000000000000000, -0.000000000000000000 ) ) ;
#339 = DIRECTION ( 'NONE',  ( -0.000000000000000000, -1.000000000000000000, -0.000000000000000000 ) ) ;
#340 =( GEOMETRIC_REPRESENTATION_CONTEXT ( 3 ) GLOBAL_UNCERTAINTY_ASSIGNED_CONTEXT ( ( #255 ) ) GLOBAL_UNIT_ASSIGNED_CONTEXT ( ( #17, #245, #298 ) ) REPRESENTATION_CONTEXT ( 'NONE', 'WORKASPACE' ) );
#341 = APPLICATION_CONTEXT ( 'automotive_design' ) ;
#342 = ORIENTED_EDGE ( 'NONE', *, *, #19, .T. ) ;
#343 = DIRECTION ( 'NONE',  ( 0.000000000000000000, 0.000000000000000000, -1.000000000000000000 ) ) ;
#344 = CLOSED_SHELL ( 'NONE', ( #54, #364, #183, #12 ) ) ;
#345 = PRESENTATION_LAYER_ASSIGNMENT (  '', '', ( #29 ) ) ;
#346 = EDGE_LOOP ( 'NONE', ( #264, #39, #173, #13 ) ) ;
#347 = SHAPE_DEFINITION_REPRESENTATION ( #136, #23 ) ;
#348 = SURFACE_STYLE_FILL_AREA ( #94 ) ;
#349 = SURFACE_SIDE_STYLE ('',( #230 ) ) ;
#350 = ORIENTED_EDGE ( 'NONE', *, *, #291, .T. ) ;
#351 = DIRECTION ( 'NONE',  ( -0.000000000000000000, -1.000000000000000000, -0.000000000000000000 ) ) ;
#352 = ORIENTED_EDGE ( 'NONE', *, *, #355, .F. ) ;
#353 = DIRECTION ( 'NONE',  ( -0.000000000000000000, -1.000000000000000000, -0.000000000000000000 ) ) ;
#354 = SURFACE_STYLE_FILL_AREA ( #242 ) ;
#355 = EDGE_CURVE ( 'NONE', #196, #6, #33, .T. ) ;
#356 = CYLINDRICAL_SURFACE ( 'NONE', #37, 12.50000000000000000 ) ;
#357 = CARTESIAN_POINT ( 'NONE',  ( 0.000000000000000000, 50.00000000000000000, 0.000000000000000000 ) ) ;
#358 = VECTOR ( 'NONE', #288, 1000.000000000000000 ) ;
#359 = FILL_AREA_STYLE ('',( #118 ) ) ;
#360 = SURFACE_SIDE_STYLE ('',( #45 ) ) ;
#361 = SURFACE_STYLE_FILL_AREA ( #243 ) ;
#362 = CARTESIAN_POINT ( 'NONE',  ( 0.000000000000000000, 0.000000000000000000, 0.000000000000000000 ) ) ;
#363 = COLOUR_RGB ( '',1.000000000000000000, 0.000000000000000000, 0.000000000000000000 ) ;
#364 = ADVANCED_FACE ( 'NONE', ( #102 ), #297, .F. ) ;
#365 = VECTOR ( 'NONE', #197, 1000.000000000000000 ) ;
#366 = ORIENTED_EDGE ( 'NONE', *, *, #254, .T. ) ;
#367 = PRESENTATION_STYLE_ASSIGNMENT (( #333 ) ) ;
#368 = COLOUR_RGB ( '',1.000000000000000000, 0.000000000000000000, 0.000000000000000000 ) ;
#369 = CIRCLE ( 'NONE', #38, 12.50000000000000355 ) ;
#370 =( GEOMETRIC_REPRESENTATION_CONTEXT ( 3 ) GLOBAL_UNCERTAINTY_ASSIGNED_CONTEXT ( ( #27 ) ) GLOBAL_UNIT_ASSIGNED_CONTEXT ( ( #215, #307, #26 ) ) REPRESENTATION_CONTEXT ( 'NONE', 'WORKASPACE' ) );
ENDSEC;
END-ISO-10303-21;
