ISO-10303-21;
HEADER;
FILE_DESCRIPTION (( 'STEP AP214' ),
    '1' );
FILE_NAME ('Micro_SHRM-140-4.STEP',
    '2021-09-02T09:18:15',
    ( '' ),
    ( '' ),
    'SwSTEP 2.0',
    'SolidWorks 2020',
    '' );
FILE_SCHEMA (( 'AUTOMOTIVE_DESIGN' ));
ENDSEC;

DATA;
#1 = CARTESIAN_POINT ( 'NONE',  ( -0.2753149094999998159, 3.371635226767182256E-17, 1.377952999999999983 ) ) ;
#2 = DIMENSIONAL_EXPONENTS ( 1.000000000000000000, 0.0000000000000000000, 0.0000000000000000000, 0.0000000000000000000, 0.0000000000000000000, 0.0000000000000000000, 0.0000000000000000000 ) ;
#3 = DIRECTION ( 'NONE',  ( -1.000000000000000000, 0.0000000000000000000, 0.0000000000000000000 ) ) ;
#4 = AXIS2_PLACEMENT_3D ( 'NONE', #98, #5, #122 ) ;
#5 = DIRECTION ( 'NONE',  ( 1.224646799147353454E-16, 0.0000000000000000000, 1.000000000000000000 ) ) ;
#6 = DIRECTION ( 'NONE',  ( -1.224646799147353454E-16, -0.0000000000000000000, -1.000000000000000000 ) ) ;
#7 = EDGE_CURVE ( 'NONE', #289, #217, #127, .T. ) ;
#8 = CARTESIAN_POINT ( 'NONE',  ( 0.2605905000000014460, 3.283161727068144454E-17, 3.267717000000000649 ) ) ;
#9 = DIRECTION ( 'NONE',  ( -1.000000000000000000, 0.0000000000000000000, 0.0000000000000000000 ) ) ;
#10 = VERTEX_POINT ( 'NONE', #38 ) ;
#11 = ORIENTED_EDGE ( 'NONE', *, *, #46, .F. ) ;
#12 = VECTOR ( 'NONE', #259, 39.37007874015748143 ) ;
#13 = DIRECTION ( 'NONE',  ( 1.000000000000000000, 0.0000000000000000000, 0.0000000000000000000 ) ) ;
#14 = CONICAL_SURFACE ( 'NONE', #4, 0.2753149095000000379, 0.1745329251994338082 ) ;
#15 = ORIENTED_EDGE ( 'NONE', *, *, #46, .T. ) ;
#16 = ORIENTED_EDGE ( 'NONE', *, *, #82, .T. ) ;
#17 = ORIENTED_EDGE ( 'NONE', *, *, #58, .T. ) ;
#18 =( LENGTH_UNIT ( ) NAMED_UNIT ( * ) SI_UNIT ( $, .METRE. ) );
#19 = AXIS2_PLACEMENT_3D ( 'NONE', #41, #156, #90 ) ;
#20 = CIRCLE ( 'NONE', #124, 0.2753149095000000379 ) ;
#21 = EDGE_CURVE ( 'NONE', #109, #246, #214, .T. ) ;
#22 = FACE_OUTER_BOUND ( 'NONE', #176, .T. ) ;
#23 = DIRECTION ( 'NONE',  ( -1.000000000000000000, 0.0000000000000000000, 1.224646799147353207E-16 ) ) ;
#24 = CARTESIAN_POINT ( 'NONE',  ( 0.2753149095000002045, 0.0000000000000000000, 1.377952999999999983 ) ) ;
#25 = CYLINDRICAL_SURFACE ( 'NONE', #279, 0.2753149094999999824 ) ;
#26 = DIMENSIONAL_EXPONENTS ( 1.000000000000000000, 0.0000000000000000000, 0.0000000000000000000, 0.0000000000000000000, 0.0000000000000000000, 0.0000000000000000000, 0.0000000000000000000 ) ;
#27 = PLANE ( 'NONE',  #173 ) ;
#28 = UNCERTAINTY_MEASURE_WITH_UNIT (LENGTH_MEASURE( 1.000000000000000082E-05 ), #59, 'distance_accuracy_value', 'NONE');
#29 = DIRECTION ( 'NONE',  ( 1.000000000000000000, 0.0000000000000000000, 0.0000000000000000000 ) ) ;
#30 = AXIS2_PLACEMENT_3D ( 'NONE', #258, #232, #47 ) ;
#31 = LINE ( 'NONE', #191, #189 ) ;
#32 = FACE_OUTER_BOUND ( 'NONE', #179, .T. ) ;
#33 = CARTESIAN_POINT ( 'NONE',  ( 0.2605905000000014460, 3.191313217132101795E-17, 3.267717000000000649 ) ) ;
#34 = AXIS2_PLACEMENT_3D ( 'NONE', #144, #190, #209 ) ;
#35 = ORIENTED_EDGE ( 'NONE', *, *, #280, .F. ) ;
#36 = ORIENTED_EDGE ( 'NONE', *, *, #91, .T. ) ;
#37 = ORIENTED_EDGE ( 'NONE', *, *, #186, .F. ) ;
#38 = CARTESIAN_POINT ( 'NONE',  ( 0.2753149094999999824, 3.371635226767182256E-17, 0.0000000000000000000 ) ) ;
#39 = VECTOR ( 'NONE', #171, 39.37007874015748143 ) ;
#40 = ORIENTED_EDGE ( 'NONE', *, *, #21, .T. ) ;
#41 = CARTESIAN_POINT ( 'NONE',  ( 4.129062288352891690E-33, 0.0000000000000000000, 3.371635226767182256E-17 ) ) ;
#42 = CARTESIAN_POINT ( 'NONE',  ( 0.0000000000000000000, 0.0000000000000000000, 0.0000000000000000000 ) ) ;
#43 = CARTESIAN_POINT ( 'NONE',  ( 0.0000000000000000000, 0.0000000000000000000, 0.0000000000000000000 ) ) ;
#44 = MANIFOLD_SOLID_BREP ( 'Cut-Revolve1', #169 ) ;
#45 = CARTESIAN_POINT ( 'NONE',  ( -0.2753149094999999824, 0.0000000000000000000, 6.743270453534364513E-17 ) ) ;
#46 = EDGE_CURVE ( 'NONE', #217, #10, #146, .T. ) ;
#47 = DIRECTION ( 'NONE',  ( -1.000000000000000000, 0.0000000000000000000, 0.0000000000000000000 ) ) ;
#48 = ADVANCED_FACE ( 'NONE', ( #22 ), #223, .T. ) ;
#49 = LINE ( 'NONE', #51, #72 ) ;
#50 = DIRECTION ( 'NONE',  ( 0.0000000000000000000, 0.0000000000000000000, 1.000000000000000000 ) ) ;
#51 = CARTESIAN_POINT ( 'NONE',  ( -0.2755905000000000715, 0.0000000000000000000, 3.267717000000000649 ) ) ;
#52 = DIMENSIONAL_EXPONENTS ( 1.000000000000000000, 0.0000000000000000000, 0.0000000000000000000, 0.0000000000000000000, 0.0000000000000000000, 0.0000000000000000000, 0.0000000000000000000 ) ;
#53 = CARTESIAN_POINT ( 'NONE',  ( 0.0000000000000000000, 0.0000000000000000000, 0.0000000000000000000 ) ) ;
#54 = ADVANCED_FACE ( 'NONE', ( #226 ), #228, .F. ) ;
#55 = VECTOR ( 'NONE', #137, 39.37007874015748143 ) ;
#56 = CIRCLE ( 'NONE', #34, 0.2605905000000014460 ) ;
#57 = DIRECTION ( 'NONE',  ( 1.000000000000000000, 0.0000000000000000000, 0.0000000000000000000 ) ) ;
#58 = EDGE_CURVE ( 'NONE', #241, #200, #250, .T. ) ;
#59 =( CONVERSION_BASED_UNIT ( 'INCH', #271 ) LENGTH_UNIT ( ) NAMED_UNIT ( #52 ) );
#60 = ORIENTED_EDGE ( 'NONE', *, *, #239, .F. ) ;
#61 = VERTEX_POINT ( 'NONE', #116 ) ;
#62 =( NAMED_UNIT ( * ) PLANE_ANGLE_UNIT ( ) SI_UNIT ( $, .RADIAN. ) );
#63 = MECHANICAL_DESIGN_GEOMETRIC_PRESENTATION_REPRESENTATION (  '', ( #252 ), #283 ) ;
#64 = ORIENTED_EDGE ( 'NONE', *, *, #132, .T. ) ;
#65 = EDGE_LOOP ( 'NONE', ( #64, #222 ) ) ;
#66 = DIRECTION ( 'NONE',  ( 0.0000000000000000000, 0.0000000000000000000, 1.000000000000000000 ) ) ;
#67 = AXIS2_PLACEMENT_3D ( 'NONE', #113, #297, #253 ) ;
#68 = SURFACE_SIDE_STYLE ('',( #138 ) ) ;
#69 = EDGE_CURVE ( 'NONE', #241, #10, #205, .T. ) ;
#70 = FACE_OUTER_BOUND ( 'NONE', #198, .T. ) ;
#71 = CARTESIAN_POINT ( 'NONE',  ( 0.0000000000000000000, 0.0000000000000000000, 3.267717000000000649 ) ) ;
#72 = VECTOR ( 'NONE', #145, 39.37007874015748143 ) ;
#73 = DIRECTION ( 'NONE',  ( -1.000000000000000000, 0.0000000000000000000, 0.0000000000000000000 ) ) ;
#74 = DIRECTION ( 'NONE',  ( 0.0000000000000000000, 0.0000000000000000000, 1.000000000000000000 ) ) ;
#75 = ADVANCED_FACE ( 'NONE', ( #229 ), #25, .T. ) ;
#76 = DIRECTION ( 'NONE',  ( 1.000000000000000000, 0.0000000000000000000, -0.0000000000000000000 ) ) ;
#77 = DIRECTION ( 'NONE',  ( 0.0000000000000000000, 0.0000000000000000000, 1.000000000000000000 ) ) ;
#78 = PRODUCT_DEFINITION_SHAPE ( 'NONE', 'NONE',  #99 ) ;
#79 = ORIENTED_EDGE ( 'NONE', *, *, #293, .T. ) ;
#80 = AXIS2_PLACEMENT_3D ( 'NONE', #234, #166, #97 ) ;
#81 = EDGE_LOOP ( 'NONE', ( #79, #195, #11, #274 ) ) ;
#82 = EDGE_CURVE ( 'NONE', #289, #196, #249, .T. ) ;
#83 = APPLICATION_CONTEXT ( 'automotive_design' ) ;
#84 = CARTESIAN_POINT ( 'NONE',  ( 0.0000000000000000000, 0.0000000000000000000, 3.252717000000001857 ) ) ;
#85 =( NAMED_UNIT ( * ) SI_UNIT ( $, .STERADIAN. ) SOLID_ANGLE_UNIT ( ) );
#86 = ORIENTED_EDGE ( 'NONE', *, *, #132, .F. ) ;
#87 = ORIENTED_EDGE ( 'NONE', *, *, #186, .T. ) ;
#88 = DIRECTION ( 'NONE',  ( 1.000000000000000000, 0.0000000000000000000, -0.0000000000000000000 ) ) ;
#89 = CARTESIAN_POINT ( 'NONE',  ( 0.0000000000000000000, 0.0000000000000000000, 0.0000000000000000000 ) ) ;
#90 = DIRECTION ( 'NONE',  ( -1.000000000000000000, 0.0000000000000000000, 1.224646799147353207E-16 ) ) ;
#91 = EDGE_CURVE ( 'NONE', #10, #217, #157, .T. ) ;
#92 = CARTESIAN_POINT ( 'NONE',  ( 0.2753149094999999824, 3.371635226767182256E-17, -3.371635226767182256E-17 ) ) ;
#93 = AXIS2_PLACEMENT_3D ( 'NONE', #282, #115, #134 ) ;
#94 = DIRECTION ( 'NONE',  ( -0.7071067811865466846, 0.0000000000000000000, -0.7071067811865483499 ) ) ;
#95 = CIRCLE ( 'NONE', #30, 0.2753149095000000379 ) ;
#96 = UNCERTAINTY_MEASURE_WITH_UNIT (LENGTH_MEASURE( 1.000000000000000082E-05 ), #151, 'distance_accuracy_value', 'NONE');
#97 = DIRECTION ( 'NONE',  ( 1.000000000000000000, 0.0000000000000000000, 0.0000000000000000000 ) ) ;
#98 = CARTESIAN_POINT ( 'NONE',  ( 1.687505730825493004E-16, 0.0000000000000000000, 1.377952999999999983 ) ) ;
#99 = PRODUCT_DEFINITION ( 'UNKNOWN', '', #184, #288 ) ;
#100 = CARTESIAN_POINT ( 'NONE',  ( 1.687505730825493004E-16, 0.0000000000000000000, 1.377952999999999983 ) ) ;
#101 = ADVANCED_FACE ( 'NONE', ( #136 ), #204, .T. ) ;
#102 = ORIENTED_EDGE ( 'NONE', *, *, #69, .F. ) ;
#103 = PRODUCT_CONTEXT ( 'NONE', #83, 'mechanical' ) ;
#104 = ORIENTED_EDGE ( 'NONE', *, *, #221, .T. ) ;
#105 = CONICAL_SURFACE ( 'NONE', #210, 0.2605905000000014460, 0.7853981633974471688 ) ;
#106 =( GEOMETRIC_REPRESENTATION_CONTEXT ( 3 ) GLOBAL_UNCERTAINTY_ASSIGNED_CONTEXT ( ( #96 ) ) GLOBAL_UNIT_ASSIGNED_CONTEXT ( ( #151, #245, #85 ) ) REPRESENTATION_CONTEXT ( 'NONE', 'WORKASPACE' ) );
#107 = EDGE_LOOP ( 'NONE', ( #15, #36 ) ) ;
#108 = EDGE_LOOP ( 'NONE', ( #248, #219, #17, #295 ) ) ;
#109 = VERTEX_POINT ( 'NONE', #187 ) ;
#110 = ADVANCED_FACE ( 'NONE', ( #70 ), #185, .T. ) ;
#111 = AXIS2_PLACEMENT_3D ( 'NONE', #89, #181, #281 ) ;
#112 = CARTESIAN_POINT ( 'NONE',  ( 0.0000000000000000000, 0.0000000000000000000, 3.267717000000000649 ) ) ;
#113 = CARTESIAN_POINT ( 'NONE',  ( 0.0000000000000000000, 0.0000000000000000000, 3.267717000000000649 ) ) ;
#114 = ADVANCED_FACE ( 'NONE', ( #118 ), #158, .T. ) ;
#115 = DIRECTION ( 'NONE',  ( -1.224646799147353454E-16, -0.0000000000000000000, -1.000000000000000000 ) ) ;
#116 = CARTESIAN_POINT ( 'NONE',  ( -0.2605905000000014460, 0.0000000000000000000, 3.267717000000000649 ) ) ;
#117 = CARTESIAN_POINT ( 'NONE',  ( -0.2755905000000000715, 0.0000000000000000000, 3.252717000000001857 ) ) ;
#118 = FACE_OUTER_BOUND ( 'NONE', #152, .T. ) ;
#119 = AXIS2_PLACEMENT_3D ( 'NONE', #287, #50, #213 ) ;
#120 = CARTESIAN_POINT ( 'NONE',  ( 0.0000000000000000000, 0.0000000000000000000, 3.267717000000000649 ) ) ;
#121 = FACE_OUTER_BOUND ( 'NONE', #108, .T. ) ;
#122 = DIRECTION ( 'NONE',  ( 1.000000000000000000, 0.0000000000000000000, 0.0000000000000000000 ) ) ;
#123 = PRESENTATION_LAYER_ASSIGNMENT (  '', '', ( #252 ) ) ;
#124 = AXIS2_PLACEMENT_3D ( 'NONE', #139, #231, #73 ) ;
#125 = EDGE_CURVE ( 'NONE', #196, #200, #267, .T. ) ;
#126 = APPLICATION_PROTOCOL_DEFINITION ( 'draft international standard', 'automotive_design', 1998, #227 ) ;
#127 = LINE ( 'NONE', #150, #39 ) ;
#128 = ORIENTED_EDGE ( 'NONE', *, *, #230, .T. ) ;
#129 = SHAPE_DEFINITION_REPRESENTATION ( #78, #275 ) ;
#130 = ORIENTED_EDGE ( 'NONE', *, *, #125, .F. ) ;
#131 = ORIENTED_EDGE ( 'NONE', *, *, #207, .T. ) ;
#132 = EDGE_CURVE ( 'NONE', #61, #148, #56, .T. ) ;
#133 = EDGE_LOOP ( 'NONE', ( #60, #87, #294, #244 ) ) ;
#134 = DIRECTION ( 'NONE',  ( -1.000000000000000000, 0.0000000000000000000, 1.224646799147353207E-16 ) ) ;
#135 = CIRCLE ( 'NONE', #80, 0.2755905000000000715 ) ;
#136 = FACE_OUTER_BOUND ( 'NONE', #269, .T. ) ;
#137 = DIRECTION ( 'NONE',  ( 0.1736481776669313026, 0.0000000000000000000, 0.9848077530122077983 ) ) ;
#138 = SURFACE_STYLE_FILL_AREA ( #277 ) ;
#139 = CARTESIAN_POINT ( 'NONE',  ( 1.687505730825493004E-16, 0.0000000000000000000, 1.377952999999999983 ) ) ;
#140 = DIRECTION ( 'NONE',  ( 1.000000000000000000, 0.0000000000000000000, 0.0000000000000000000 ) ) ;
#141 = VECTOR ( 'NONE', #206, 39.37007874015747433 ) ;
#142 = CARTESIAN_POINT ( 'NONE',  ( -0.2755904999999998495, 0.0000000000000000000, 1.379515951392309425 ) ) ;
#143 = PRESENTATION_LAYER_ASSIGNMENT (  '', '', ( #255 ) ) ;
#144 = CARTESIAN_POINT ( 'NONE',  ( 0.0000000000000000000, 0.0000000000000000000, 3.267717000000000649 ) ) ;
#145 = DIRECTION ( 'NONE',  ( -0.0000000000000000000, -0.0000000000000000000, -1.000000000000000000 ) ) ;
#146 = CIRCLE ( 'NONE', #19, 0.2753149094999999824 ) ;
#147 = CIRCLE ( 'NONE', #233, 0.2755905000000000715 ) ;
#148 = VERTEX_POINT ( 'NONE', #8 ) ;
#149 =( NAMED_UNIT ( * ) SI_UNIT ( $, .STERADIAN. ) SOLID_ANGLE_UNIT ( ) );
#150 = CARTESIAN_POINT ( 'NONE',  ( -0.2753149094999999824, 0.0000000000000000000, 3.371635226767182256E-17 ) ) ;
#151 =( CONVERSION_BASED_UNIT ( 'INCH', #199 ) LENGTH_UNIT ( ) NAMED_UNIT ( #26 ) );
#152 = EDGE_LOOP ( 'NONE', ( #37, #86, #128, #201 ) ) ;
#153 = ORIENTED_EDGE ( 'NONE', *, *, #125, .T. ) ;
#154 = EDGE_CURVE ( 'NONE', #200, #196, #147, .T. ) ;
#155 = DIRECTION ( 'NONE',  ( -1.224646799147353454E-16, -0.0000000000000000000, -1.000000000000000000 ) ) ;
#156 = DIRECTION ( 'NONE',  ( -1.224646799147353454E-16, -0.0000000000000000000, -1.000000000000000000 ) ) ;
#157 = CIRCLE ( 'NONE', #93, 0.2753149094999999824 ) ;
#158 = CONICAL_SURFACE ( 'NONE', #197, 0.2605905000000014460, 0.7853981633974471688 ) ;
#159 = DIRECTION ( 'NONE',  ( -1.224646799147353454E-16, -0.0000000000000000000, -1.000000000000000000 ) ) ;
#160 = PRESENTATION_STYLE_ASSIGNMENT (( #180 ) ) ;
#161 =( NAMED_UNIT ( * ) PLANE_ANGLE_UNIT ( ) SI_UNIT ( $, .RADIAN. ) );
#162 = DIRECTION ( 'NONE',  ( 0.0000000000000000000, 0.0000000000000000000, -1.000000000000000000 ) ) ;
#163 = AXIS2_PLACEMENT_3D ( 'NONE', #53, #77, #13 ) ;
#164 = CARTESIAN_POINT ( 'NONE',  ( 1.689419794245307801E-16, 0.0000000000000000000, 1.379515951392309425 ) ) ;
#165 =( LENGTH_UNIT ( ) NAMED_UNIT ( * ) SI_UNIT ( $, .METRE. ) );
#166 = DIRECTION ( 'NONE',  ( 0.0000000000000000000, 0.0000000000000000000, -1.000000000000000000 ) ) ;
#167 = AXIS2_PLACEMENT_3D ( 'NONE', #43, #66, #88 ) ;
#168 = CARTESIAN_POINT ( 'NONE',  ( 0.2755905000000000715, 3.375010237004186497E-17, 3.267717000000000649 ) ) ;
#169 = CLOSED_SHELL ( 'NONE', ( #75, #236, #264, #48, #101, #242, #114, #262, #110, #54 ) ) ;
#170 =( GEOMETRIC_REPRESENTATION_CONTEXT ( 3 ) GLOBAL_UNCERTAINTY_ASSIGNED_CONTEXT ( ( #28 ) ) GLOBAL_UNIT_ASSIGNED_CONTEXT ( ( #59, #62, #149 ) ) REPRESENTATION_CONTEXT ( 'NONE', 'WORKASPACE' ) );
#171 = DIRECTION ( 'NONE',  ( -1.224646799147353454E-16, -0.0000000000000000000, -1.000000000000000000 ) ) ;
#172 = AXIS2_PLACEMENT_3D ( 'NONE', #84, #268, #57 ) ;
#173 = AXIS2_PLACEMENT_3D ( 'NONE', #120, #74, #76 ) ;
#174 = SURFACE_STYLE_FILL_AREA ( #240 ) ;
#175 = ORIENTED_EDGE ( 'NONE', *, *, #58, .F. ) ;
#176 = EDGE_LOOP ( 'NONE', ( #131, #292, #130, #35 ) ) ;
#177 = SURFACE_STYLE_USAGE ( .BOTH. , #243 ) ;
#178 = ORIENTED_EDGE ( 'NONE', *, *, #154, .F. ) ;
#179 = EDGE_LOOP ( 'NONE', ( #291, #16, #153, #175 ) ) ;
#180 = SURFACE_STYLE_USAGE ( .BOTH. , #68 ) ;
#181 = DIRECTION ( 'NONE',  ( -1.224646799147353454E-16, -0.0000000000000000000, -1.000000000000000000 ) ) ;
#182 = PRODUCT ( 'Micro_SHRM-140-4', 'Micro_SHRM-140-4', '', ( #103 ) ) ;
#183 = MECHANICAL_DESIGN_GEOMETRIC_PRESENTATION_REPRESENTATION (  '', ( #255 ), #106 ) ;
#184 = PRODUCT_DEFINITION_FORMATION_WITH_SPECIFIED_SOURCE ( 'ANY', '', #182, .NOT_KNOWN. ) ;
#185 = CYLINDRICAL_SURFACE ( 'NONE', #111, 0.2753149094999999824 ) ;
#186 = EDGE_CURVE ( 'NONE', #148, #109, #260, .T. ) ;
#187 = CARTESIAN_POINT ( 'NONE',  ( 0.2755905000000000715, 3.375010237004186497E-17, 3.252717000000001857 ) ) ;
#188 = DIRECTION ( 'NONE',  ( -0.0000000000000000000, -0.0000000000000000000, -1.000000000000000000 ) ) ;
#189 = VECTOR ( 'NONE', #94, 39.37007874015748143 ) ;
#190 = DIRECTION ( 'NONE',  ( 0.0000000000000000000, 0.0000000000000000000, 1.000000000000000000 ) ) ;
#191 = CARTESIAN_POINT ( 'NONE',  ( -0.2605905000000014460, 0.0000000000000000000, 3.267717000000000649 ) ) ;
#192 = CARTESIAN_POINT ( 'NONE',  ( 1.689419794245307801E-16, 0.0000000000000000000, 1.379515951392309425 ) ) ;
#193 = DIRECTION ( 'NONE',  ( 1.224646799147353454E-16, 0.0000000000000000000, 1.000000000000000000 ) ) ;
#194 =( LENGTH_UNIT ( ) NAMED_UNIT ( * ) SI_UNIT ( $, .METRE. ) );
#195 = ORIENTED_EDGE ( 'NONE', *, *, #69, .T. ) ;
#196 = VERTEX_POINT ( 'NONE', #142 ) ;
#197 = AXIS2_PLACEMENT_3D ( 'NONE', #261, #162, #9 ) ;
#198 = EDGE_LOOP ( 'NONE', ( #102, #104, #238, #270 ) ) ;
#199 = LENGTH_MEASURE_WITH_UNIT ( LENGTH_MEASURE( 0.02539999999999999897 ), #194 );
#200 = VERTEX_POINT ( 'NONE', #235 ) ;
#201 = ORIENTED_EDGE ( 'NONE', *, *, #21, .F. ) ;
#202 =( NAMED_UNIT ( * ) SI_UNIT ( $, .STERADIAN. ) SOLID_ANGLE_UNIT ( ) );
#203 = LENGTH_MEASURE_WITH_UNIT ( LENGTH_MEASURE( 0.02539999999999999897 ), #18 );
#204 = CYLINDRICAL_SURFACE ( 'NONE', #67, 0.2755905000000000715 ) ;
#205 = LINE ( 'NONE', #92, #247 ) ;
#206 = DIRECTION ( 'NONE',  ( -0.1736481776669311083, 2.126576849575782084E-17, 0.9848077530122080203 ) ) ;
#207 = EDGE_CURVE ( 'NONE', #246, #109, #135, .T. ) ;
#208 = DIRECTION ( 'NONE',  ( 0.0000000000000000000, 0.0000000000000000000, -1.000000000000000000 ) ) ;
#209 = DIRECTION ( 'NONE',  ( 1.000000000000000000, 0.0000000000000000000, 0.0000000000000000000 ) ) ;
#210 = AXIS2_PLACEMENT_3D ( 'NONE', #71, #208, #3 ) ;
#211 = DIRECTION ( 'NONE',  ( 1.000000000000000000, 0.0000000000000000000, 0.0000000000000000000 ) ) ;
#212 = FACE_OUTER_BOUND ( 'NONE', #133, .T. ) ;
#213 = DIRECTION ( 'NONE',  ( 1.000000000000000000, 0.0000000000000000000, 0.0000000000000000000 ) ) ;
#214 = CIRCLE ( 'NONE', #172, 0.2755905000000000715 ) ;
#215 = AXIS2_PLACEMENT_3D ( 'NONE', #192, #6, #211 ) ;
#216 = PRODUCT_RELATED_PRODUCT_CATEGORY ( 'part', '', ( #182 ) ) ;
#217 = VERTEX_POINT ( 'NONE', #45 ) ;
#218 = PRESENTATION_STYLE_ASSIGNMENT (( #177 ) ) ;
#219 = ORIENTED_EDGE ( 'NONE', *, *, #221, .F. ) ;
#220 = ORIENTED_EDGE ( 'NONE', *, *, #272, .F. ) ;
#221 = EDGE_CURVE ( 'NONE', #241, #289, #20, .T. ) ;
#222 = ORIENTED_EDGE ( 'NONE', *, *, #239, .T. ) ;
#223 = CYLINDRICAL_SURFACE ( 'NONE', #224, 0.2755905000000000715 ) ;
#224 = AXIS2_PLACEMENT_3D ( 'NONE', #112, #299, #296 ) ;
#225 = CONICAL_SURFACE ( 'NONE', #251, 0.2753149095000000379, 0.1745329251994338082 ) ;
#226 = FACE_OUTER_BOUND ( 'NONE', #107, .T. ) ;
#227 = APPLICATION_CONTEXT ( 'automotive_design' ) ;
#228 = PLANE ( 'NONE',  #167 ) ;
#229 = FACE_OUTER_BOUND ( 'NONE', #81, .T. ) ;
#230 = EDGE_CURVE ( 'NONE', #61, #246, #31, .T. ) ;
#231 = DIRECTION ( 'NONE',  ( -1.224646799147353454E-16, -0.0000000000000000000, -1.000000000000000000 ) ) ;
#232 = DIRECTION ( 'NONE',  ( -1.224646799147353454E-16, -0.0000000000000000000, -1.000000000000000000 ) ) ;
#233 = AXIS2_PLACEMENT_3D ( 'NONE', #164, #256, #140 ) ;
#234 = CARTESIAN_POINT ( 'NONE',  ( 0.0000000000000000000, 0.0000000000000000000, 3.252717000000001857 ) ) ;
#235 = CARTESIAN_POINT ( 'NONE',  ( 0.2755905000000002381, 3.375010237004188345E-17, 1.379515951392309425 ) ) ;
#236 = ADVANCED_FACE ( 'NONE', ( #32 ), #14, .T. ) ;
#237 = CARTESIAN_POINT ( 'NONE',  ( -0.2753149094999998159, 3.373322731885684685E-17, 1.377952999999999983 ) ) ;
#238 = ORIENTED_EDGE ( 'NONE', *, *, #7, .T. ) ;
#239 = EDGE_CURVE ( 'NONE', #148, #61, #278, .T. ) ;
#240 = FILL_AREA_STYLE ('',( #263 ) ) ;
#241 = VERTEX_POINT ( 'NONE', #286 ) ;
#242 = ADVANCED_FACE ( 'NONE', ( #284 ), #27, .T. ) ;
#243 = SURFACE_SIDE_STYLE ('',( #174 ) ) ;
#244 = ORIENTED_EDGE ( 'NONE', *, *, #230, .F. ) ;
#245 =( NAMED_UNIT ( * ) PLANE_ANGLE_UNIT ( ) SI_UNIT ( $, .RADIAN. ) );
#246 = VERTEX_POINT ( 'NONE', #117 ) ;
#247 = VECTOR ( 'NONE', #159, 39.37007874015748143 ) ;
#248 = ORIENTED_EDGE ( 'NONE', *, *, #82, .F. ) ;
#249 = LINE ( 'NONE', #1, #141 ) ;
#250 = LINE ( 'NONE', #24, #55 ) ;
#251 = AXIS2_PLACEMENT_3D ( 'NONE', #100, #193, #29 ) ;
#252 = STYLED_ITEM ( 'NONE', ( #160 ), #44 ) ;
#253 = DIRECTION ( 'NONE',  ( -1.000000000000000000, 0.0000000000000000000, 0.0000000000000000000 ) ) ;
#254 = FILL_AREA_STYLE_COLOUR ( '', #298 ) ;
#255 = STYLED_ITEM ( 'NONE', ( #218 ), #275 ) ;
#256 = DIRECTION ( 'NONE',  ( -1.224646799147353454E-16, -0.0000000000000000000, -1.000000000000000000 ) ) ;
#257 = UNCERTAINTY_MEASURE_WITH_UNIT (LENGTH_MEASURE( 1.000000000000000082E-05 ), #276, 'distance_accuracy_value', 'NONE');
#258 = CARTESIAN_POINT ( 'NONE',  ( 1.687505730825493004E-16, 0.0000000000000000000, 1.377952999999999983 ) ) ;
#259 = DIRECTION ( 'NONE',  ( 0.7071067811865466846, 8.659560562354922997E-17, -0.7071067811865483499 ) ) ;
#260 = LINE ( 'NONE', #33, #12 ) ;
#261 = CARTESIAN_POINT ( 'NONE',  ( 0.0000000000000000000, 0.0000000000000000000, 3.267717000000000649 ) ) ;
#262 = ADVANCED_FACE ( 'NONE', ( #121 ), #225, .T. ) ;
#263 = FILL_AREA_STYLE_COLOUR ( '', #290 ) ;
#264 = ADVANCED_FACE ( 'NONE', ( #212 ), #105, .T. ) ;
#265 = VECTOR ( 'NONE', #188, 39.37007874015748143 ) ;
#266 = APPLICATION_PROTOCOL_DEFINITION ( 'draft international standard', 'automotive_design', 1998, #83 ) ;
#267 = CIRCLE ( 'NONE', #215, 0.2755905000000000715 ) ;
#268 = DIRECTION ( 'NONE',  ( 0.0000000000000000000, 0.0000000000000000000, -1.000000000000000000 ) ) ;
#269 = EDGE_LOOP ( 'NONE', ( #220, #40, #273, #178 ) ) ;
#270 = ORIENTED_EDGE ( 'NONE', *, *, #91, .F. ) ;
#271 = LENGTH_MEASURE_WITH_UNIT ( LENGTH_MEASURE( 0.02539999999999999897 ), #165 );
#272 = EDGE_CURVE ( 'NONE', #109, #200, #285, .T. ) ;
#273 = ORIENTED_EDGE ( 'NONE', *, *, #280, .T. ) ;
#274 = ORIENTED_EDGE ( 'NONE', *, *, #7, .F. ) ;
#275 = ADVANCED_BREP_SHAPE_REPRESENTATION ( 'Micro_SHRM-140-4', ( #44, #163 ), #170 ) ;
#276 =( CONVERSION_BASED_UNIT ( 'INCH', #203 ) LENGTH_UNIT ( ) NAMED_UNIT ( #2 ) );
#277 = FILL_AREA_STYLE ('',( #254 ) ) ;
#278 = CIRCLE ( 'NONE', #119, 0.2605905000000014460 ) ;
#279 = AXIS2_PLACEMENT_3D ( 'NONE', #42, #155, #23 ) ;
#280 = EDGE_CURVE ( 'NONE', #246, #196, #49, .T. ) ;
#281 = DIRECTION ( 'NONE',  ( -1.000000000000000000, 0.0000000000000000000, 1.224646799147353207E-16 ) ) ;
#282 = CARTESIAN_POINT ( 'NONE',  ( 4.129062288352891690E-33, 0.0000000000000000000, 3.371635226767182256E-17 ) ) ;
#283 =( GEOMETRIC_REPRESENTATION_CONTEXT ( 3 ) GLOBAL_UNCERTAINTY_ASSIGNED_CONTEXT ( ( #257 ) ) GLOBAL_UNIT_ASSIGNED_CONTEXT ( ( #276, #161, #202 ) ) REPRESENTATION_CONTEXT ( 'NONE', 'WORKASPACE' ) );
#284 = FACE_OUTER_BOUND ( 'NONE', #65, .T. ) ;
#285 = LINE ( 'NONE', #168, #265 ) ;
#286 = CARTESIAN_POINT ( 'NONE',  ( 0.2753149095000002045, 0.0000000000000000000, 1.377952999999999983 ) ) ;
#287 = CARTESIAN_POINT ( 'NONE',  ( 0.0000000000000000000, 0.0000000000000000000, 3.267717000000000649 ) ) ;
#288 = PRODUCT_DEFINITION_CONTEXT ( 'detailed design', #227, 'design' ) ;
#289 = VERTEX_POINT ( 'NONE', #237 ) ;
#290 = COLOUR_RGB ( '',0.7921568627450980005, 0.8196078431372548767, 0.9333333333333333481 ) ;
#291 = ORIENTED_EDGE ( 'NONE', *, *, #293, .F. ) ;
#292 = ORIENTED_EDGE ( 'NONE', *, *, #272, .T. ) ;
#293 = EDGE_CURVE ( 'NONE', #289, #241, #95, .T. ) ;
#294 = ORIENTED_EDGE ( 'NONE', *, *, #207, .F. ) ;
#295 = ORIENTED_EDGE ( 'NONE', *, *, #154, .T. ) ;
#296 = DIRECTION ( 'NONE',  ( -1.000000000000000000, 0.0000000000000000000, 0.0000000000000000000 ) ) ;
#297 = DIRECTION ( 'NONE',  ( -0.0000000000000000000, -0.0000000000000000000, -1.000000000000000000 ) ) ;
#298 = COLOUR_RGB ( '',0.7921568627450980005, 0.8196078431372548767, 0.9333333333333333481 ) ;
#299 = DIRECTION ( 'NONE',  ( -0.0000000000000000000, -0.0000000000000000000, -1.000000000000000000 ) ) ;
ENDSEC;
END-ISO-10303-21;
