ISO-10303-21;
HEADER;
FILE_DESCRIPTION (( 'STEP AP214' ),
    '1' );
FILE_NAME ('Micro_BEM-250-03X.STEP',
    '2021-09-03T13:08:55',
    ( '' ),
    ( '' ),
    'SwSTEP 2.0',
    'SolidWorks 2020',
    '' );
FILE_SCHEMA (( 'AUTOMOTIVE_DESIGN' ));
ENDSEC;

DATA;
#1 = EDGE_CURVE ( 'NONE', #107, #203, #185, .T. ) ;
#2 = EDGE_CURVE ( 'NONE', #107, #304, #14, .T. ) ;
#3 = ORIENTED_EDGE ( 'NONE', *, *, #263, .F. ) ;
#4 = DIMENSIONAL_EXPONENTS ( 1.000000000000000000, 0.0000000000000000000, 0.0000000000000000000, 0.0000000000000000000, 0.0000000000000000000, 0.0000000000000000000, 0.0000000000000000000 ) ;
#5 = CARTESIAN_POINT ( 'NONE',  ( 9.193532640014472135E-17, 0.0000000000000000000, 0.7507089102274522308 ) ) ;
#6 = ORIENTED_EDGE ( 'NONE', *, *, #144, .F. ) ;
#7 = DIRECTION ( 'NONE',  ( -1.000000000000000000, 0.0000000000000000000, 0.0000000000000000000 ) ) ;
#8 = EDGE_LOOP ( 'NONE', ( #280, #62, #230, #104 ) ) ;
#9 = VECTOR ( 'NONE', #11, 39.37007874015748143 ) ;
#10 = PRODUCT_DEFINITION_FORMATION_WITH_SPECIFIED_SOURCE ( 'ANY', '', #179, .NOT_KNOWN. ) ;
#11 = DIRECTION ( 'NONE',  ( -0.0000000000000000000, -0.0000000000000000000, -1.000000000000000000 ) ) ;
#12 = ORIENTED_EDGE ( 'NONE', *, *, #117, .F. ) ;
#13 = DIRECTION ( 'NONE',  ( 1.000000000000000000, 0.0000000000000000000, 0.0000000000000000000 ) ) ;
#14 = LINE ( 'NONE', #237, #131 ) ;
#15 = CARTESIAN_POINT ( 'NONE',  ( 0.1248750000000000276, 1.529277690435257475E-17, 0.1248749999999999860 ) ) ;
#16 = APPLICATION_CONTEXT ( 'automotive_design' ) ;
#17 = AXIS2_PLACEMENT_3D ( 'NONE', #79, #124, #291 ) ;
#18 =( LENGTH_UNIT ( ) NAMED_UNIT ( * ) SI_UNIT ( $, .METRE. ) );
#19 = APPLICATION_PROTOCOL_DEFINITION ( 'draft international standard', 'automotive_design', 1998, #303 ) ;
#20 = DIRECTION ( 'NONE',  ( -0.0000000000000000000, -0.0000000000000000000, -1.000000000000000000 ) ) ;
#21 = AXIS2_PLACEMENT_3D ( 'NONE', #113, #119, #115 ) ;
#22 = AXIS2_PLACEMENT_3D ( 'NONE', #127, #147, #54 ) ;
#23 = DIRECTION ( 'NONE',  ( 0.0000000000000000000, 1.000000000000000000, 0.0000000000000000000 ) ) ;
#24 = DIRECTION ( 'NONE',  ( 1.000000000000000000, 0.0000000000000000000, 0.0000000000000000000 ) ) ;
#25 = EDGE_CURVE ( 'NONE', #306, #312, #190, .T. ) ;
#26 = AXIS2_PLACEMENT_3D ( 'NONE', #221, #321, #96 ) ;
#27 = ORIENTED_EDGE ( 'NONE', *, *, #256, .F. ) ;
#28 = EDGE_CURVE ( 'NONE', #107, #306, #172, .T. ) ;
#29 = AXIS2_PLACEMENT_3D ( 'NONE', #44, #23, #167 ) ;
#30 = CARTESIAN_POINT ( 'NONE',  ( 0.1248750000000000970, 0.0000000000000000000, 0.7500000000000001110 ) ) ;
#31 =( CONVERSION_BASED_UNIT ( 'INCH', #178 ) LENGTH_UNIT ( ) NAMED_UNIT ( #135 ) );
#32 = DIMENSIONAL_EXPONENTS ( 1.000000000000000000, 0.0000000000000000000, 0.0000000000000000000, 0.0000000000000000000, 0.0000000000000000000, 0.0000000000000000000, 0.0000000000000000000 ) ;
#33 = VERTEX_POINT ( 'NONE', #210 ) ;
#34 = CARTESIAN_POINT ( 'NONE',  ( 0.1100000000000001948, 1.347111479062090784E-17, 2.500000000000000000 ) ) ;
#35 = ORIENTED_EDGE ( 'NONE', *, *, #247, .T. ) ;
#36 = CARTESIAN_POINT ( 'NONE',  ( 0.0000000000000000000, 0.0000000000000000000, 2.485000000000000320 ) ) ;
#37 = DIRECTION ( 'NONE',  ( 0.1736481776669314969, 0.0000000000000000000, 0.9848077530122077983 ) ) ;
#38 = AXIS2_PLACEMENT_3D ( 'NONE', #298, #126, #24 ) ;
#39 = MANIFOLD_SOLID_BREP ( 'Fillet1', #224 ) ;
#40 = DIRECTION ( 'NONE',  ( 1.000000000000000000, 0.0000000000000000000, 0.0000000000000000000 ) ) ;
#41 = ORIENTED_EDGE ( 'NONE', *, *, #238, .T. ) ;
#42 =( LENGTH_UNIT ( ) NAMED_UNIT ( * ) SI_UNIT ( $, .METRE. ) );
#43 = FACE_OUTER_BOUND ( 'NONE', #163, .T. ) ;
#44 = CARTESIAN_POINT ( 'NONE',  ( 1.529277690435257475E-17, 0.0000000000000000000, 0.1248749999999999999 ) ) ;
#45 = FACE_OUTER_BOUND ( 'NONE', #175, .T. ) ;
#46 = PRESENTATION_STYLE_ASSIGNMENT (( #271 ) ) ;
#47 = ADVANCED_FACE ( 'NONE', ( #121 ), #92, .T. ) ;
#48 = DIRECTION ( 'NONE',  ( -1.000000000000000000, 0.0000000000000000000, 1.224646799147353454E-16 ) ) ;
#49 = UNCERTAINTY_MEASURE_WITH_UNIT (LENGTH_MEASURE( 1.000000000000000082E-05 ), #77, 'distance_accuracy_value', 'NONE');
#50 = SURFACE_SIDE_STYLE ('',( #146 ) ) ;
#51 = AXIS2_PLACEMENT_3D ( 'NONE', #5, #204, #183 ) ;
#52 = DIRECTION ( 'NONE',  ( 1.224646799147353207E-16, 0.0000000000000000000, 1.000000000000000000 ) ) ;
#53 = SURFACE_STYLE_FILL_AREA ( #72 ) ;
#54 = DIRECTION ( 'NONE',  ( 1.000000000000000000, 0.0000000000000000000, 0.0000000000000000000 ) ) ;
#55 = ORIENTED_EDGE ( 'NONE', *, *, #277, .F. ) ;
#56 = EDGE_CURVE ( 'NONE', #323, #203, #316, .T. ) ;
#57 = EDGE_LOOP ( 'NONE', ( #138, #264, #12 ) ) ;
#58 = EDGE_CURVE ( 'NONE', #312, #203, #275, .T. ) ;
#59 = EDGE_LOOP ( 'NONE', ( #112, #201, #254, #227 ) ) ;
#60 = DIRECTION ( 'NONE',  ( 1.000000000000000000, 0.0000000000000000000, 0.0000000000000000000 ) ) ;
#61 = AXIS2_PLACEMENT_3D ( 'NONE', #260, #253, #288 ) ;
#62 = ORIENTED_EDGE ( 'NONE', *, *, #238, .F. ) ;
#63 = ORIENTED_EDGE ( 'NONE', *, *, #65, .F. ) ;
#64 = CARTESIAN_POINT ( 'NONE',  ( 1.529277690435257475E-17, 0.0000000000000000000, 0.1248749999999999999 ) ) ;
#65 = EDGE_CURVE ( 'NONE', #306, #287, #194, .T. ) ;
#66 = DIRECTION ( 'NONE',  ( -0.1736481776669312749, 2.126576849575784241E-17, 0.9848077530122077983 ) ) ;
#67 = FACE_OUTER_BOUND ( 'NONE', #157, .T. ) ;
#68 = CIRCLE ( 'NONE', #51, 0.1250000000000000000 ) ;
#69 = EDGE_LOOP ( 'NONE', ( #198, #235 ) ) ;
#70 = DIRECTION ( 'NONE',  ( -0.7071067811865499042, 0.0000000000000000000, -0.7071067811865451302 ) ) ;
#71 = EDGE_CURVE ( 'NONE', #33, #182, #307, .T. ) ;
#72 = FILL_AREA_STYLE ('',( #297 ) ) ;
#73 = DIRECTION ( 'NONE',  ( -1.224646799147353207E-16, -0.0000000000000000000, -1.000000000000000000 ) ) ;
#74 = PRODUCT_DEFINITION_CONTEXT ( 'detailed design', #16, 'design' ) ;
#75 = CONICAL_SURFACE ( 'NONE', #289, 0.1100000000000001948, 0.7853981633974517207 ) ;
#76 =( NAMED_UNIT ( * ) SI_UNIT ( $, .STERADIAN. ) SOLID_ANGLE_UNIT ( ) );
#77 =( CONVERSION_BASED_UNIT ( 'INCH', #168 ) LENGTH_UNIT ( ) NAMED_UNIT ( #4 ) );
#78 = ADVANCED_FACE ( 'NONE', ( #220 ), #217, .T. ) ;
#79 = CARTESIAN_POINT ( 'NONE',  ( 0.0000000000000000000, 0.0000000000000000000, 2.500000000000000000 ) ) ;
#80 = DIRECTION ( 'NONE',  ( 1.000000000000000000, 0.0000000000000000000, 0.0000000000000000000 ) ) ;
#81 = AXIS2_PLACEMENT_3D ( 'NONE', #86, #265, #7 ) ;
#82 = AXIS2_PLACEMENT_3D ( 'NONE', #189, #186, #255 ) ;
#83 = AXIS2_PLACEMENT_3D ( 'NONE', #164, #90, #286 ) ;
#84 = MECHANICAL_DESIGN_GEOMETRIC_PRESENTATION_REPRESENTATION (  '', ( #132 ), #206 ) ;
#85 = ORIENTED_EDGE ( 'NONE', *, *, #176, .T. ) ;
#86 = CARTESIAN_POINT ( 'NONE',  ( 0.0000000000000000000, 0.0000000000000000000, 2.500000000000000000 ) ) ;
#87 = ORIENTED_EDGE ( 'NONE', *, *, #1, .T. ) ;
#88 = DIRECTION ( 'NONE',  ( 0.7071067811865499042, 8.659560562354961208E-17, -0.7071067811865451302 ) ) ;
#89 = EDGE_LOOP ( 'NONE', ( #180, #259, #301, #153 ) ) ;
#90 = DIRECTION ( 'NONE',  ( 1.224646799147353207E-16, 0.0000000000000000000, 1.000000000000000000 ) ) ;
#91 =( CONVERSION_BASED_UNIT ( 'INCH', #311 ) LENGTH_UNIT ( ) NAMED_UNIT ( #32 ) );
#92 = CYLINDRICAL_SURFACE ( 'NONE', #129, 0.1248749999999999999 ) ;
#93 = FACE_OUTER_BOUND ( 'NONE', #57, .T. ) ;
#94 = AXIS2_PLACEMENT_3D ( 'NONE', #279, #158, #13 ) ;
#95 = ORIENTED_EDGE ( 'NONE', *, *, #25, .F. ) ;
#96 = DIRECTION ( 'NONE',  ( 1.000000000000000000, 0.0000000000000000000, -0.0000000000000000000 ) ) ;
#97 = CARTESIAN_POINT ( 'NONE',  ( 0.1248749999999999999, 1.529277690435257475E-17, -1.529277690435257475E-17 ) ) ;
#98 = CARTESIAN_POINT ( 'NONE',  ( 1.529277690435257475E-17, 0.0000000000000000000, 0.1248749999999999999 ) ) ;
#99 = AXIS2_PLACEMENT_3D ( 'NONE', #197, #52, #80 ) ;
#100 = CIRCLE ( 'NONE', #200, 0.1248749999999999999 ) ;
#101 =( NAMED_UNIT ( * ) PLANE_ANGLE_UNIT ( ) SI_UNIT ( $, .RADIAN. ) );
#102 = LINE ( 'NONE', #290, #205 ) ;
#103 = AXIS2_PLACEMENT_3D ( 'NONE', #145, #292, #195 ) ;
#104 = ORIENTED_EDGE ( 'NONE', *, *, #58, .T. ) ;
#105 = AXIS2_PLACEMENT_3D ( 'NONE', #36, #308, #40 ) ;
#106 =( NAMED_UNIT ( * ) SI_UNIT ( $, .STERADIAN. ) SOLID_ANGLE_UNIT ( ) );
#107 = VERTEX_POINT ( 'NONE', #241 ) ;
#108 = CARTESIAN_POINT ( 'NONE',  ( 1.529277690435257475E-17, 0.0000000000000000000, 0.1248749999999999999 ) ) ;
#109 = ORIENTED_EDGE ( 'NONE', *, *, #117, .T. ) ;
#110 = DIRECTION ( 'NONE',  ( -1.000000000000000000, 0.0000000000000000000, 0.0000000000000000000 ) ) ;
#111 = COLOUR_RGB ( '',0.7921568627450980005, 0.8196078431372548767, 0.9333333333333333481 ) ;
#112 = ORIENTED_EDGE ( 'NONE', *, *, #176, .F. ) ;
#113 = CARTESIAN_POINT ( 'NONE',  ( 1.529277690435257475E-17, 0.0000000000000000000, 0.1248749999999999999 ) ) ;
#114 = DIRECTION ( 'NONE',  ( -1.000000000000000000, 0.0000000000000000000, 0.0000000000000000000 ) ) ;
#115 = DIRECTION ( 'NONE',  ( -1.000000000000000000, 1.224646799147353454E-16, 0.0000000000000000000 ) ) ;
#116 = ADVANCED_FACE ( 'NONE', ( #45 ), #166, .T. ) ;
#117 = EDGE_CURVE ( 'NONE', #304, #287, #214, .T. ) ;
#118 = VERTEX_POINT ( 'NONE', #266 ) ;
#119 = DIRECTION ( 'NONE',  ( 1.224646799147353207E-16, 1.000000000000000000, -0.0000000000000000000 ) ) ;
#120 = ADVANCED_FACE ( 'NONE', ( #125 ), #267, .T. ) ;
#121 = FACE_OUTER_BOUND ( 'NONE', #89, .T. ) ;
#122 = ADVANCED_BREP_SHAPE_REPRESENTATION ( 'Micro_BEM-250-03X', ( #39, #22 ), #234 ) ;
#123 = FILL_AREA_STYLE ('',( #295 ) ) ;
#124 = DIRECTION ( 'NONE',  ( 0.0000000000000000000, 0.0000000000000000000, 1.000000000000000000 ) ) ;
#125 = FACE_OUTER_BOUND ( 'NONE', #69, .T. ) ;
#126 = DIRECTION ( 'NONE',  ( 1.224646799147353207E-16, 0.0000000000000000000, 1.000000000000000000 ) ) ;
#127 = CARTESIAN_POINT ( 'NONE',  ( 0.0000000000000000000, 0.0000000000000000000, 0.0000000000000000000 ) ) ;
#128 = EDGE_LOOP ( 'NONE', ( #250, #136, #251 ) ) ;
#129 = AXIS2_PLACEMENT_3D ( 'NONE', #242, #273, #48 ) ;
#130 = ORIENTED_EDGE ( 'NONE', *, *, #320, .F. ) ;
#131 = VECTOR ( 'NONE', #159, 39.37007874015748143 ) ;
#132 = STYLED_ITEM ( 'NONE', ( #46 ), #122 ) ;
#133 = EDGE_LOOP ( 'NONE', ( #155, #87, #35, #95 ) ) ;
#134 = CARTESIAN_POINT ( 'NONE',  ( 0.0000000000000000000, 0.0000000000000000000, 2.500000000000000000 ) ) ;
#135 = DIMENSIONAL_EXPONENTS ( 1.000000000000000000, 0.0000000000000000000, 0.0000000000000000000, 0.0000000000000000000, 0.0000000000000000000, 0.0000000000000000000, 0.0000000000000000000 ) ;
#136 = ORIENTED_EDGE ( 'NONE', *, *, #231, .T. ) ;
#137 = CARTESIAN_POINT ( 'NONE',  ( 0.1250000000000000833, 1.530808498934192433E-17, 0.7507089102274522308 ) ) ;
#138 = ORIENTED_EDGE ( 'NONE', *, *, #231, .F. ) ;
#139 = DIRECTION ( 'NONE',  ( 0.0000000000000000000, 1.000000000000000000, 0.0000000000000000000 ) ) ;
#140 = CONICAL_SURFACE ( 'NONE', #38, 0.1248749999999999999, 0.1745329251994340025 ) ;
#141 = CARTESIAN_POINT ( 'NONE',  ( 9.184850993605150903E-17, 0.0000000000000000000, 0.7500000000000001110 ) ) ;
#142 = CARTESIAN_POINT ( 'NONE',  ( -0.1248749999999999860, 0.0000000000000000000, 0.1248750000000000276 ) ) ;
#143 = ORIENTED_EDGE ( 'NONE', *, *, #144, .T. ) ;
#144 = EDGE_CURVE ( 'NONE', #182, #323, #102, .T. ) ;
#145 = CARTESIAN_POINT ( 'NONE',  ( 9.193532640014472135E-17, 0.0000000000000000000, 0.7507089102274522308 ) ) ;
#146 = SURFACE_STYLE_FILL_AREA ( #123 ) ;
#147 = DIRECTION ( 'NONE',  ( 0.0000000000000000000, 0.0000000000000000000, 1.000000000000000000 ) ) ;
#148 = DIRECTION ( 'NONE',  ( -1.000000000000000000, 0.0000000000000000000, 1.367291288120251888E-16 ) ) ;
#149 = DIRECTION ( 'NONE',  ( -1.224646799147353207E-16, -0.0000000000000000000, -1.000000000000000000 ) ) ;
#150 = SHAPE_DEFINITION_REPRESENTATION ( #161, #122 ) ;
#151 = VECTOR ( 'NONE', #37, 39.37007874015748143 ) ;
#152 = AXIS2_PLACEMENT_3D ( 'NONE', #191, #149, #246 ) ;
#153 = ORIENTED_EDGE ( 'NONE', *, *, #2, .F. ) ;
#154 = ADVANCED_FACE ( 'NONE', ( #43 ), #239, .T. ) ;
#155 = ORIENTED_EDGE ( 'NONE', *, *, #28, .F. ) ;
#156 = DIRECTION ( 'NONE',  ( 0.0000000000000000000, 0.0000000000000000000, -1.000000000000000000 ) ) ;
#157 = EDGE_LOOP ( 'NONE', ( #314, #283, #27, #6 ) ) ;
#158 = DIRECTION ( 'NONE',  ( 0.0000000000000000000, 0.0000000000000000000, 1.000000000000000000 ) ) ;
#159 = DIRECTION ( 'NONE',  ( -1.224646799147353207E-16, -0.0000000000000000000, -1.000000000000000000 ) ) ;
#160 = CARTESIAN_POINT ( 'NONE',  ( 0.1248750000000000970, 0.0000000000000000000, 0.7500000000000001110 ) ) ;
#161 = PRODUCT_DEFINITION_SHAPE ( 'NONE', 'NONE',  #187 ) ;
#162 = CIRCLE ( 'NONE', #21, 0.1248749999999999999 ) ;
#163 = EDGE_LOOP ( 'NONE', ( #63, #41, #257, #109 ) ) ;
#164 = CARTESIAN_POINT ( 'NONE',  ( 1.529277690435257475E-17, 0.0000000000000000000, 0.1248749999999999999 ) ) ;
#165 = ADVANCED_FACE ( 'NONE', ( #276 ), #233, .T. ) ;
#166 = CONICAL_SURFACE ( 'NONE', #300, 0.1100000000000001948, 0.7853981633974517207 ) ;
#167 = DIRECTION ( 'NONE',  ( 1.000000000000000000, 0.0000000000000000000, 0.0000000000000000000 ) ) ;
#168 = LENGTH_MEASURE_WITH_UNIT ( LENGTH_MEASURE( 0.02539999999999999897 ), #18 );
#169 = UNCERTAINTY_MEASURE_WITH_UNIT (LENGTH_MEASURE( 1.000000000000000082E-05 ), #91, 'distance_accuracy_value', 'NONE');
#170 = DIRECTION ( 'NONE',  ( -1.000000000000000000, 0.0000000000000000000, 0.0000000000000000000 ) ) ;
#171 = FACE_OUTER_BOUND ( 'NONE', #8, .T. ) ;
#172 = CIRCLE ( 'NONE', #281, 0.1248749999999999999 ) ;
#173 = VECTOR ( 'NONE', #88, 39.37007874015748143 ) ;
#174 = ADVANCED_FACE ( 'NONE', ( #171 ), #140, .T. ) ;
#175 = EDGE_LOOP ( 'NONE', ( #55, #3, #143, #130 ) ) ;
#176 = EDGE_CURVE ( 'NONE', #118, #312, #223, .T. ) ;
#177 = AXIS2_PLACEMENT_3D ( 'NONE', #98, #245, #148 ) ;
#178 = LENGTH_MEASURE_WITH_UNIT ( LENGTH_MEASURE( 0.02539999999999999897 ), #42 );
#179 = PRODUCT ( 'Micro_BEM-250-03X', 'Micro_BEM-250-03X', '', ( #222 ) ) ;
#180 = ORIENTED_EDGE ( 'NONE', *, *, #28, .T. ) ;
#181 = SPHERICAL_SURFACE ( 'NONE', #302, 0.1248749999999999999 ) ;
#182 = VERTEX_POINT ( 'NONE', #208 ) ;
#183 = DIRECTION ( 'NONE',  ( 1.000000000000000000, 0.0000000000000000000, 0.0000000000000000000 ) ) ;
#184 = EDGE_CURVE ( 'NONE', #287, #304, #219, .T. ) ;
#185 = LINE ( 'NONE', #285, #229 ) ;
#186 = DIRECTION ( 'NONE',  ( -0.0000000000000000000, -0.0000000000000000000, -1.000000000000000000 ) ) ;
#187 = PRODUCT_DEFINITION ( 'UNKNOWN', '', #10, #74 ) ;
#188 = ORIENTED_EDGE ( 'NONE', *, *, #56, .F. ) ;
#189 = CARTESIAN_POINT ( 'NONE',  ( 0.0000000000000000000, 0.0000000000000000000, 2.500000000000000000 ) ) ;
#190 = LINE ( 'NONE', #30, #151 ) ;
#191 = CARTESIAN_POINT ( 'NONE',  ( 0.0000000000000000000, 0.0000000000000000000, 0.0000000000000000000 ) ) ;
#192 = CARTESIAN_POINT ( 'NONE',  ( -0.1250000000000000000, 0.0000000000000000000, 2.500000000000000000 ) ) ;
#193 = SURFACE_SIDE_STYLE ('',( #53 ) ) ;
#194 = LINE ( 'NONE', #97, #318 ) ;
#195 = DIRECTION ( 'NONE',  ( 1.000000000000000000, 0.0000000000000000000, 0.0000000000000000000 ) ) ;
#196 = ADVANCED_FACE ( 'NONE', ( #93 ), #181, .T. ) ;
#197 = CARTESIAN_POINT ( 'NONE',  ( 9.184850993605150903E-17, 0.0000000000000000000, 0.7500000000000001110 ) ) ;
#198 = ORIENTED_EDGE ( 'NONE', *, *, #263, .T. ) ;
#199 = AXIS2_PLACEMENT_3D ( 'NONE', #228, #211, #110 ) ;
#200 = AXIS2_PLACEMENT_3D ( 'NONE', #108, #313, #213 ) ;
#201 = ORIENTED_EDGE ( 'NONE', *, *, #320, .T. ) ;
#202 = CYLINDRICAL_SURFACE ( 'NONE', #82, 0.1250000000000000000 ) ;
#203 = VERTEX_POINT ( 'NONE', #282 ) ;
#204 = DIRECTION ( 'NONE',  ( -1.224646799147353207E-16, -0.0000000000000000000, -1.000000000000000000 ) ) ;
#205 = VECTOR ( 'NONE', #70, 39.37007874015748143 ) ;
#206 =( GEOMETRIC_REPRESENTATION_CONTEXT ( 3 ) GLOBAL_UNCERTAINTY_ASSIGNED_CONTEXT ( ( #169 ) ) GLOBAL_UNIT_ASSIGNED_CONTEXT ( ( #91, #262, #76 ) ) REPRESENTATION_CONTEXT ( 'NONE', 'WORKASPACE' ) );
#207 = ORIENTED_EDGE ( 'NONE', *, *, #247, .F. ) ;
#208 = CARTESIAN_POINT ( 'NONE',  ( -0.1100000000000001948, 0.0000000000000000000, 2.500000000000000000 ) ) ;
#209 = PRODUCT_RELATED_PRODUCT_CATEGORY ( 'part', '', ( #179 ) ) ;
#210 = CARTESIAN_POINT ( 'NONE',  ( 0.1100000000000001948, 1.438959988998141146E-17, 2.500000000000000000 ) ) ;
#211 = DIRECTION ( 'NONE',  ( -1.224646799147353207E-16, -0.0000000000000000000, -1.000000000000000000 ) ) ;
#212 = EDGE_LOOP ( 'NONE', ( #325, #85, #207, #188 ) ) ;
#213 = DIRECTION ( 'NONE',  ( 0.0000000000000000000, 0.0000000000000000000, -1.000000000000000000 ) ) ;
#214 = CIRCLE ( 'NONE', #177, 0.1248749999999999999 ) ;
#215 = ADVANCED_FACE ( 'NONE', ( #305 ), #310, .T. ) ;
#216 =( NAMED_UNIT ( * ) SI_UNIT ( $, .STERADIAN. ) SOLID_ANGLE_UNIT ( ) );
#217 = SPHERICAL_SURFACE ( 'NONE', #29, 0.1248749999999999999 ) ;
#218 = UNCERTAINTY_MEASURE_WITH_UNIT (LENGTH_MEASURE( 1.000000000000000082E-05 ), #31, 'distance_accuracy_value', 'NONE');
#219 = CIRCLE ( 'NONE', #83, 0.1248749999999999999 ) ;
#220 = FACE_OUTER_BOUND ( 'NONE', #128, .T. ) ;
#221 = CARTESIAN_POINT ( 'NONE',  ( 0.0000000000000000000, 0.0000000000000000000, 2.500000000000000000 ) ) ;
#222 = PRODUCT_CONTEXT ( 'NONE', #303, 'mechanical' ) ;
#223 = LINE ( 'NONE', #322, #9 ) ;
#224 = CLOSED_SHELL ( 'NONE', ( #78, #47, #165, #272, #215, #299, #120, #116, #174, #154, #196 ) ) ;
#225 = CIRCLE ( 'NONE', #94, 0.1100000000000001948 ) ;
#226 = DIRECTION ( 'NONE',  ( -1.224646799147353207E-16, -0.0000000000000000000, -1.000000000000000000 ) ) ;
#227 = ORIENTED_EDGE ( 'NONE', *, *, #58, .F. ) ;
#228 = CARTESIAN_POINT ( 'NONE',  ( 9.184850993605150903E-17, 0.0000000000000000000, 0.7500000000000001110 ) ) ;
#229 = VECTOR ( 'NONE', #66, 39.37007874015748143 ) ;
#230 = ORIENTED_EDGE ( 'NONE', *, *, #25, .T. ) ;
#231 = EDGE_CURVE ( 'NONE', #309, #304, #162, .T. ) ;
#232 = DIRECTION ( 'NONE',  ( -1.000000000000000000, 0.0000000000000000000, 0.0000000000000000000 ) ) ;
#233 = CONICAL_SURFACE ( 'NONE', #99, 0.1248749999999999999, 0.1745329251994340025 ) ;
#234 =( GEOMETRIC_REPRESENTATION_CONTEXT ( 3 ) GLOBAL_UNCERTAINTY_ASSIGNED_CONTEXT ( ( #218 ) ) GLOBAL_UNIT_ASSIGNED_CONTEXT ( ( #31, #243, #106 ) ) REPRESENTATION_CONTEXT ( 'NONE', 'WORKASPACE' ) );
#235 = ORIENTED_EDGE ( 'NONE', *, *, #71, .T. ) ;
#236 = CARTESIAN_POINT ( 'NONE',  ( 2.293916535652885904E-17, 0.0000000000000000000, 0.0000000000000000000 ) ) ;
#237 = CARTESIAN_POINT ( 'NONE',  ( -0.1248749999999999999, 0.0000000000000000000, 1.529277690435257475E-17 ) ) ;
#238 = EDGE_CURVE ( 'NONE', #306, #107, #252, .T. ) ;
#239 = CYLINDRICAL_SURFACE ( 'NONE', #152, 0.1248749999999999999 ) ;
#240 = STYLED_ITEM ( 'NONE', ( #296 ), #39 ) ;
#241 = CARTESIAN_POINT ( 'NONE',  ( -0.1248749999999999166, 1.530043094684724646E-17, 0.7500000000000001110 ) ) ;
#242 = CARTESIAN_POINT ( 'NONE',  ( 0.0000000000000000000, 0.0000000000000000000, 0.0000000000000000000 ) ) ;
#243 =( NAMED_UNIT ( * ) PLANE_ANGLE_UNIT ( ) SI_UNIT ( $, .RADIAN. ) );
#244 = CIRCLE ( 'NONE', #105, 0.1250000000000000000 ) ;
#245 = DIRECTION ( 'NONE',  ( 1.224646799147353207E-16, 0.0000000000000000000, 1.000000000000000000 ) ) ;
#246 = DIRECTION ( 'NONE',  ( -1.000000000000000000, 0.0000000000000000000, 1.224646799147353454E-16 ) ) ;
#247 = EDGE_CURVE ( 'NONE', #203, #312, #68, .T. ) ;
#248 = MECHANICAL_DESIGN_GEOMETRIC_PRESENTATION_REPRESENTATION (  '', ( #240 ), #324 ) ;
#249 = CIRCLE ( 'NONE', #61, 0.1250000000000000000 ) ;
#250 = ORIENTED_EDGE ( 'NONE', *, *, #293, .F. ) ;
#251 = ORIENTED_EDGE ( 'NONE', *, *, #184, .F. ) ;
#252 = CIRCLE ( 'NONE', #199, 0.1248749999999999999 ) ;
#253 = DIRECTION ( 'NONE',  ( 0.0000000000000000000, 0.0000000000000000000, -1.000000000000000000 ) ) ;
#254 = ORIENTED_EDGE ( 'NONE', *, *, #56, .T. ) ;
#255 = DIRECTION ( 'NONE',  ( -1.000000000000000000, 0.0000000000000000000, 0.0000000000000000000 ) ) ;
#256 = EDGE_CURVE ( 'NONE', #323, #118, #244, .T. ) ;
#257 = ORIENTED_EDGE ( 'NONE', *, *, #2, .T. ) ;
#258 = FACE_OUTER_BOUND ( 'NONE', #59, .T. ) ;
#259 = ORIENTED_EDGE ( 'NONE', *, *, #65, .T. ) ;
#260 = CARTESIAN_POINT ( 'NONE',  ( 0.0000000000000000000, 0.0000000000000000000, 2.485000000000000320 ) ) ;
#261 = VECTOR ( 'NONE', #20, 39.37007874015748143 ) ;
#262 =( NAMED_UNIT ( * ) PLANE_ANGLE_UNIT ( ) SI_UNIT ( $, .RADIAN. ) );
#263 = EDGE_CURVE ( 'NONE', #182, #33, #225, .T. ) ;
#264 = ORIENTED_EDGE ( 'NONE', *, *, #293, .T. ) ;
#265 = DIRECTION ( 'NONE',  ( -0.0000000000000000000, -0.0000000000000000000, -1.000000000000000000 ) ) ;
#266 = CARTESIAN_POINT ( 'NONE',  ( 0.1250000000000000000, 1.530808498934191509E-17, 2.485000000000000320 ) ) ;
#267 = PLANE ( 'NONE',  #26 ) ;
#268 = PRESENTATION_LAYER_ASSIGNMENT (  '', '', ( #240 ) ) ;
#269 =( LENGTH_UNIT ( ) NAMED_UNIT ( * ) SI_UNIT ( $, .METRE. ) );
#270 = CARTESIAN_POINT ( 'NONE',  ( 0.0000000000000000000, 0.0000000000000000000, 2.500000000000000000 ) ) ;
#271 = SURFACE_STYLE_USAGE ( .BOTH. , #193 ) ;
#272 = ADVANCED_FACE ( 'NONE', ( #67 ), #75, .T. ) ;
#273 = DIRECTION ( 'NONE',  ( -1.224646799147353207E-16, -0.0000000000000000000, -1.000000000000000000 ) ) ;
#274 = APPLICATION_PROTOCOL_DEFINITION ( 'draft international standard', 'automotive_design', 1998, #16 ) ;
#275 = CIRCLE ( 'NONE', #103, 0.1250000000000000000 ) ;
#276 = FACE_OUTER_BOUND ( 'NONE', #133, .T. ) ;
#277 = EDGE_CURVE ( 'NONE', #33, #118, #284, .T. ) ;
#278 = COLOUR_RGB ( '',0.7921568627450980005, 0.8196078431372548767, 0.9333333333333333481 ) ;
#279 = CARTESIAN_POINT ( 'NONE',  ( 0.0000000000000000000, 0.0000000000000000000, 2.500000000000000000 ) ) ;
#280 = ORIENTED_EDGE ( 'NONE', *, *, #1, .F. ) ;
#281 = AXIS2_PLACEMENT_3D ( 'NONE', #141, #226, #114 ) ;
#282 = CARTESIAN_POINT ( 'NONE',  ( -0.1249999999999999167, 0.0000000000000000000, 0.7507089102274522308 ) ) ;
#283 = ORIENTED_EDGE ( 'NONE', *, *, #277, .T. ) ;
#284 = LINE ( 'NONE', #34, #173 ) ;
#285 = CARTESIAN_POINT ( 'NONE',  ( -0.1248749999999999166, 1.529277690435257475E-17, 0.7500000000000001110 ) ) ;
#286 = DIRECTION ( 'NONE',  ( -1.000000000000000000, 0.0000000000000000000, 1.367291288120251888E-16 ) ) ;
#287 = VERTEX_POINT ( 'NONE', #15 ) ;
#288 = DIRECTION ( 'NONE',  ( 1.000000000000000000, 0.0000000000000000000, 0.0000000000000000000 ) ) ;
#289 = AXIS2_PLACEMENT_3D ( 'NONE', #134, #156, #232 ) ;
#290 = CARTESIAN_POINT ( 'NONE',  ( -0.1100000000000001948, 0.0000000000000000000, 2.500000000000000000 ) ) ;
#291 = DIRECTION ( 'NONE',  ( 1.000000000000000000, 0.0000000000000000000, 0.0000000000000000000 ) ) ;
#292 = DIRECTION ( 'NONE',  ( -1.224646799147353207E-16, -0.0000000000000000000, -1.000000000000000000 ) ) ;
#293 = EDGE_CURVE ( 'NONE', #309, #287, #100, .T. ) ;
#294 = PRESENTATION_LAYER_ASSIGNMENT (  '', '', ( #132 ) ) ;
#295 = FILL_AREA_STYLE_COLOUR ( '', #278 ) ;
#296 = PRESENTATION_STYLE_ASSIGNMENT (( #319 ) ) ;
#297 = FILL_AREA_STYLE_COLOUR ( '', #111 ) ;
#298 = CARTESIAN_POINT ( 'NONE',  ( 9.184850993605150903E-17, 0.0000000000000000000, 0.7500000000000001110 ) ) ;
#299 = ADVANCED_FACE ( 'NONE', ( #258 ), #202, .T. ) ;
#300 = AXIS2_PLACEMENT_3D ( 'NONE', #270, #317, #170 ) ;
#301 = ORIENTED_EDGE ( 'NONE', *, *, #184, .T. ) ;
#302 = AXIS2_PLACEMENT_3D ( 'NONE', #64, #139, #60 ) ;
#303 = APPLICATION_CONTEXT ( 'automotive_design' ) ;
#304 = VERTEX_POINT ( 'NONE', #142 ) ;
#305 = FACE_OUTER_BOUND ( 'NONE', #212, .T. ) ;
#306 = VERTEX_POINT ( 'NONE', #160 ) ;
#307 = CIRCLE ( 'NONE', #17, 0.1100000000000001948 ) ;
#308 = DIRECTION ( 'NONE',  ( 0.0000000000000000000, 0.0000000000000000000, -1.000000000000000000 ) ) ;
#309 = VERTEX_POINT ( 'NONE', #236 ) ;
#310 = CYLINDRICAL_SURFACE ( 'NONE', #81, 0.1250000000000000000 ) ;
#311 = LENGTH_MEASURE_WITH_UNIT ( LENGTH_MEASURE( 0.02539999999999999897 ), #269 );
#312 = VERTEX_POINT ( 'NONE', #137 ) ;
#313 = DIRECTION ( 'NONE',  ( 0.0000000000000000000, -1.000000000000000000, 0.0000000000000000000 ) ) ;
#314 = ORIENTED_EDGE ( 'NONE', *, *, #71, .F. ) ;
#315 = CARTESIAN_POINT ( 'NONE',  ( -0.1250000000000000000, 0.0000000000000000000, 2.485000000000000320 ) ) ;
#316 = LINE ( 'NONE', #192, #261 ) ;
#317 = DIRECTION ( 'NONE',  ( 0.0000000000000000000, 0.0000000000000000000, -1.000000000000000000 ) ) ;
#318 = VECTOR ( 'NONE', #73, 39.37007874015748143 ) ;
#319 = SURFACE_STYLE_USAGE ( .BOTH. , #50 ) ;
#320 = EDGE_CURVE ( 'NONE', #118, #323, #249, .T. ) ;
#321 = DIRECTION ( 'NONE',  ( 0.0000000000000000000, 0.0000000000000000000, 1.000000000000000000 ) ) ;
#322 = CARTESIAN_POINT ( 'NONE',  ( 0.1250000000000000000, 1.530808498934191509E-17, 2.500000000000000000 ) ) ;
#323 = VERTEX_POINT ( 'NONE', #315 ) ;
#324 =( GEOMETRIC_REPRESENTATION_CONTEXT ( 3 ) GLOBAL_UNCERTAINTY_ASSIGNED_CONTEXT ( ( #49 ) ) GLOBAL_UNIT_ASSIGNED_CONTEXT ( ( #77, #101, #216 ) ) REPRESENTATION_CONTEXT ( 'NONE', 'WORKASPACE' ) );
#325 = ORIENTED_EDGE ( 'NONE', *, *, #256, .T. ) ;
ENDSEC;
END-ISO-10303-21;
