ISO-10303-21;
HEADER;
FILE_DESCRIPTION (( 'STEP AP214' ),
    '1' );
FILE_NAME ('83369.STEP',
    '2023-06-30T23:08:38',
    ( '' ),
    ( '' ),
    'SwSTEP 2.0',
    'SolidWorks 2023',
    '' );
FILE_SCHEMA (( 'AUTOMOTIVE_DESIGN' ));
ENDSEC;

DATA;
#1 = CARTESIAN_POINT ( 'NONE',  ( -3.827021247335478926E-17, 0.3125000000000000000, 0.000000000000000000 ) ) ;
#2 = DIRECTION ( 'NONE',  ( -1.000000000000000000, 0.000000000000000000, 0.000000000000000000 ) ) ;
#3 = EDGE_CURVE ( 'NONE', #73, #85, #271, .T. ) ;
#4 = CIRCLE ( 'NONE', #112, 0.3124999999999999445 ) ;
#5 = ORIENTED_EDGE ( 'NONE', *, *, #137, .F. ) ;
#6 = CARTESIAN_POINT ( 'NONE',  ( 3.827021247335478926E-17, 0.000000000000000000, 0.3125000000000000000 ) ) ;
#7 = FACE_OUTER_BOUND ( 'NONE', #254, .T. ) ;
#8 = FILL_AREA_STYLE ('',( #17 ) ) ;
#9 = CARTESIAN_POINT ( 'NONE',  ( 0.000000000000000000, 0.000000000000000000, 0.000000000000000000 ) ) ;
#10 =( LENGTH_UNIT ( ) NAMED_UNIT ( * ) SI_UNIT ( $, .METRE. ) );
#11 = CLOSED_SHELL ( 'NONE', ( #27, #352, #265, #82 ) ) ;
#12 = MECHANICAL_DESIGN_GEOMETRIC_PRESENTATION_REPRESENTATION (  '', ( #159 ), #165 ) ;
#13 = CIRCLE ( 'NONE', #119, 0.3124999999999993894 ) ;
#14 = FILL_AREA_STYLE ('',( #253 ) ) ;
#15 = LENGTH_MEASURE_WITH_UNIT ( LENGTH_MEASURE( 0.02539999999999999897 ), #206 );
#16 = EDGE_CURVE ( 'NONE', #295, #73, #320, .T. ) ;
#17 = FILL_AREA_STYLE_COLOUR ( '', #310 ) ;
#18 =( NAMED_UNIT ( * ) PLANE_ANGLE_UNIT ( ) SI_UNIT ( $, .RADIAN. ) );
#19 = PRESENTATION_LAYER_ASSIGNMENT (  '', '', ( #367 ) ) ;
#20 = DIRECTION ( 'NONE',  ( -1.207607263424286938E-16, 1.000000000000000000, -0.000000000000000000 ) ) ;
#21 = DIRECTION ( 'NONE',  ( -0.000000000000000000, -1.000000000000000000, -0.000000000000000000 ) ) ;
#22 = SURFACE_SIDE_STYLE ('',( #275 ) ) ;
#23 = EDGE_CURVE ( 'NONE', #232, #295, #218, .T. ) ;
#24 = CARTESIAN_POINT ( 'NONE',  ( 2.449293598294705921E-16, 3.000000000000000444, 0.000000000000000000 ) ) ;
#25 = COLOUR_RGB ( '',0.7921568627450980005, 0.8196078431372548767, 0.9333333333333333481 ) ;
#26 = PRESENTATION_LAYER_ASSIGNMENT (  '', '', ( #210 ) ) ;
#27 = ADVANCED_FACE ( 'NONE', ( #96 ), #365, .T. ) ;
#28 = ORIENTED_EDGE ( 'NONE', *, *, #65, .T. ) ;
#29 = AXIS2_PLACEMENT_3D ( 'NONE', #106, #20, #133 ) ;
#30 =( CONVERSION_BASED_UNIT ( 'INCH', #337 ) LENGTH_UNIT ( ) NAMED_UNIT ( #247 ) );
#31 = ORIENTED_EDGE ( 'NONE', *, *, #224, .F. ) ;
#32 = ORIENTED_EDGE ( 'NONE', *, *, #146, .F. ) ;
#33 = AXIS2_PLACEMENT_3D ( 'NONE', #237, #300, #42 ) ;
#34 = VERTEX_POINT ( 'NONE', #240 ) ;
#35 = FILL_AREA_STYLE ('',( #233 ) ) ;
#36 = ORIENTED_EDGE ( 'NONE', *, *, #196, .T. ) ;
#37 = SURFACE_STYLE_FILL_AREA ( #35 ) ;
#38 = LENGTH_MEASURE_WITH_UNIT ( LENGTH_MEASURE( 0.02539999999999999897 ), #230 );
#39 =( CONVERSION_BASED_UNIT ( 'INCH', #175 ) LENGTH_UNIT ( ) NAMED_UNIT ( #223 ) );
#40 = LINE ( 'NONE', #6, #322 ) ;
#41 = DIRECTION ( 'NONE',  ( 0.000000000000000000, 0.000000000000000000, -1.000000000000000000 ) ) ;
#42 = DIRECTION ( 'NONE',  ( 1.000000000000000000, 1.207607263424286938E-16, 0.000000000000000000 ) ) ;
#43 = DIRECTION ( 'NONE',  ( -0.000000000000000000, -1.000000000000000000, -0.000000000000000000 ) ) ;
#44 = COLOUR_RGB ( '',1.000000000000000000, 0.000000000000000000, 0.000000000000000000 ) ;
#45 = AXIS2_PLACEMENT_3D ( 'NONE', #9, #299, #97 ) ;
#46 = FACE_OUTER_BOUND ( 'NONE', #197, .T. ) ;
#47 = SURFACE_STYLE_FILL_AREA ( #356 ) ;
#48 =( LENGTH_UNIT ( ) NAMED_UNIT ( * ) SI_UNIT ( $, .METRE. ) );
#49 = DIRECTION ( 'NONE',  ( -1.000000000000000000, 0.000000000000000000, 0.000000000000000000 ) ) ;
#50 = AXIS2_PLACEMENT_3D ( 'NONE', #211, #331, #49 ) ;
#51 = DIRECTION ( 'NONE',  ( 0.000000000000000000, 0.000000000000000000, -1.000000000000000000 ) ) ;
#52 = APPLICATION_CONTEXT ( 'automotive_design' ) ;
#53 =( NAMED_UNIT ( * ) PLANE_ANGLE_UNIT ( ) SI_UNIT ( $, .RADIAN. ) );
#54 = ADVANCED_BREP_SHAPE_REPRESENTATION ( '83369', ( #317, #75, #361 ), #350 ) ;
#55 = DIRECTION ( 'NONE',  ( 1.000000000000000000, 0.000000000000000000, 0.000000000000000000 ) ) ;
#56 = PRODUCT_DEFINITION_FORMATION_WITH_SPECIFIED_SOURCE ( 'ANY', '', #155, .NOT_KNOWN. ) ;
#57 = PRODUCT_DEFINITION_SHAPE ( 'NONE', 'NONE',  #236 ) ;
#58 = VERTEX_POINT ( 'NONE', #105 ) ;
#59 = DIRECTION ( 'NONE',  ( 0.000000000000000000, 0.000000000000000000, -1.000000000000000000 ) ) ;
#60 = APPLICATION_PROTOCOL_DEFINITION ( 'draft international standard', 'automotive_design', 1998, #181 ) ;
#61 = VERTEX_POINT ( 'NONE', #270 ) ;
#62 =( NAMED_UNIT ( * ) SI_UNIT ( $, .STERADIAN. ) SOLID_ANGLE_UNIT ( ) );
#63 = PRESENTATION_LAYER_ASSIGNMENT (  '', '', ( #226 ) ) ;
#64 = ORIENTED_EDGE ( 'NONE', *, *, #284, .T. ) ;
#65 = EDGE_CURVE ( 'NONE', #123, #58, #285, .T. ) ;
#66 = ORIENTED_EDGE ( 'NONE', *, *, #121, .F. ) ;
#67 = FILL_AREA_STYLE ('',( #207 ) ) ;
#68 = PLANE ( 'NONE',  #372 ) ;
#69 =( NAMED_UNIT ( * ) PLANE_ANGLE_UNIT ( ) SI_UNIT ( $, .RADIAN. ) );
#70 = UNCERTAINTY_MEASURE_WITH_UNIT (LENGTH_MEASURE( 1.000000000000000082E-05 ), #30, 'distance_accuracy_value', 'NONE');
#71 = AXIS2_PLACEMENT_3D ( 'NONE', #307, #274, #107 ) ;
#72 =( GEOMETRIC_REPRESENTATION_CONTEXT ( 3 ) GLOBAL_UNCERTAINTY_ASSIGNED_CONTEXT ( ( #110 ) ) GLOBAL_UNIT_ASSIGNED_CONTEXT ( ( #95, #161, #102 ) ) REPRESENTATION_CONTEXT ( 'NONE', 'WORKASPACE' ) );
#73 = VERTEX_POINT ( 'NONE', #276 ) ;
#74 = DIRECTION ( 'NONE',  ( 1.000000000000000000, 0.000000000000000000, 0.000000000000000000 ) ) ;
#75 = MANIFOLD_SOLID_BREP ( 'Revolve - Tool Body (Straight Shanked)', #11 ) ;
#76 = DIRECTION ( 'NONE',  ( 0.000000000000000000, 0.000000000000000000, -1.000000000000000000 ) ) ;
#77 =( NAMED_UNIT ( * ) SI_UNIT ( $, .STERADIAN. ) SOLID_ANGLE_UNIT ( ) );
#78 = CARTESIAN_POINT ( 'NONE',  ( 0.000000000000000000, 0.3125000000000000555, 0.000000000000000000 ) ) ;
#79 =( GEOMETRIC_REPRESENTATION_CONTEXT ( 3 ) GLOBAL_UNCERTAINTY_ASSIGNED_CONTEXT ( ( #70 ) ) GLOBAL_UNIT_ASSIGNED_CONTEXT ( ( #30, #53, #286 ) ) REPRESENTATION_CONTEXT ( 'NONE', 'WORKASPACE' ) );
#80 =( CONVERSION_BASED_UNIT ( 'INCH', #15 ) LENGTH_UNIT ( ) NAMED_UNIT ( #100 ) );
#81 = CARTESIAN_POINT ( 'NONE',  ( 0.000000000000000000, 0.7499999999999998890, 0.000000000000000000 ) ) ;
#82 = ADVANCED_FACE ( 'NONE', ( #129 ), #235, .F. ) ;
#83 = VECTOR ( 'NONE', #166, 39.37007874015748143 ) ;
#84 = ORIENTED_EDGE ( 'NONE', *, *, #214, .T. ) ;
#85 = VERTEX_POINT ( 'NONE', #132 ) ;
#86 =( GEOMETRIC_REPRESENTATION_CONTEXT ( 3 ) GLOBAL_UNCERTAINTY_ASSIGNED_CONTEXT ( ( #205 ) ) GLOBAL_UNIT_ASSIGNED_CONTEXT ( ( #108, #243, #77 ) ) REPRESENTATION_CONTEXT ( 'NONE', 'WORKASPACE' ) );
#87 = AXIS2_PLACEMENT_3D ( 'NONE', #145, #258, #128 ) ;
#88 = ORIENTED_EDGE ( 'NONE', *, *, #324, .T. ) ;
#89 = ORIENTED_EDGE ( 'NONE', *, *, #308, .T. ) ;
#90 = EDGE_CURVE ( 'NONE', #34, #232, #369, .T. ) ;
#91 = VERTEX_POINT ( 'NONE', #160 ) ;
#92 =( NAMED_UNIT ( * ) PLANE_ANGLE_UNIT ( ) SI_UNIT ( $, .RADIAN. ) );
#93 = PRESENTATION_LAYER_ASSIGNMENT (  '', '', ( #159 ) ) ;
#94 = DIRECTION ( 'NONE',  ( -1.207607263424286938E-16, 1.000000000000000000, -0.000000000000000000 ) ) ;
#95 =( CONVERSION_BASED_UNIT ( 'INCH', #38 ) LENGTH_UNIT ( ) NAMED_UNIT ( #142 ) );
#96 = FACE_OUTER_BOUND ( 'NONE', #228, .T. ) ;
#97 = DIRECTION ( 'NONE',  ( 0.000000000000000000, 0.000000000000000000, -1.000000000000000000 ) ) ;
#98 = CARTESIAN_POINT ( 'NONE',  ( -3.827021247335478926E-17, 0.3125000000000000000, 0.000000000000000000 ) ) ;
#99 = AXIS2_PLACEMENT_3D ( 'NONE', #98, #209, #74 ) ;
#100 = DIMENSIONAL_EXPONENTS ( 1.000000000000000000, 0.000000000000000000, 0.000000000000000000, 0.000000000000000000, 0.000000000000000000, 0.000000000000000000, 0.000000000000000000 ) ;
#101 = DIRECTION ( 'NONE',  ( 1.000000000000000000, 0.000000000000000000, -1.224646799147353207E-16 ) ) ;
#102 =( NAMED_UNIT ( * ) SI_UNIT ( $, .STERADIAN. ) SOLID_ANGLE_UNIT ( ) );
#103 = EDGE_CURVE ( 'NONE', #91, #61, #332, .T. ) ;
#104 = CARTESIAN_POINT ( 'NONE',  ( -3.827021247335478926E-17, 0.3125000000000000000, 0.000000000000000000 ) ) ;
#105 = CARTESIAN_POINT ( 'NONE',  ( -0.3124999999999993894, 3.000000000000000444, 0.000000000000000000 ) ) ;
#106 = CARTESIAN_POINT ( 'NONE',  ( 2.449293598294705921E-16, 3.000000000000000444, 0.000000000000000000 ) ) ;
#107 = DIRECTION ( 'NONE',  ( -1.000000000000000000, 0.000000000000000000, 0.000000000000000000 ) ) ;
#108 =( CONVERSION_BASED_UNIT ( 'INCH', #335 ) LENGTH_UNIT ( ) NAMED_UNIT ( #173 ) );
#109 = UNCERTAINTY_MEASURE_WITH_UNIT (LENGTH_MEASURE( 1.000000000000000082E-05 ), #314, 'distance_accuracy_value', 'NONE');
#110 = UNCERTAINTY_MEASURE_WITH_UNIT (LENGTH_MEASURE( 1.000000000000000082E-05 ), #95, 'distance_accuracy_value', 'NONE');
#111 = AXIS2_PLACEMENT_3D ( 'NONE', #104, #192, #101 ) ;
#112 = AXIS2_PLACEMENT_3D ( 'NONE', #213, #368, #273 ) ;
#113 = CYLINDRICAL_SURFACE ( 'NONE', #45, 0.3125000000000000000 ) ;
#114 = PRESENTATION_STYLE_ASSIGNMENT (( #316 ) ) ;
#115 = SURFACE_SIDE_STYLE ('',( #118 ) ) ;
#116 = ORIENTED_EDGE ( 'NONE', *, *, #16, .F. ) ;
#117 = PRESENTATION_LAYER_ASSIGNMENT (  '', '', ( #264 ) ) ;
#118 = SURFACE_STYLE_FILL_AREA ( #283 ) ;
#119 = AXIS2_PLACEMENT_3D ( 'NONE', #302, #198, #2 ) ;
#120 = SURFACE_STYLE_FILL_AREA ( #14 ) ;
#121 = EDGE_CURVE ( 'NONE', #373, #143, #131, .T. ) ;
#122 = SURFACE_STYLE_FILL_AREA ( #8 ) ;
#123 = VERTEX_POINT ( 'NONE', #190 ) ;
#124 = PRESENTATION_LAYER_ASSIGNMENT (  '', '', ( #342 ) ) ;
#125 = LINE ( 'NONE', #182, #272 ) ;
#126 =( NAMED_UNIT ( * ) PLANE_ANGLE_UNIT ( ) SI_UNIT ( $, .RADIAN. ) );
#127 = ORIENTED_EDGE ( 'NONE', *, *, #140, .T. ) ;
#128 = DIRECTION ( 'NONE',  ( -1.000000000000000000, -1.207607263424286938E-16, 0.000000000000000000 ) ) ;
#129 = FACE_OUTER_BOUND ( 'NONE', #339, .T. ) ;
#130 = DIMENSIONAL_EXPONENTS ( 1.000000000000000000, 0.000000000000000000, 0.000000000000000000, 0.000000000000000000, 0.000000000000000000, 0.000000000000000000, 0.000000000000000000 ) ;
#131 = CIRCLE ( 'NONE', #208, 0.3124999999999999445 ) ;
#132 = CARTESIAN_POINT ( 'NONE',  ( -1.913510623667739463E-17, 0.000000000000000000, 0.000000000000000000 ) ) ;
#133 = DIRECTION ( 'NONE',  ( -1.000000000000000000, 0.000000000000000000, 0.000000000000000000 ) ) ;
#134 = DIRECTION ( 'NONE',  ( 0.000000000000000000, 0.000000000000000000, -1.000000000000000000 ) ) ;
#135 = DIRECTION ( 'NONE',  ( -0.000000000000000000, -1.000000000000000000, -0.000000000000000000 ) ) ;
#136 = VECTOR ( 'NONE', #301, 39.37007874015748143 ) ;
#137 = EDGE_CURVE ( 'NONE', #91, #58, #305, .T. ) ;
#138 = CARTESIAN_POINT ( 'NONE',  ( 0.000000000000000000, 0.000000000000000000, 0.000000000000000000 ) ) ;
#139 = CARTESIAN_POINT ( 'NONE',  ( 2.449293598294705921E-16, 3.000000000000000444, 0.000000000000000000 ) ) ;
#140 = EDGE_CURVE ( 'NONE', #61, #123, #125, .T. ) ;
#141 = ORIENTED_EDGE ( 'NONE', *, *, #103, .F. ) ;
#142 = DIMENSIONAL_EXPONENTS ( 1.000000000000000000, 0.000000000000000000, 0.000000000000000000, 0.000000000000000000, 0.000000000000000000, 0.000000000000000000, 0.000000000000000000 ) ;
#143 = VERTEX_POINT ( 'NONE', #269 ) ;
#144 = EDGE_LOOP ( 'NONE', ( #150, #89, #256, #200 ) ) ;
#145 = CARTESIAN_POINT ( 'NONE',  ( 5.166409940999351163E-16, 0.7499999999999998890, 0.000000000000000000 ) ) ;
#146 = EDGE_CURVE ( 'NONE', #232, #85, #245, .T. ) ;
#147 = CIRCLE ( 'NONE', #29, 0.3124999999999996669 ) ;
#148 = ORIENTED_EDGE ( 'NONE', *, *, #308, .F. ) ;
#149 = FACE_OUTER_BOUND ( 'NONE', #199, .T. ) ;
#150 = ORIENTED_EDGE ( 'NONE', *, *, #140, .F. ) ;
#151 = ADVANCED_FACE ( 'NONE', ( #149 ), #358, .T. ) ;
#152 = FACE_OUTER_BOUND ( 'NONE', #172, .T. ) ;
#153 = CLOSED_SHELL ( 'NONE', ( #246, #280, #362, #167, #151 ) ) ;
#154 = SURFACE_SIDE_STYLE ('',( #292 ) ) ;
#155 = PRODUCT ( '83369', '83369', '', ( #260 ) ) ;
#156 = DIRECTION ( 'NONE',  ( -0.000000000000000000, -1.000000000000000000, -0.000000000000000000 ) ) ;
#157 = DIRECTION ( 'NONE',  ( -0.000000000000000000, -1.000000000000000000, -0.000000000000000000 ) ) ;
#158 = AXIS2_PLACEMENT_3D ( 'NONE', #278, #157, #186 ) ;
#159 = STYLED_ITEM ( 'NONE', ( #266 ), #151 ) ;
#160 = CARTESIAN_POINT ( 'NONE',  ( -0.3124999999999988343, 0.7499999999999998890, 0.000000000000000000 ) ) ;
#161 =( NAMED_UNIT ( * ) PLANE_ANGLE_UNIT ( ) SI_UNIT ( $, .RADIAN. ) );
#162 = FILL_AREA_STYLE ('',( #191 ) ) ;
#163 = PRESENTATION_STYLE_ASSIGNMENT (( #187 ) ) ;
#164 = LINE ( 'NONE', #241, #83 ) ;
#165 =( GEOMETRIC_REPRESENTATION_CONTEXT ( 3 ) GLOBAL_UNCERTAINTY_ASSIGNED_CONTEXT ( ( #355 ) ) GLOBAL_UNIT_ASSIGNED_CONTEXT ( ( #326, #69, #202 ) ) REPRESENTATION_CONTEXT ( 'NONE', 'WORKASPACE' ) );
#166 = DIRECTION ( 'NONE',  ( -0.000000000000000000, -1.000000000000000000, -0.000000000000000000 ) ) ;
#167 = ADVANCED_FACE ( 'NONE', ( #238 ), #290, .T. ) ;
#168 = ORIENTED_EDGE ( 'NONE', *, *, #16, .T. ) ;
#169 = DIRECTION ( 'NONE',  ( -1.207607263424286938E-16, 1.000000000000000000, -0.000000000000000000 ) ) ;
#170 = ORIENTED_EDGE ( 'NONE', *, *, #196, .F. ) ;
#171 = COLOUR_RGB ( '',0.7921568627450980005, 0.8196078431372548767, 0.9333333333333333481 ) ;
#172 = EDGE_LOOP ( 'NONE', ( #66, #287 ) ) ;
#173 = DIMENSIONAL_EXPONENTS ( 1.000000000000000000, 0.000000000000000000, 0.000000000000000000, 0.000000000000000000, 0.000000000000000000, 0.000000000000000000, 0.000000000000000000 ) ;
#174 = ORIENTED_EDGE ( 'NONE', *, *, #90, .F. ) ;
#175 = LENGTH_MEASURE_WITH_UNIT ( LENGTH_MEASURE( 0.02539999999999999897 ), #178 );
#176 = EDGE_LOOP ( 'NONE', ( #261, #84, #36, #312, #116 ) ) ;
#177 = DIMENSIONAL_EXPONENTS ( 1.000000000000000000, 0.000000000000000000, 0.000000000000000000, 0.000000000000000000, 0.000000000000000000, 0.000000000000000000, 0.000000000000000000 ) ;
#178 =( LENGTH_UNIT ( ) NAMED_UNIT ( * ) SI_UNIT ( $, .METRE. ) );
#179 = DIRECTION ( 'NONE',  ( 0.000000000000000000, 0.000000000000000000, 1.000000000000000000 ) ) ;
#180 = ORIENTED_EDGE ( 'NONE', *, *, #90, .T. ) ;
#181 = APPLICATION_CONTEXT ( 'automotive_design' ) ;
#182 = CARTESIAN_POINT ( 'NONE',  ( 0.3124999999999998335, 3.000000000000000444, 3.827021247335473380E-17 ) ) ;
#183 = EDGE_LOOP ( 'NONE', ( #219, #64, #359, #174, #170 ) ) ;
#184 = PRESENTATION_STYLE_ASSIGNMENT (( #347 ) ) ;
#185 = AXIS2_PLACEMENT_3D ( 'NONE', #1, #281, #55 ) ;
#186 = DIRECTION ( 'NONE',  ( 0.000000000000000000, 0.000000000000000000, -1.000000000000000000 ) ) ;
#187 = SURFACE_STYLE_USAGE ( .BOTH. , #327 ) ;
#188 = FACE_OUTER_BOUND ( 'NONE', #144, .T. ) ;
#189 = PRESENTATION_LAYER_ASSIGNMENT (  '', '', ( #366 ) ) ;
#190 = CARTESIAN_POINT ( 'NONE',  ( 0.3124999999999999445, 3.000000000000000444, 3.827021247335473996E-17 ) ) ;
#191 = FILL_AREA_STYLE_COLOUR ( '', #288 ) ;
#192 = DIRECTION ( 'NONE',  ( 1.224646799147353207E-16, -0.000000000000000000, 1.000000000000000000 ) ) ;
#193 = LENGTH_MEASURE_WITH_UNIT ( LENGTH_MEASURE( 0.02539999999999999897 ), #336 );
#194 = CIRCLE ( 'NONE', #343, 0.3125000000000000000 ) ;
#195 = MECHANICAL_DESIGN_GEOMETRIC_PRESENTATION_REPRESENTATION (  '', ( #366 ), #86 ) ;
#196 = EDGE_CURVE ( 'NONE', #373, #34, #164, .T. ) ;
#197 = EDGE_LOOP ( 'NONE', ( #168, #318, #32, #252 ) ) ;
#198 = DIRECTION ( 'NONE',  ( -1.207607263424286938E-16, 1.000000000000000000, -0.000000000000000000 ) ) ;
#199 = EDGE_LOOP ( 'NONE', ( #345, #88, #180, #282 ) ) ;
#200 = ORIENTED_EDGE ( 'NONE', *, *, #65, .F. ) ;
#201 = AXIS2_PLACEMENT_3D ( 'NONE', #78, #363, #76 ) ;
#202 =( NAMED_UNIT ( * ) SI_UNIT ( $, .STERADIAN. ) SOLID_ANGLE_UNIT ( ) );
#203 =( NAMED_UNIT ( * ) SI_UNIT ( $, .STERADIAN. ) SOLID_ANGLE_UNIT ( ) );
#204 = LENGTH_MEASURE_WITH_UNIT ( LENGTH_MEASURE( 0.02539999999999999897 ), #10 );
#205 = UNCERTAINTY_MEASURE_WITH_UNIT (LENGTH_MEASURE( 1.000000000000000082E-05 ), #108, 'distance_accuracy_value', 'NONE');
#206 =( LENGTH_UNIT ( ) NAMED_UNIT ( * ) SI_UNIT ( $, .METRE. ) );
#207 = FILL_AREA_STYLE_COLOUR ( '', #257 ) ;
#208 = AXIS2_PLACEMENT_3D ( 'NONE', #333, #21, #134 ) ;
#209 = DIRECTION ( 'NONE',  ( 0.000000000000000000, 0.000000000000000000, 1.000000000000000000 ) ) ;
#210 = STYLED_ITEM ( 'NONE', ( #184 ), #362 ) ;
#211 = CARTESIAN_POINT ( 'NONE',  ( 2.449293598294705921E-16, 3.000000000000000444, 0.000000000000000000 ) ) ;
#212 = FILL_AREA_STYLE_COLOUR ( '', #25 ) ;
#213 = CARTESIAN_POINT ( 'NONE',  ( 0.000000000000000000, 0.7499999999999998890, 0.000000000000000000 ) ) ;
#214 = EDGE_CURVE ( 'NONE', #143, #373, #4, .T. ) ;
#215 = PRESENTATION_STYLE_ASSIGNMENT (( #277 ) ) ;
#216 = AXIS2_PLACEMENT_3D ( 'NONE', #242, #43, #41 ) ;
#217 =( NAMED_UNIT ( * ) SI_UNIT ( $, .STERADIAN. ) SOLID_ANGLE_UNIT ( ) );
#218 = CIRCLE ( 'NONE', #216, 0.3125000000000000000 ) ;
#219 = ORIENTED_EDGE ( 'NONE', *, *, #121, .T. ) ;
#220 = DIMENSIONAL_EXPONENTS ( 1.000000000000000000, 0.000000000000000000, 0.000000000000000000, 0.000000000000000000, 0.000000000000000000, 0.000000000000000000, 0.000000000000000000 ) ;
#221 = CARTESIAN_POINT ( 'NONE',  ( -0.3124999999999992784, 3.000000000000000444, 0.000000000000000000 ) ) ;
#222 = LENGTH_MEASURE_WITH_UNIT ( LENGTH_MEASURE( 0.02539999999999999897 ), #340 );
#223 = DIMENSIONAL_EXPONENTS ( 1.000000000000000000, 0.000000000000000000, 0.000000000000000000, 0.000000000000000000, 0.000000000000000000, 0.000000000000000000, 0.000000000000000000 ) ;
#224 = EDGE_CURVE ( 'NONE', #58, #123, #147, .T. ) ;
#225 = CYLINDRICAL_SURFACE ( 'NONE', #279, 0.3124999999999995559 ) ;
#226 = STYLED_ITEM ( 'NONE', ( #114 ), #280 ) ;
#227 = MECHANICAL_DESIGN_GEOMETRIC_PRESENTATION_REPRESENTATION (  '', ( #210 ), #72 ) ;
#228 = EDGE_LOOP ( 'NONE', ( #291, #127, #31, #5 ) ) ;
#229 = DIRECTION ( 'NONE',  ( -0.000000000000000000, -1.000000000000000000, -0.000000000000000000 ) ) ;
#230 =( LENGTH_UNIT ( ) NAMED_UNIT ( * ) SI_UNIT ( $, .METRE. ) );
#231 = SURFACE_SIDE_STYLE ('',( #122 ) ) ;
#232 = VERTEX_POINT ( 'NONE', #330 ) ;
#233 = FILL_AREA_STYLE_COLOUR ( '', #44 ) ;
#234 = DIRECTION ( 'NONE',  ( -1.000000000000000000, 0.000000000000000000, 0.000000000000000000 ) ) ;
#235 = PLANE ( 'NONE',  #33 ) ;
#236 = PRODUCT_DEFINITION ( 'UNKNOWN', '', #56, #306 ) ;
#237 = CARTESIAN_POINT ( 'NONE',  ( 0.3124999999999999445, 3.000000000000000444, 0.000000000000000000 ) ) ;
#238 = FACE_OUTER_BOUND ( 'NONE', #176, .T. ) ;
#239 = CARTESIAN_POINT ( 'NONE',  ( 3.827021247335478926E-17, 0.3125000000000000555, 0.3125000000000000000 ) ) ;
#240 = CARTESIAN_POINT ( 'NONE',  ( 0.000000000000000000, 0.3125000000000000555, -0.3125000000000000000 ) ) ;
#241 = CARTESIAN_POINT ( 'NONE',  ( 0.000000000000000000, 0.000000000000000000, -0.3125000000000000000 ) ) ;
#242 = CARTESIAN_POINT ( 'NONE',  ( 0.000000000000000000, 0.3125000000000000555, 0.000000000000000000 ) ) ;
#243 =( NAMED_UNIT ( * ) PLANE_ANGLE_UNIT ( ) SI_UNIT ( $, .RADIAN. ) );
#244 = UNCERTAINTY_MEASURE_WITH_UNIT (LENGTH_MEASURE( 1.000000000000000082E-05 ), #80, 'distance_accuracy_value', 'NONE');
#245 = CIRCLE ( 'NONE', #328, 0.3125000000000000000 ) ;
#246 = ADVANCED_FACE ( 'NONE', ( #46 ), #248, .T. ) ;
#247 = DIMENSIONAL_EXPONENTS ( 1.000000000000000000, 0.000000000000000000, 0.000000000000000000, 0.000000000000000000, 0.000000000000000000, 0.000000000000000000, 0.000000000000000000 ) ;
#248 = SPHERICAL_SURFACE ( 'NONE', #185, 0.3125000000000000000 ) ;
#249 = MECHANICAL_DESIGN_GEOMETRIC_PRESENTATION_REPRESENTATION (  '', ( #264 ), #255 ) ;
#250 =( GEOMETRIC_REPRESENTATION_CONTEXT ( 3 ) GLOBAL_UNCERTAINTY_ASSIGNED_CONTEXT ( ( #109 ) ) GLOBAL_UNIT_ASSIGNED_CONTEXT ( ( #314, #126, #203 ) ) REPRESENTATION_CONTEXT ( 'NONE', 'WORKASPACE' ) );
#251 = CARTESIAN_POINT ( 'NONE',  ( 0.000000000000000000, 0.7499999999999998890, -0.3124999999999999445 ) ) ;
#252 = ORIENTED_EDGE ( 'NONE', *, *, #23, .T. ) ;
#253 = FILL_AREA_STYLE_COLOUR ( '', #171 ) ;
#254 = EDGE_LOOP ( 'NONE', ( #141, #148 ) ) ;
#255 =( GEOMETRIC_REPRESENTATION_CONTEXT ( 3 ) GLOBAL_UNCERTAINTY_ASSIGNED_CONTEXT ( ( #244 ) ) GLOBAL_UNIT_ASSIGNED_CONTEXT ( ( #80, #18, #303 ) ) REPRESENTATION_CONTEXT ( 'NONE', 'WORKASPACE' ) );
#256 = ORIENTED_EDGE ( 'NONE', *, *, #137, .T. ) ;
#257 = COLOUR_RGB ( '',1.000000000000000000, 0.000000000000000000, 0.000000000000000000 ) ;
#258 = DIRECTION ( 'NONE',  ( -1.207607263424286938E-16, 1.000000000000000000, 0.000000000000000000 ) ) ;
#259 = SURFACE_STYLE_USAGE ( .BOTH. , #263 ) ;
#260 = PRODUCT_CONTEXT ( 'NONE', #181, 'mechanical' ) ;
#261 = ORIENTED_EDGE ( 'NONE', *, *, #284, .F. ) ;
#262 = SURFACE_SIDE_STYLE ('',( #120 ) ) ;
#263 = SURFACE_SIDE_STYLE ('',( #37 ) ) ;
#264 = STYLED_ITEM ( 'NONE', ( #163 ), #75 ) ;
#265 = ADVANCED_FACE ( 'NONE', ( #188 ), #225, .T. ) ;
#266 = PRESENTATION_STYLE_ASSIGNMENT (( #259 ) ) ;
#267 = DIRECTION ( 'NONE',  ( -1.207607263424286938E-16, 1.000000000000000000, -0.000000000000000000 ) ) ;
#268 = DIRECTION ( 'NONE',  ( 0.000000000000000000, 1.000000000000000000, 0.000000000000000000 ) ) ;
#269 = CARTESIAN_POINT ( 'NONE',  ( 3.827021247335477694E-17, 0.7499999999999998890, 0.3124999999999999445 ) ) ;
#270 = CARTESIAN_POINT ( 'NONE',  ( 0.3124999999999999445, 0.7499999999999998890, 3.827021247335473996E-17 ) ) ;
#271 = CIRCLE ( 'NONE', #111, 0.3125000000000000000 ) ;
#272 = VECTOR ( 'NONE', #94, 39.37007874015748143 ) ;
#273 = DIRECTION ( 'NONE',  ( 0.000000000000000000, 0.000000000000000000, -1.000000000000000000 ) ) ;
#274 = DIRECTION ( 'NONE',  ( -1.207607263424286938E-16, 1.000000000000000000, -0.000000000000000000 ) ) ;
#275 = SURFACE_STYLE_FILL_AREA ( #162 ) ;
#276 = CARTESIAN_POINT ( 'NONE',  ( -0.3125000000000000000, 0.3125000000000000555, 3.827021247335477694E-17 ) ) ;
#277 = SURFACE_STYLE_USAGE ( .BOTH. , #22 ) ;
#278 = CARTESIAN_POINT ( 'NONE',  ( 0.000000000000000000, 0.3125000000000000555, 0.000000000000000000 ) ) ;
#279 = AXIS2_PLACEMENT_3D ( 'NONE', #139, #169, #370 ) ;
#280 = ADVANCED_FACE ( 'NONE', ( #341 ), #113, .T. ) ;
#281 = DIRECTION ( 'NONE',  ( 0.000000000000000000, 0.000000000000000000, 1.000000000000000000 ) ) ;
#282 = ORIENTED_EDGE ( 'NONE', *, *, #146, .T. ) ;
#283 = FILL_AREA_STYLE ('',( #319 ) ) ;
#284 = EDGE_CURVE ( 'NONE', #143, #295, #40, .T. ) ;
#285 = CIRCLE ( 'NONE', #360, 0.3124999999999996669 ) ;
#286 =( NAMED_UNIT ( * ) SI_UNIT ( $, .STERADIAN. ) SOLID_ANGLE_UNIT ( ) );
#287 = ORIENTED_EDGE ( 'NONE', *, *, #214, .F. ) ;
#288 = COLOUR_RGB ( '',1.000000000000000000, 0.000000000000000000, 0.000000000000000000 ) ;
#289 = PRODUCT_RELATED_PRODUCT_CATEGORY ( 'part', '', ( #155 ) ) ;
#290 = CYLINDRICAL_SURFACE ( 'NONE', #349, 0.3125000000000000000 ) ;
#291 = ORIENTED_EDGE ( 'NONE', *, *, #103, .T. ) ;
#292 = SURFACE_STYLE_FILL_AREA ( #67 ) ;
#293 = CARTESIAN_POINT ( 'NONE',  ( -3.827021247335478926E-17, 0.3125000000000000000, 0.000000000000000000 ) ) ;
#294 = SHAPE_DEFINITION_REPRESENTATION ( #57, #54 ) ;
#295 = VERTEX_POINT ( 'NONE', #239 ) ;
#296 = MECHANICAL_DESIGN_GEOMETRIC_PRESENTATION_REPRESENTATION (  '', ( #367 ), #304 ) ;
#297 = UNCERTAINTY_MEASURE_WITH_UNIT (LENGTH_MEASURE( 1.000000000000000082E-05 ), #39, 'distance_accuracy_value', 'NONE');
#298 = DIRECTION ( 'NONE',  ( -1.000000000000000000, 0.000000000000000000, 0.000000000000000000 ) ) ;
#299 = DIRECTION ( 'NONE',  ( -0.000000000000000000, -1.000000000000000000, -0.000000000000000000 ) ) ;
#300 = DIRECTION ( 'NONE',  ( 1.207607263424286938E-16, -1.000000000000000000, 0.000000000000000000 ) ) ;
#301 = DIRECTION ( 'NONE',  ( -1.207607263424286938E-16, 1.000000000000000000, -0.000000000000000000 ) ) ;
#302 = CARTESIAN_POINT ( 'NONE',  ( 5.166409940999352149E-16, 0.7499999999999998890, 0.000000000000000000 ) ) ;
#303 =( NAMED_UNIT ( * ) SI_UNIT ( $, .STERADIAN. ) SOLID_ANGLE_UNIT ( ) );
#304 =( GEOMETRIC_REPRESENTATION_CONTEXT ( 3 ) GLOBAL_UNCERTAINTY_ASSIGNED_CONTEXT ( ( #297 ) ) GLOBAL_UNIT_ASSIGNED_CONTEXT ( ( #39, #92, #62 ) ) REPRESENTATION_CONTEXT ( 'NONE', 'WORKASPACE' ) );
#305 = LINE ( 'NONE', #221, #136 ) ;
#306 = PRODUCT_DEFINITION_CONTEXT ( 'detailed design', #52, 'design' ) ;
#307 = CARTESIAN_POINT ( 'NONE',  ( 5.166409940999352149E-16, 0.7499999999999998890, 0.000000000000000000 ) ) ;
#308 = EDGE_CURVE ( 'NONE', #61, #91, #13, .T. ) ;
#309 = DIRECTION ( 'NONE',  ( 0.000000000000000000, -0.000000000000000000, 1.000000000000000000 ) ) ;
#310 = COLOUR_RGB ( '',1.000000000000000000, 0.000000000000000000, 0.000000000000000000 ) ;
#311 =( NAMED_UNIT ( * ) PLANE_ANGLE_UNIT ( ) SI_UNIT ( $, .RADIAN. ) );
#312 = ORIENTED_EDGE ( 'NONE', *, *, #324, .F. ) ;
#313 = CARTESIAN_POINT ( 'NONE',  ( 0.000000000000000000, 0.3125000000000000555, 0.000000000000000000 ) ) ;
#314 =( CONVERSION_BASED_UNIT ( 'INCH', #222 ) LENGTH_UNIT ( ) NAMED_UNIT ( #220 ) );
#315 =( CONVERSION_BASED_UNIT ( 'INCH', #193 ) LENGTH_UNIT ( ) NAMED_UNIT ( #177 ) );
#316 = SURFACE_STYLE_USAGE ( .BOTH. , #115 ) ;
#317 = MANIFOLD_SOLID_BREP ( 'Revolve - Cutting Edge', #153 ) ;
#318 = ORIENTED_EDGE ( 'NONE', *, *, #3, .T. ) ;
#319 = FILL_AREA_STYLE_COLOUR ( '', #371 ) ;
#320 = CIRCLE ( 'NONE', #158, 0.3125000000000000000 ) ;
#321 = MECHANICAL_DESIGN_GEOMETRIC_PRESENTATION_REPRESENTATION (  '', ( #226 ), #250 ) ;
#322 = VECTOR ( 'NONE', #156, 39.37007874015748143 ) ;
#323 = PRESENTATION_STYLE_ASSIGNMENT (( #357 ) ) ;
#324 = EDGE_CURVE ( 'NONE', #73, #34, #194, .T. ) ;
#325 = APPLICATION_PROTOCOL_DEFINITION ( 'draft international standard', 'automotive_design', 1998, #52 ) ;
#326 =( CONVERSION_BASED_UNIT ( 'INCH', #204 ) LENGTH_UNIT ( ) NAMED_UNIT ( #130 ) );
#327 = SURFACE_SIDE_STYLE ('',( #47 ) ) ;
#328 = AXIS2_PLACEMENT_3D ( 'NONE', #293, #354, #234 ) ;
#329 = PRESENTATION_STYLE_ASSIGNMENT (( #348 ) ) ;
#330 = CARTESIAN_POINT ( 'NONE',  ( 0.3125000000000000000, 0.3125000000000000555, 0.000000000000000000 ) ) ;
#331 = DIRECTION ( 'NONE',  ( -1.207607263424286938E-16, 1.000000000000000000, -0.000000000000000000 ) ) ;
#332 = CIRCLE ( 'NONE', #71, 0.3124999999999993894 ) ;
#333 = CARTESIAN_POINT ( 'NONE',  ( 0.000000000000000000, 0.7499999999999998890, 0.000000000000000000 ) ) ;
#334 = UNCERTAINTY_MEASURE_WITH_UNIT (LENGTH_MEASURE( 1.000000000000000082E-05 ), #315, 'distance_accuracy_value', 'NONE');
#335 = LENGTH_MEASURE_WITH_UNIT ( LENGTH_MEASURE( 0.02539999999999999897 ), #364 );
#336 =( LENGTH_UNIT ( ) NAMED_UNIT ( * ) SI_UNIT ( $, .METRE. ) );
#337 = LENGTH_MEASURE_WITH_UNIT ( LENGTH_MEASURE( 0.02539999999999999897 ), #48 );
#338 = MECHANICAL_DESIGN_GEOMETRIC_PRESENTATION_REPRESENTATION (  '', ( #342 ), #79 ) ;
#339 = EDGE_LOOP ( 'NONE', ( #351, #28 ) ) ;
#340 =( LENGTH_UNIT ( ) NAMED_UNIT ( * ) SI_UNIT ( $, .METRE. ) );
#341 = FACE_OUTER_BOUND ( 'NONE', #183, .T. ) ;
#342 = STYLED_ITEM ( 'NONE', ( #215 ), #246 ) ;
#343 = AXIS2_PLACEMENT_3D ( 'NONE', #313, #229, #59 ) ;
#344 = CARTESIAN_POINT ( 'NONE',  ( 0.000000000000000000, 0.000000000000000000, 0.000000000000000000 ) ) ;
#345 = ORIENTED_EDGE ( 'NONE', *, *, #3, .F. ) ;
#346 = DIRECTION ( 'NONE',  ( 1.000000000000000000, 0.000000000000000000, 0.000000000000000000 ) ) ;
#347 = SURFACE_STYLE_USAGE ( .BOTH. , #154 ) ;
#348 = SURFACE_STYLE_USAGE ( .BOTH. , #231 ) ;
#349 = AXIS2_PLACEMENT_3D ( 'NONE', #138, #135, #51 ) ;
#350 =( GEOMETRIC_REPRESENTATION_CONTEXT ( 3 ) GLOBAL_UNCERTAINTY_ASSIGNED_CONTEXT ( ( #334 ) ) GLOBAL_UNIT_ASSIGNED_CONTEXT ( ( #315, #311, #217 ) ) REPRESENTATION_CONTEXT ( 'NONE', 'WORKASPACE' ) );
#351 = ORIENTED_EDGE ( 'NONE', *, *, #224, .T. ) ;
#352 = ADVANCED_FACE ( 'NONE', ( #7 ), #353, .F. ) ;
#353 = PLANE ( 'NONE',  #87 ) ;
#354 = DIRECTION ( 'NONE',  ( 0.000000000000000000, 0.000000000000000000, -1.000000000000000000 ) ) ;
#355 = UNCERTAINTY_MEASURE_WITH_UNIT (LENGTH_MEASURE( 1.000000000000000082E-05 ), #326, 'distance_accuracy_value', 'NONE');
#356 = FILL_AREA_STYLE ('',( #212 ) ) ;
#357 = SURFACE_STYLE_USAGE ( .BOTH. , #262 ) ;
#358 = SPHERICAL_SURFACE ( 'NONE', #99, 0.3125000000000000000 ) ;
#359 = ORIENTED_EDGE ( 'NONE', *, *, #23, .F. ) ;
#360 = AXIS2_PLACEMENT_3D ( 'NONE', #24, #267, #298 ) ;
#361 = AXIS2_PLACEMENT_3D ( 'NONE', #344, #179, #346 ) ;
#362 = ADVANCED_FACE ( 'NONE', ( #152 ), #68, .T. ) ;
#363 = DIRECTION ( 'NONE',  ( -0.000000000000000000, -1.000000000000000000, -0.000000000000000000 ) ) ;
#364 =( LENGTH_UNIT ( ) NAMED_UNIT ( * ) SI_UNIT ( $, .METRE. ) );
#365 = CYLINDRICAL_SURFACE ( 'NONE', #50, 0.3124999999999995559 ) ;
#366 = STYLED_ITEM ( 'NONE', ( #329 ), #167 ) ;
#367 = STYLED_ITEM ( 'NONE', ( #323 ), #317 ) ;
#368 = DIRECTION ( 'NONE',  ( -0.000000000000000000, -1.000000000000000000, -0.000000000000000000 ) ) ;
#369 = CIRCLE ( 'NONE', #201, 0.3125000000000000000 ) ;
#370 = DIRECTION ( 'NONE',  ( -1.000000000000000000, 0.000000000000000000, 0.000000000000000000 ) ) ;
#371 = COLOUR_RGB ( '',1.000000000000000000, 0.000000000000000000, 0.000000000000000000 ) ;
#372 = AXIS2_PLACEMENT_3D ( 'NONE', #81, #268, #309 ) ;
#373 = VERTEX_POINT ( 'NONE', #251 ) ;
ENDSEC;
END-ISO-10303-21;
