ISO-10303-21;
HEADER;
FILE_DESCRIPTION (( 'STEP AP214' ),
    '1' );
FILE_NAME ('Micro_SEM-046-03.STEP',
    '2021-09-02T00:39:31',
    ( '' ),
    ( '' ),
    'SwSTEP 2.0',
    'SolidWorks 2020',
    '' );
FILE_SCHEMA (( 'AUTOMOTIVE_DESIGN' ));
ENDSEC;

DATA;
#1 = DIRECTION ( 'NONE',  ( 0.0000000000000000000, 0.0000000000000000000, 1.000000000000000000 ) ) ;
#2 = ORIENTED_EDGE ( 'NONE', *, *, #175, .F. ) ;
#3 = LINE ( 'NONE', #140, #97 ) ;
#4 = ADVANCED_FACE ( 'NONE', ( #116 ), #123, .T. ) ;
#5 = CARTESIAN_POINT ( 'NONE',  ( 0.02342654999999999044, 2.868924947256541793E-18, 0.0000000000000000000 ) ) ;
#6 = EDGE_LOOP ( 'NONE', ( #2, #184, #165, #294 ) ) ;
#7 = CYLINDRICAL_SURFACE ( 'NONE', #115, 0.02342654999999999044 ) ;
#8 = CARTESIAN_POINT ( 'NONE',  ( 3.513419753651714367E-34, 0.0000000000000000000, 2.868924947256542179E-18 ) ) ;
#9 = DIRECTION ( 'NONE',  ( 1.000000000000000000, 0.0000000000000000000, 0.0000000000000000000 ) ) ;
#10 =( NAMED_UNIT ( * ) PLANE_ANGLE_UNIT ( ) SI_UNIT ( $, .RADIAN. ) );
#11 = AXIS2_PLACEMENT_3D ( 'NONE', #8, #158, #256 ) ;
#12 = APPLICATION_PROTOCOL_DEFINITION ( 'draft international standard', 'automotive_design', 1998, #226 ) ;
#13 = SURFACE_STYLE_FILL_AREA ( #212 ) ;
#14 = DIRECTION ( 'NONE',  ( -0.0000000000000000000, -0.0000000000000000000, -1.000000000000000000 ) ) ;
#15 = ADVANCED_FACE ( 'NONE', ( #202 ), #32, .T. ) ;
#16 = CARTESIAN_POINT ( 'NONE',  ( 0.0000000000000000000, 0.0000000000000000000, 0.0000000000000000000 ) ) ;
#17 = COLOUR_RGB ( '',0.7921568627450980005, 0.8196078431372548767, 0.9333333333333333481 ) ;
#18 = ORIENTED_EDGE ( 'NONE', *, *, #229, .T. ) ;
#19 = EDGE_CURVE ( 'NONE', #95, #176, #57, .T. ) ;
#20 = FACE_OUTER_BOUND ( 'NONE', #74, .T. ) ;
#21 = VECTOR ( 'NONE', #63, 39.37007874015748143 ) ;
#22 = ORIENTED_EDGE ( 'NONE', *, *, #203, .T. ) ;
#23 = EDGE_CURVE ( 'NONE', #67, #218, #200, .T. ) ;
#24 = DIRECTION ( 'NONE',  ( -1.000000000000000000, 0.0000000000000000000, 1.224646799147353454E-16 ) ) ;
#25 = DIRECTION ( 'NONE',  ( -0.0000000000000000000, -0.0000000000000000000, -1.000000000000000000 ) ) ;
#26 = ORIENTED_EDGE ( 'NONE', *, *, #52, .T. ) ;
#27 = CONICAL_SURFACE ( 'NONE', #225, 0.04750000000000064587, 0.7853981633974457255 ) ;
#28 = ADVANCED_FACE ( 'NONE', ( #230 ), #27, .T. ) ;
#29 = DIRECTION ( 'NONE',  ( 0.0000000000000000000, 0.0000000000000000000, -1.000000000000000000 ) ) ;
#30 = DIRECTION ( 'NONE',  ( -1.224646799147353454E-16, -0.0000000000000000000, -1.000000000000000000 ) ) ;
#31 = FILL_AREA_STYLE_COLOUR ( '', #17 ) ;
#32 = CYLINDRICAL_SURFACE ( 'NONE', #188, 0.06250000000000000000 ) ;
#33 = ADVANCED_FACE ( 'NONE', ( #120 ), #7, .T. ) ;
#34 = DIRECTION ( 'NONE',  ( -1.000000000000000000, 0.0000000000000000000, 1.224646799147353454E-16 ) ) ;
#35 = LENGTH_MEASURE_WITH_UNIT ( LENGTH_MEASURE( 0.02539999999999999897 ), #209 );
#36 = CONICAL_SURFACE ( 'NONE', #210, 0.02342654999999999391, 0.1745329251994338915 ) ;
#37 = EDGE_CURVE ( 'NONE', #176, #95, #92, .T. ) ;
#38 = CYLINDRICAL_SURFACE ( 'NONE', #66, 0.06250000000000000000 ) ;
#39 = EDGE_CURVE ( 'NONE', #187, #41, #169, .T. ) ;
#40 = FACE_OUTER_BOUND ( 'NONE', #113, .T. ) ;
#41 = VERTEX_POINT ( 'NONE', #128 ) ;
#42 = CARTESIAN_POINT ( 'NONE',  ( -0.06250000000000000000, 0.0000000000000000000, 1.485000000000000764 ) ) ;
#43 = ADVANCED_FACE ( 'NONE', ( #242 ), #36, .T. ) ;
#44 =( CONVERSION_BASED_UNIT ( 'INCH', #85 ) LENGTH_UNIT ( ) NAMED_UNIT ( #215 ) );
#45 = ORIENTED_EDGE ( 'NONE', *, *, #185, .T. ) ;
#46 = DIRECTION ( 'NONE',  ( -1.224646799147353454E-16, -0.0000000000000000000, -1.000000000000000000 ) ) ;
#47 = DIRECTION ( 'NONE',  ( -1.224646799147353454E-16, -0.0000000000000000000, -1.000000000000000000 ) ) ;
#48 = CIRCLE ( 'NONE', #112, 0.06250000000000000000 ) ;
#49 = ADVANCED_FACE ( 'NONE', ( #40 ), #196, .F. ) ;
#50 = ORIENTED_EDGE ( 'NONE', *, *, #93, .T. ) ;
#51 = CARTESIAN_POINT ( 'NONE',  ( 0.02342654999999999044, 2.868924947256541793E-18, -2.868924947256542179E-18 ) ) ;
#52 = EDGE_CURVE ( 'NONE', #67, #41, #124, .T. ) ;
#53 = VECTOR ( 'NONE', #30, 39.37007874015748143 ) ;
#54 = LINE ( 'NONE', #137, #219 ) ;
#55 = ORIENTED_EDGE ( 'NONE', *, *, #71, .T. ) ;
#56 = FACE_OUTER_BOUND ( 'NONE', #273, .T. ) ;
#57 = CIRCLE ( 'NONE', #287, 0.04750000000000064587 ) ;
#58 = DIRECTION ( 'NONE',  ( 1.000000000000000000, 0.0000000000000000000, 0.0000000000000000000 ) ) ;
#59 = CARTESIAN_POINT ( 'NONE',  ( 0.0000000000000000000, 0.0000000000000000000, 1.500000000000000222 ) ) ;
#60 = CARTESIAN_POINT ( 'NONE',  ( 0.0000000000000000000, 0.0000000000000000000, 1.500000000000000222 ) ) ;
#61 = CARTESIAN_POINT ( 'NONE',  ( 0.0000000000000000000, 0.0000000000000000000, 0.0000000000000000000 ) ) ;
#62 = CARTESIAN_POINT ( 'NONE',  ( 0.0000000000000000000, 0.0000000000000000000, 0.0000000000000000000 ) ) ;
#63 = DIRECTION ( 'NONE',  ( 0.1736481776669313859, 0.0000000000000000000, 0.9848077530122077983 ) ) ;
#64 =( CONVERSION_BASED_UNIT ( 'INCH', #35 ) LENGTH_UNIT ( ) NAMED_UNIT ( #83 ) );
#65 = ORIENTED_EDGE ( 'NONE', *, *, #179, .T. ) ;
#66 = AXIS2_PLACEMENT_3D ( 'NONE', #104, #189, #264 ) ;
#67 = VERTEX_POINT ( 'NONE', #217 ) ;
#68 = ORIENTED_EDGE ( 'NONE', *, *, #23, .F. ) ;
#69 = VECTOR ( 'NONE', #151, 39.37007874015748143 ) ;
#70 = ORIENTED_EDGE ( 'NONE', *, *, #19, .F. ) ;
#71 = EDGE_CURVE ( 'NONE', #218, #274, #260, .T. ) ;
#72 = FACE_OUTER_BOUND ( 'NONE', #262, .T. ) ;
#73 = ADVANCED_FACE ( 'NONE', ( #147 ), #38, .T. ) ;
#74 = EDGE_LOOP ( 'NONE', ( #221, #259 ) ) ;
#75 =( GEOMETRIC_REPRESENTATION_CONTEXT ( 3 ) GLOBAL_UNCERTAINTY_ASSIGNED_CONTEXT ( ( #279 ) ) GLOBAL_UNIT_ASSIGNED_CONTEXT ( ( #64, #244, #269 ) ) REPRESENTATION_CONTEXT ( 'NONE', 'WORKASPACE' ) );
#76 =( LENGTH_UNIT ( ) NAMED_UNIT ( * ) SI_UNIT ( $, .METRE. ) );
#77 = VERTEX_POINT ( 'NONE', #42 ) ;
#78 = DIRECTION ( 'NONE',  ( 0.0000000000000000000, 0.0000000000000000000, 1.000000000000000000 ) ) ;
#79 = CARTESIAN_POINT ( 'NONE',  ( 0.02342655000000000778, 0.0000000000000000000, 0.09400000000000001410 ) ) ;
#80 = DIRECTION ( 'NONE',  ( -1.224646799147353454E-16, -0.0000000000000000000, -1.000000000000000000 ) ) ;
#81 = AXIS2_PLACEMENT_3D ( 'NONE', #166, #191, #168 ) ;
#82 =( GEOMETRIC_REPRESENTATION_CONTEXT ( 3 ) GLOBAL_UNCERTAINTY_ASSIGNED_CONTEXT ( ( #136 ) ) GLOBAL_UNIT_ASSIGNED_CONTEXT ( ( #99, #10, #106 ) ) REPRESENTATION_CONTEXT ( 'NONE', 'WORKASPACE' ) );
#83 = DIMENSIONAL_EXPONENTS ( 1.000000000000000000, 0.0000000000000000000, 0.0000000000000000000, 0.0000000000000000000, 0.0000000000000000000, 0.0000000000000000000, 0.0000000000000000000 ) ;
#84 = ORIENTED_EDGE ( 'NONE', *, *, #203, .F. ) ;
#85 = LENGTH_MEASURE_WITH_UNIT ( LENGTH_MEASURE( 0.02539999999999999897 ), #213 );
#86 = PRODUCT_DEFINITION ( 'UNKNOWN', '', #206, #263 ) ;
#87 = CARTESIAN_POINT ( 'NONE',  ( 0.06250000000000000000, 7.654042494670956004E-18, 1.500000000000000222 ) ) ;
#88 = EDGE_LOOP ( 'NONE', ( #297, #91, #194, #285 ) ) ;
#89 = DIRECTION ( 'NONE',  ( -1.000000000000000000, 0.0000000000000000000, 0.0000000000000000000 ) ) ;
#90 = CARTESIAN_POINT ( 'NONE',  ( -0.04750000000000064587, 0.0000000000000000000, 1.500000000000000222 ) ) ;
#91 = ORIENTED_EDGE ( 'NONE', *, *, #162, .T. ) ;
#92 = CIRCLE ( 'NONE', #216, 0.04750000000000064587 ) ;
#93 = EDGE_CURVE ( 'NONE', #67, #183, #173, .T. ) ;
#94 = MANIFOLD_SOLID_BREP ( 'Cut-Revolve1', #254 ) ;
#95 = VERTEX_POINT ( 'NONE', #90 ) ;
#96 = CARTESIAN_POINT ( 'NONE',  ( 1.151167991198512393E-17, 0.0000000000000000000, 0.09400000000000001410 ) ) ;
#97 = VECTOR ( 'NONE', #98, 39.37007874015748143 ) ;
#98 = DIRECTION ( 'NONE',  ( -0.7071067811865456854, 0.0000000000000000000, -0.7071067811865493491 ) ) ;
#99 =( CONVERSION_BASED_UNIT ( 'INCH', #240 ) LENGTH_UNIT ( ) NAMED_UNIT ( #152 ) );
#100 = DIRECTION ( 'NONE',  ( -1.000000000000000000, 0.0000000000000000000, 0.0000000000000000000 ) ) ;
#101 = SURFACE_STYLE_USAGE ( .BOTH. , #119 ) ;
#102 = ORIENTED_EDGE ( 'NONE', *, *, #39, .T. ) ;
#103 = AXIS2_PLACEMENT_3D ( 'NONE', #180, #111, #110 ) ;
#104 = CARTESIAN_POINT ( 'NONE',  ( 0.0000000000000000000, 0.0000000000000000000, 1.500000000000000222 ) ) ;
#105 = SHAPE_DEFINITION_REPRESENTATION ( #258, #243 ) ;
#106 =( NAMED_UNIT ( * ) SI_UNIT ( $, .STERADIAN. ) SOLID_ANGLE_UNIT ( ) );
#107 = DIRECTION ( 'NONE',  ( 1.224646799147353454E-16, 0.0000000000000000000, 1.000000000000000000 ) ) ;
#108 = EDGE_CURVE ( 'NONE', #299, #41, #245, .T. ) ;
#109 = CARTESIAN_POINT ( 'NONE',  ( 0.0000000000000000000, 0.0000000000000000000, 1.500000000000000222 ) ) ;
#110 = DIRECTION ( 'NONE',  ( 1.000000000000000000, 0.0000000000000000000, -0.0000000000000000000 ) ) ;
#111 = DIRECTION ( 'NONE',  ( 0.0000000000000000000, 0.0000000000000000000, 1.000000000000000000 ) ) ;
#112 = AXIS2_PLACEMENT_3D ( 'NONE', #133, #222, #9 ) ;
#113 = EDGE_LOOP ( 'NONE', ( #22, #55 ) ) ;
#114 = DIRECTION ( 'NONE',  ( 1.000000000000000000, 0.0000000000000000000, 0.0000000000000000000 ) ) ;
#115 = AXIS2_PLACEMENT_3D ( 'NONE', #16, #80, #289 ) ;
#116 = FACE_OUTER_BOUND ( 'NONE', #150, .T. ) ;
#117 = DIRECTION ( 'NONE',  ( -1.224646799147353454E-16, -0.0000000000000000000, -1.000000000000000000 ) ) ;
#118 = DIRECTION ( 'NONE',  ( 1.000000000000000000, 0.0000000000000000000, 0.0000000000000000000 ) ) ;
#119 = SURFACE_SIDE_STYLE ('',( #122 ) ) ;
#120 = FACE_OUTER_BOUND ( 'NONE', #172, .T. ) ;
#121 = PRODUCT_RELATED_PRODUCT_CATEGORY ( 'part', '', ( #291 ) ) ;
#122 = SURFACE_STYLE_FILL_AREA ( #235 ) ;
#123 = CONICAL_SURFACE ( 'NONE', #238, 0.04750000000000064587, 0.7853981633974457255 ) ;
#124 = LINE ( 'NONE', #79, #21 ) ;
#125 = CARTESIAN_POINT ( 'NONE',  ( 1.151167991198512393E-17, 0.0000000000000000000, 0.09400000000000001410 ) ) ;
#126 = DIRECTION ( 'NONE',  ( -1.000000000000000000, 0.0000000000000000000, 0.0000000000000000000 ) ) ;
#127 = MECHANICAL_DESIGN_GEOMETRIC_PRESENTATION_REPRESENTATION (  '', ( #198 ), #75 ) ;
#128 = CARTESIAN_POINT ( 'NONE',  ( 0.06250000000000004163, 7.654042494670960626E-18, 0.3155965466147404586 ) ) ;
#129 = DIRECTION ( 'NONE',  ( -1.224646799147353454E-16, -0.0000000000000000000, -1.000000000000000000 ) ) ;
#130 = AXIS2_PLACEMENT_3D ( 'NONE', #277, #47, #24 ) ;
#131 = ORIENTED_EDGE ( 'NONE', *, *, #282, .T. ) ;
#132 = ORIENTED_EDGE ( 'NONE', *, *, #179, .F. ) ;
#133 = CARTESIAN_POINT ( 'NONE',  ( 0.0000000000000000000, 0.0000000000000000000, 1.485000000000000764 ) ) ;
#134 = DIRECTION ( 'NONE',  ( -1.224646799147353454E-16, -0.0000000000000000000, -1.000000000000000000 ) ) ;
#135 = CIRCLE ( 'NONE', #11, 0.02342654999999999044 ) ;
#136 = UNCERTAINTY_MEASURE_WITH_UNIT (LENGTH_MEASURE( 1.000000000000000082E-05 ), #99, 'distance_accuracy_value', 'NONE');
#137 = CARTESIAN_POINT ( 'NONE',  ( -0.06250000000000000000, 0.0000000000000000000, 1.500000000000000222 ) ) ;
#138 = ADVANCED_FACE ( 'NONE', ( #20 ), #177, .T. ) ;
#139 = LINE ( 'NONE', #232, #53 ) ;
#140 = CARTESIAN_POINT ( 'NONE',  ( -0.04750000000000064587, 0.0000000000000000000, 1.500000000000000222 ) ) ;
#141 = APPLICATION_CONTEXT ( 'automotive_design' ) ;
#142 = EDGE_LOOP ( 'NONE', ( #148, #131, #18, #132 ) ) ;
#143 = CARTESIAN_POINT ( 'NONE',  ( -0.02342654999999998350, 2.868924947256542179E-18, 0.09400000000000001410 ) ) ;
#144 = DIRECTION ( 'NONE',  ( 0.0000000000000000000, 0.0000000000000000000, 1.000000000000000000 ) ) ;
#145 = SURFACE_SIDE_STYLE ('',( #13 ) ) ;
#146 = AXIS2_PLACEMENT_3D ( 'NONE', #61, #144, #268 ) ;
#147 = FACE_OUTER_BOUND ( 'NONE', #207, .T. ) ;
#148 = ORIENTED_EDGE ( 'NONE', *, *, #39, .F. ) ;
#149 = VECTOR ( 'NONE', #134, 39.37007874015748143 ) ;
#150 = EDGE_LOOP ( 'NONE', ( #208, #70, #45, #286 ) ) ;
#151 = DIRECTION ( 'NONE',  ( 0.7071067811865456854, 8.659560562354911904E-17, -0.7071067811865493491 ) ) ;
#152 = DIMENSIONAL_EXPONENTS ( 1.000000000000000000, 0.0000000000000000000, 0.0000000000000000000, 0.0000000000000000000, 0.0000000000000000000, 0.0000000000000000000, 0.0000000000000000000 ) ;
#153 = ORIENTED_EDGE ( 'NONE', *, *, #71, .F. ) ;
#154 = AXIS2_PLACEMENT_3D ( 'NONE', #246, #46, #89 ) ;
#155 = CARTESIAN_POINT ( 'NONE',  ( 0.0000000000000000000, 0.0000000000000000000, 1.500000000000000222 ) ) ;
#156 = ORIENTED_EDGE ( 'NONE', *, *, #227, .F. ) ;
#157 = CARTESIAN_POINT ( 'NONE',  ( 0.04750000000000064587, 6.735557395310482421E-18, 1.500000000000000222 ) ) ;
#158 = DIRECTION ( 'NONE',  ( -1.224646799147353454E-16, -0.0000000000000000000, -1.000000000000000000 ) ) ;
#159 = VECTOR ( 'NONE', #14, 39.37007874015748143 ) ;
#160 =( NAMED_UNIT ( * ) PLANE_ANGLE_UNIT ( ) SI_UNIT ( $, .RADIAN. ) );
#161 = ORIENTED_EDGE ( 'NONE', *, *, #23, .T. ) ;
#162 = EDGE_CURVE ( 'NONE', #176, #187, #271, .T. ) ;
#163 = ORIENTED_EDGE ( 'NONE', *, *, #229, .F. ) ;
#164 = DIRECTION ( 'NONE',  ( 1.000000000000000000, 0.0000000000000000000, 0.0000000000000000000 ) ) ;
#165 = ORIENTED_EDGE ( 'NONE', *, *, #108, .T. ) ;
#166 = CARTESIAN_POINT ( 'NONE',  ( 0.0000000000000000000, 0.0000000000000000000, 1.485000000000000764 ) ) ;
#167 = CARTESIAN_POINT ( 'NONE',  ( 3.513419753651714367E-34, 0.0000000000000000000, 2.868924947256542179E-18 ) ) ;
#168 = DIRECTION ( 'NONE',  ( 1.000000000000000000, 0.0000000000000000000, 0.0000000000000000000 ) ) ;
#169 = LINE ( 'NONE', #87, #159 ) ;
#170 = VECTOR ( 'NONE', #228, 39.37007874015747433 ) ;
#171 = DIRECTION ( 'NONE',  ( 0.0000000000000000000, 0.0000000000000000000, 1.000000000000000000 ) ) ;
#172 = EDGE_LOOP ( 'NONE', ( #248, #161, #84, #156 ) ) ;
#173 = CIRCLE ( 'NONE', #255, 0.02342654999999999391 ) ;
#174 = DIRECTION ( 'NONE',  ( 1.000000000000000000, 0.0000000000000000000, 0.0000000000000000000 ) ) ;
#175 = EDGE_CURVE ( 'NONE', #183, #67, #181, .T. ) ;
#176 = VERTEX_POINT ( 'NONE', #157 ) ;
#177 = PLANE ( 'NONE',  #103 ) ;
#178 = ORIENTED_EDGE ( 'NONE', *, *, #252, .F. ) ;
#179 = EDGE_CURVE ( 'NONE', #41, #299, #186, .T. ) ;
#180 = CARTESIAN_POINT ( 'NONE',  ( 0.0000000000000000000, 0.0000000000000000000, 1.500000000000000222 ) ) ;
#181 = CIRCLE ( 'NONE', #154, 0.02342654999999999391 ) ;
#182 = AXIS2_PLACEMENT_3D ( 'NONE', #62, #78, #58 ) ;
#183 = VERTEX_POINT ( 'NONE', #204 ) ;
#184 = ORIENTED_EDGE ( 'NONE', *, *, #252, .T. ) ;
#185 = EDGE_CURVE ( 'NONE', #95, #77, #3, .T. ) ;
#186 = CIRCLE ( 'NONE', #270, 0.06250000000000000000 ) ;
#187 = VERTEX_POINT ( 'NONE', #224 ) ;
#188 = AXIS2_PLACEMENT_3D ( 'NONE', #220, #25, #257 ) ;
#189 = DIRECTION ( 'NONE',  ( -0.0000000000000000000, -0.0000000000000000000, -1.000000000000000000 ) ) ;
#190 = LINE ( 'NONE', #143, #170 ) ;
#191 = DIRECTION ( 'NONE',  ( 0.0000000000000000000, 0.0000000000000000000, -1.000000000000000000 ) ) ;
#192 = PRODUCT_CONTEXT ( 'NONE', #141, 'mechanical' ) ;
#193 = ADVANCED_FACE ( 'NONE', ( #72 ), #267, .T. ) ;
#194 = ORIENTED_EDGE ( 'NONE', *, *, #276, .F. ) ;
#195 = FILL_AREA_STYLE_COLOUR ( '', #298 ) ;
#196 = PLANE ( 'NONE',  #146 ) ;
#197 = CARTESIAN_POINT ( 'NONE',  ( 0.04750000000000064587, 5.817072295950006528E-18, 1.500000000000000222 ) ) ;
#198 = STYLED_ITEM ( 'NONE', ( #295 ), #94 ) ;
#199 = DIRECTION ( 'NONE',  ( -1.000000000000000000, 0.0000000000000000000, 0.0000000000000000000 ) ) ;
#200 = LINE ( 'NONE', #51, #149 ) ;
#201 = PRESENTATION_LAYER_ASSIGNMENT (  '', '', ( #198 ) ) ;
#202 = FACE_OUTER_BOUND ( 'NONE', #142, .T. ) ;
#203 = EDGE_CURVE ( 'NONE', #274, #218, #135, .T. ) ;
#204 = CARTESIAN_POINT ( 'NONE',  ( -0.02342654999999998350, 5.261483720963751017E-18, 0.09400000000000001410 ) ) ;
#205 = CIRCLE ( 'NONE', #81, 0.06250000000000000000 ) ;
#206 = PRODUCT_DEFINITION_FORMATION_WITH_SPECIFIED_SOURCE ( 'ANY', '', #291, .NOT_KNOWN. ) ;
#207 = EDGE_LOOP ( 'NONE', ( #278, #102, #234, #163 ) ) ;
#208 = ORIENTED_EDGE ( 'NONE', *, *, #162, .F. ) ;
#209 =( LENGTH_UNIT ( ) NAMED_UNIT ( * ) SI_UNIT ( $, .METRE. ) );
#210 = AXIS2_PLACEMENT_3D ( 'NONE', #241, #107, #292 ) ;
#211 = PRESENTATION_STYLE_ASSIGNMENT (( #101 ) ) ;
#212 = FILL_AREA_STYLE ('',( #195 ) ) ;
#213 =( LENGTH_UNIT ( ) NAMED_UNIT ( * ) SI_UNIT ( $, .METRE. ) );
#214 = CARTESIAN_POINT ( 'NONE',  ( 3.864943006337004181E-17, 0.0000000000000000000, 0.3155965466147404586 ) ) ;
#215 = DIMENSIONAL_EXPONENTS ( 1.000000000000000000, 0.0000000000000000000, 0.0000000000000000000, 0.0000000000000000000, 0.0000000000000000000, 0.0000000000000000000, 0.0000000000000000000 ) ;
#216 = AXIS2_PLACEMENT_3D ( 'NONE', #109, #171, #266 ) ;
#217 = CARTESIAN_POINT ( 'NONE',  ( 0.02342655000000000778, 0.0000000000000000000, 0.09400000000000001410 ) ) ;
#218 = VERTEX_POINT ( 'NONE', #5 ) ;
#219 = VECTOR ( 'NONE', #290, 39.37007874015748143 ) ;
#220 = CARTESIAN_POINT ( 'NONE',  ( 0.0000000000000000000, 0.0000000000000000000, 1.500000000000000222 ) ) ;
#221 = ORIENTED_EDGE ( 'NONE', *, *, #19, .T. ) ;
#222 = DIRECTION ( 'NONE',  ( 0.0000000000000000000, 0.0000000000000000000, -1.000000000000000000 ) ) ;
#223 = DIRECTION ( 'NONE',  ( 0.0000000000000000000, 0.0000000000000000000, -1.000000000000000000 ) ) ;
#224 = CARTESIAN_POINT ( 'NONE',  ( 0.06250000000000000000, 7.654042494670956004E-18, 1.485000000000000764 ) ) ;
#225 = AXIS2_PLACEMENT_3D ( 'NONE', #59, #29, #100 ) ;
#226 = APPLICATION_CONTEXT ( 'automotive_design' ) ;
#227 = EDGE_CURVE ( 'NONE', #183, #274, #139, .T. ) ;
#228 = DIRECTION ( 'NONE',  ( -0.1736481776669311916, 2.126576849575783316E-17, 0.9848077530122080203 ) ) ;
#229 = EDGE_CURVE ( 'NONE', #77, #299, #54, .T. ) ;
#230 = FACE_OUTER_BOUND ( 'NONE', #88, .T. ) ;
#231 = AXIS2_PLACEMENT_3D ( 'NONE', #167, #236, #34 ) ;
#232 = CARTESIAN_POINT ( 'NONE',  ( -0.02342654999999999044, 0.0000000000000000000, 2.868924947256542179E-18 ) ) ;
#233 = APPLICATION_PROTOCOL_DEFINITION ( 'draft international standard', 'automotive_design', 1998, #141 ) ;
#234 = ORIENTED_EDGE ( 'NONE', *, *, #108, .F. ) ;
#235 = FILL_AREA_STYLE ('',( #31 ) ) ;
#236 = DIRECTION ( 'NONE',  ( -1.224646799147353454E-16, -0.0000000000000000000, -1.000000000000000000 ) ) ;
#237 = SURFACE_STYLE_USAGE ( .BOTH. , #145 ) ;
#238 = AXIS2_PLACEMENT_3D ( 'NONE', #60, #223, #199 ) ;
#239 = PRESENTATION_LAYER_ASSIGNMENT (  '', '', ( #288 ) ) ;
#240 = LENGTH_MEASURE_WITH_UNIT ( LENGTH_MEASURE( 0.02539999999999999897 ), #76 );
#241 = CARTESIAN_POINT ( 'NONE',  ( 1.151167991198512393E-17, 0.0000000000000000000, 0.09400000000000001410 ) ) ;
#242 = FACE_OUTER_BOUND ( 'NONE', #6, .T. ) ;
#243 = ADVANCED_BREP_SHAPE_REPRESENTATION ( 'Micro_SEM-046-03', ( #94, #182 ), #275 ) ;
#244 =( NAMED_UNIT ( * ) PLANE_ANGLE_UNIT ( ) SI_UNIT ( $, .RADIAN. ) );
#245 = CIRCLE ( 'NONE', #293, 0.06250000000000000000 ) ;
#246 = CARTESIAN_POINT ( 'NONE',  ( 1.151167991198512393E-17, 0.0000000000000000000, 0.09400000000000001410 ) ) ;
#247 = CYLINDRICAL_SURFACE ( 'NONE', #130, 0.02342654999999999044 ) ;
#248 = ORIENTED_EDGE ( 'NONE', *, *, #175, .T. ) ;
#249 = CARTESIAN_POINT ( 'NONE',  ( -0.02342654999999999044, 0.0000000000000000000, 5.737849894513084357E-18 ) ) ;
#250 = ORIENTED_EDGE ( 'NONE', *, *, #93, .F. ) ;
#251 = CARTESIAN_POINT ( 'NONE',  ( 3.864943006337004181E-17, 0.0000000000000000000, 0.3155965466147404586 ) ) ;
#252 = EDGE_CURVE ( 'NONE', #183, #299, #190, .T. ) ;
#253 = UNCERTAINTY_MEASURE_WITH_UNIT (LENGTH_MEASURE( 1.000000000000000082E-05 ), #44, 'distance_accuracy_value', 'NONE');
#254 = CLOSED_SHELL ( 'NONE', ( #33, #43, #28, #73, #15, #138, #4, #193, #272, #49 ) ) ;
#255 = AXIS2_PLACEMENT_3D ( 'NONE', #125, #296, #126 ) ;
#256 = DIRECTION ( 'NONE',  ( -1.000000000000000000, 0.0000000000000000000, 1.224646799147353454E-16 ) ) ;
#257 = DIRECTION ( 'NONE',  ( -1.000000000000000000, 0.0000000000000000000, 0.0000000000000000000 ) ) ;
#258 = PRODUCT_DEFINITION_SHAPE ( 'NONE', 'NONE',  #86 ) ;
#259 = ORIENTED_EDGE ( 'NONE', *, *, #37, .T. ) ;
#260 = CIRCLE ( 'NONE', #231, 0.02342654999999999044 ) ;
#261 = MECHANICAL_DESIGN_GEOMETRIC_PRESENTATION_REPRESENTATION (  '', ( #288 ), #82 ) ;
#262 = EDGE_LOOP ( 'NONE', ( #178, #250, #26, #65 ) ) ;
#263 = PRODUCT_DEFINITION_CONTEXT ( 'detailed design', #226, 'design' ) ;
#264 = DIRECTION ( 'NONE',  ( -1.000000000000000000, 0.0000000000000000000, 0.0000000000000000000 ) ) ;
#265 = CARTESIAN_POINT ( 'NONE',  ( -0.06249999999999995837, 0.0000000000000000000, 0.3155965466147404586 ) ) ;
#266 = DIRECTION ( 'NONE',  ( 1.000000000000000000, 0.0000000000000000000, 0.0000000000000000000 ) ) ;
#267 = CONICAL_SURFACE ( 'NONE', #281, 0.02342654999999999391, 0.1745329251994338915 ) ;
#268 = DIRECTION ( 'NONE',  ( 1.000000000000000000, 0.0000000000000000000, -0.0000000000000000000 ) ) ;
#269 =( NAMED_UNIT ( * ) SI_UNIT ( $, .STERADIAN. ) SOLID_ANGLE_UNIT ( ) );
#270 = AXIS2_PLACEMENT_3D ( 'NONE', #251, #117, #118 ) ;
#271 = LINE ( 'NONE', #197, #69 ) ;
#272 = ADVANCED_FACE ( 'NONE', ( #56 ), #247, .T. ) ;
#273 = EDGE_LOOP ( 'NONE', ( #68, #50, #283, #153 ) ) ;
#274 = VERTEX_POINT ( 'NONE', #249 ) ;
#275 =( GEOMETRIC_REPRESENTATION_CONTEXT ( 3 ) GLOBAL_UNCERTAINTY_ASSIGNED_CONTEXT ( ( #253 ) ) GLOBAL_UNIT_ASSIGNED_CONTEXT ( ( #44, #160, #284 ) ) REPRESENTATION_CONTEXT ( 'NONE', 'WORKASPACE' ) );
#276 = EDGE_CURVE ( 'NONE', #77, #187, #48, .T. ) ;
#277 = CARTESIAN_POINT ( 'NONE',  ( 0.0000000000000000000, 0.0000000000000000000, 0.0000000000000000000 ) ) ;
#278 = ORIENTED_EDGE ( 'NONE', *, *, #276, .T. ) ;
#279 = UNCERTAINTY_MEASURE_WITH_UNIT (LENGTH_MEASURE( 1.000000000000000082E-05 ), #64, 'distance_accuracy_value', 'NONE');
#280 = DIRECTION ( 'NONE',  ( 1.224646799147353454E-16, 0.0000000000000000000, 1.000000000000000000 ) ) ;
#281 = AXIS2_PLACEMENT_3D ( 'NONE', #96, #280, #164 ) ;
#282 = EDGE_CURVE ( 'NONE', #187, #77, #205, .T. ) ;
#283 = ORIENTED_EDGE ( 'NONE', *, *, #227, .T. ) ;
#284 =( NAMED_UNIT ( * ) SI_UNIT ( $, .STERADIAN. ) SOLID_ANGLE_UNIT ( ) );
#285 = ORIENTED_EDGE ( 'NONE', *, *, #185, .F. ) ;
#286 = ORIENTED_EDGE ( 'NONE', *, *, #282, .F. ) ;
#287 = AXIS2_PLACEMENT_3D ( 'NONE', #155, #1, #114 ) ;
#288 = STYLED_ITEM ( 'NONE', ( #211 ), #243 ) ;
#289 = DIRECTION ( 'NONE',  ( -1.000000000000000000, 0.0000000000000000000, 1.224646799147353454E-16 ) ) ;
#290 = DIRECTION ( 'NONE',  ( -0.0000000000000000000, -0.0000000000000000000, -1.000000000000000000 ) ) ;
#291 = PRODUCT ( 'Micro_SEM-046-03', 'Micro_SEM-046-03', '', ( #192 ) ) ;
#292 = DIRECTION ( 'NONE',  ( 1.000000000000000000, 0.0000000000000000000, 0.0000000000000000000 ) ) ;
#293 = AXIS2_PLACEMENT_3D ( 'NONE', #214, #129, #174 ) ;
#294 = ORIENTED_EDGE ( 'NONE', *, *, #52, .F. ) ;
#295 = PRESENTATION_STYLE_ASSIGNMENT (( #237 ) ) ;
#296 = DIRECTION ( 'NONE',  ( -1.224646799147353454E-16, -0.0000000000000000000, -1.000000000000000000 ) ) ;
#297 = ORIENTED_EDGE ( 'NONE', *, *, #37, .F. ) ;
#298 = COLOUR_RGB ( '',0.7921568627450980005, 0.8196078431372548767, 0.9333333333333333481 ) ;
#299 = VERTEX_POINT ( 'NONE', #265 ) ;
ENDSEC;
END-ISO-10303-21;
