ISO-10303-21;
HEADER;
FILE_DESCRIPTION (( 'STEP AP214' ),
    '1' );
FILE_NAME ('59832.STEP',
    '2023-07-12T13:07:08',
    ( '' ),
    ( '' ),
    'SwSTEP 2.0',
    'SolidWorks 2023',
    '' );
FILE_SCHEMA (( 'AUTOMOTIVE_DESIGN' ));
ENDSEC;

DATA;
#1 =( GEOMETRIC_REPRESENTATION_CONTEXT ( 3 ) GLOBAL_UNCERTAINTY_ASSIGNED_CONTEXT ( ( #263 ) ) GLOBAL_UNIT_ASSIGNED_CONTEXT ( ( #254, #275, #79 ) ) REPRESENTATION_CONTEXT ( 'NONE', 'WORKASPACE' ) );
#2 = CARTESIAN_POINT ( 'NONE',  ( 1.449978133535231054E-18, 0.1876388374866273800, 0.000000000000000000 ) ) ;
#3 = EDGE_CURVE ( 'NONE', #272, #287, #300, .T. ) ;
#4 = VERTEX_POINT ( 'NONE', #266 ) ;
#5 = DIRECTION ( 'NONE',  ( 1.000000000000000000, -7.727494760452073194E-18, 0.000000000000000000 ) ) ;
#6 = CARTESIAN_POINT ( 'NONE',  ( 1.449978133535231054E-18, 0.1876388374866273800, 0.000000000000000000 ) ) ;
#7 = FILL_AREA_STYLE ('',( #82 ) ) ;
#8 = PRESENTATION_LAYER_ASSIGNMENT (  '', '', ( #134 ) ) ;
#9 = ORIENTED_EDGE ( 'NONE', *, *, #121, .F. ) ;
#10 =( CONVERSION_BASED_UNIT ( 'INCH', #291 ) LENGTH_UNIT ( ) NAMED_UNIT ( #25 ) );
#11 = DIRECTION ( 'NONE',  ( -1.000000000000000000, 7.727494760452073194E-18, 0.000000000000000000 ) ) ;
#12 = MECHANICAL_DESIGN_GEOMETRIC_PRESENTATION_REPRESENTATION (  '', ( #243 ), #131 ) ;
#13 =( LENGTH_UNIT ( ) NAMED_UNIT ( * ) SI_UNIT ( $, .METRE. ) );
#14 = AXIS2_PLACEMENT_3D ( 'NONE', #226, #205, #5 ) ;
#15 = AXIS2_PLACEMENT_3D ( 'NONE', #6, #69, #178 ) ;
#16 = APPLICATION_PROTOCOL_DEFINITION ( 'draft international standard', 'automotive_design', 1998, #168 ) ;
#17 = CYLINDRICAL_SURFACE ( 'NONE', #185, 0.3749999999999998890 ) ;
#18 = CARTESIAN_POINT ( 'NONE',  ( -6.123233995736772199E-17, 3.000000000000000444, 0.000000000000000000 ) ) ;
#19 = AXIS2_PLACEMENT_3D ( 'NONE', #141, #120, #22 ) ;
#20 = ADVANCED_FACE ( 'NONE', ( #129 ), #195, .T. ) ;
#21 = CARTESIAN_POINT ( 'NONE',  ( -0.05000000000000000278, 7.727494760452073194E-19, 0.000000000000000000 ) ) ;
#22 = DIRECTION ( 'NONE',  ( -1.000000000000000000, 0.000000000000000000, 0.000000000000000000 ) ) ;
#23 = VERTEX_POINT ( 'NONE', #39 ) ;
#24 = DIRECTION ( 'NONE',  ( -1.000000000000000000, 0.000000000000000000, 0.000000000000000000 ) ) ;
#25 = DIMENSIONAL_EXPONENTS ( 1.000000000000000000, 0.000000000000000000, 0.000000000000000000, 0.000000000000000000, 0.000000000000000000, 0.000000000000000000, 0.000000000000000000 ) ;
#26 = CARTESIAN_POINT ( 'NONE',  ( 1.449978133535231054E-18, 0.1876388374866273800, 0.000000000000000000 ) ) ;
#27 =( NAMED_UNIT ( * ) SI_UNIT ( $, .STERADIAN. ) SOLID_ANGLE_UNIT ( ) );
#28 = SURFACE_STYLE_USAGE ( .BOTH. , #257 ) ;
#29 = STYLED_ITEM ( 'NONE', ( #265 ), #117 ) ;
#30 = EDGE_LOOP ( 'NONE', ( #210, #126 ) ) ;
#31 = PRODUCT_DEFINITION ( 'UNKNOWN', '', #177, #128 ) ;
#32 = FILL_AREA_STYLE ('',( #49 ) ) ;
#33 = PRESENTATION_STYLE_ASSIGNMENT (( #28 ) ) ;
#34 = DIRECTION ( 'NONE',  ( -1.000000000000000000, -1.821231995776177205E-16, 0.000000000000000000 ) ) ;
#35 = COLOUR_RGB ( '',0.7921568627450980005, 0.8196078431372548767, 0.9333333333333333481 ) ;
#36 = UNCERTAINTY_MEASURE_WITH_UNIT (LENGTH_MEASURE( 1.000000000000000082E-05 ), #219, 'distance_accuracy_value', 'NONE');
#37 = SURFACE_STYLE_FILL_AREA ( #284 ) ;
#38 = VERTEX_POINT ( 'NONE', #237 ) ;
#39 = CARTESIAN_POINT ( 'NONE',  ( -0.3750000000000001665, 3.000000000000000444, 0.000000000000000000 ) ) ;
#40 = ADVANCED_FACE ( 'NONE', ( #90 ), #81, .T. ) ;
#41 = CARTESIAN_POINT ( 'NONE',  ( -6.123233995736770966E-17, 3.000000000000000444, 0.000000000000000000 ) ) ;
#42 = EDGE_LOOP ( 'NONE', ( #67, #227, #143, #231 ) ) ;
#43 = SURFACE_STYLE_USAGE ( .BOTH. , #270 ) ;
#44 = PRESENTATION_STYLE_ASSIGNMENT (( #268 ) ) ;
#45 = DIRECTION ( 'NONE',  ( -1.423419451047053664E-16, 1.000000000000000000, -0.000000000000000000 ) ) ;
#46 = ORIENTED_EDGE ( 'NONE', *, *, #160, .T. ) ;
#47 = SURFACE_STYLE_FILL_AREA ( #215 ) ;
#48 = ADVANCED_FACE ( 'NONE', ( #186 ), #107, .T. ) ;
#49 = FILL_AREA_STYLE_COLOUR ( '', #203 ) ;
#50 = DIRECTION ( 'NONE',  ( 7.727494760452073194E-18, 1.000000000000000000, 0.000000000000000000 ) ) ;
#51 = ADVANCED_BREP_SHAPE_REPRESENTATION ( '59832', ( #116, #117, #135 ), #293 ) ;
#52 = ORIENTED_EDGE ( 'NONE', *, *, #191, .T. ) ;
#53 = STYLED_ITEM ( 'NONE', ( #44 ), #20 ) ;
#54 = DIRECTION ( 'NONE',  ( -1.000000000000000000, 7.727494760452073194E-18, 0.000000000000000000 ) ) ;
#55 = EDGE_CURVE ( 'NONE', #73, #104, #261, .T. ) ;
#56 = SURFACE_STYLE_USAGE ( .BOTH. , #277 ) ;
#57 = VECTOR ( 'NONE', #71, 39.37007874015748854 ) ;
#58 = SURFACE_STYLE_USAGE ( .BOTH. , #136 ) ;
#59 = AXIS2_PLACEMENT_3D ( 'NONE', #228, #50, #11 ) ;
#60 = DIRECTION ( 'NONE',  ( -1.000000000000000000, 0.000000000000000000, 0.000000000000000000 ) ) ;
#61 =( NAMED_UNIT ( * ) PLANE_ANGLE_UNIT ( ) SI_UNIT ( $, .RADIAN. ) );
#62 = DIRECTION ( 'NONE',  ( 1.000000000000000000, 0.000000000000000000, 0.000000000000000000 ) ) ;
#63 =( GEOMETRIC_REPRESENTATION_CONTEXT ( 3 ) GLOBAL_UNCERTAINTY_ASSIGNED_CONTEXT ( ( #75 ) ) GLOBAL_UNIT_ASSIGNED_CONTEXT ( ( #260, #61, #138 ) ) REPRESENTATION_CONTEXT ( 'NONE', 'WORKASPACE' ) );
#64 = FACE_OUTER_BOUND ( 'NONE', #98, .T. ) ;
#65 = ORIENTED_EDGE ( 'NONE', *, *, #109, .T. ) ;
#66 = CARTESIAN_POINT ( 'NONE',  ( -0.3749999999999999445, 3.000000000000000444, 0.000000000000000000 ) ) ;
#67 = ORIENTED_EDGE ( 'NONE', *, *, #182, .T. ) ;
#68 = FILL_AREA_STYLE_COLOUR ( '', #196 ) ;
#69 = DIRECTION ( 'NONE',  ( -7.727494760452073194E-18, -1.000000000000000000, -0.000000000000000000 ) ) ;
#70 = DIMENSIONAL_EXPONENTS ( 1.000000000000000000, 0.000000000000000000, 0.000000000000000000, 0.000000000000000000, 0.000000000000000000, 0.000000000000000000, 0.000000000000000000 ) ;
#71 = DIRECTION ( 'NONE',  ( -0.8660254037844397068, 0.4999999999999979461, 0.000000000000000000 ) ) ;
#72 = AXIS2_PLACEMENT_3D ( 'NONE', #139, #158, #242 ) ;
#73 = VERTEX_POINT ( 'NONE', #165 ) ;
#74 =( NAMED_UNIT ( * ) SI_UNIT ( $, .STERADIAN. ) SOLID_ANGLE_UNIT ( ) );
#75 = UNCERTAINTY_MEASURE_WITH_UNIT (LENGTH_MEASURE( 1.000000000000000082E-05 ), #260, 'distance_accuracy_value', 'NONE');
#76 = ORIENTED_EDGE ( 'NONE', *, *, #298, .T. ) ;
#77 = DIRECTION ( 'NONE',  ( 7.727494760452073194E-18, 1.000000000000000000, 0.000000000000000000 ) ) ;
#78 = ORIENTED_EDGE ( 'NONE', *, *, #234, .F. ) ;
#79 =( NAMED_UNIT ( * ) SI_UNIT ( $, .STERADIAN. ) SOLID_ANGLE_UNIT ( ) );
#80 = MECHANICAL_DESIGN_GEOMETRIC_PRESENTATION_REPRESENTATION (  '', ( #110 ), #235 ) ;
#81 = PLANE ( 'NONE',  #72 ) ;
#82 = FILL_AREA_STYLE_COLOUR ( '', #264 ) ;
#83 = FILL_AREA_STYLE_COLOUR ( '', #233 ) ;
#84 = LENGTH_MEASURE_WITH_UNIT ( LENGTH_MEASURE( 0.02539999999999999897 ), #232 );
#85 = AXIS2_PLACEMENT_3D ( 'NONE', #306, #258, #197 ) ;
#86 =( GEOMETRIC_REPRESENTATION_CONTEXT ( 3 ) GLOBAL_UNCERTAINTY_ASSIGNED_CONTEXT ( ( #304 ) ) GLOBAL_UNIT_ASSIGNED_CONTEXT ( ( #221, #97, #288 ) ) REPRESENTATION_CONTEXT ( 'NONE', 'WORKASPACE' ) );
#87 =( NAMED_UNIT ( * ) SI_UNIT ( $, .STERADIAN. ) SOLID_ANGLE_UNIT ( ) );
#88 = SURFACE_STYLE_FILL_AREA ( #194 ) ;
#89 = DIRECTION ( 'NONE',  ( 0.000000000000000000, 0.000000000000000000, 1.000000000000000000 ) ) ;
#90 = FACE_OUTER_BOUND ( 'NONE', #225, .T. ) ;
#91 = LENGTH_MEASURE_WITH_UNIT ( LENGTH_MEASURE( 0.02539999999999999897 ), #146 );
#92 = DIRECTION ( 'NONE',  ( -1.423419451047053664E-16, 1.000000000000000000, 0.000000000000000000 ) ) ;
#93 = CIRCLE ( 'NONE', #106, 0.3750000000000000555 ) ;
#94 = DIRECTION ( 'NONE',  ( 1.423419451047053664E-16, -1.000000000000000000, 0.000000000000000000 ) ) ;
#95 = ADVANCED_FACE ( 'NONE', ( #281 ), #17, .T. ) ;
#96 = MECHANICAL_DESIGN_GEOMETRIC_PRESENTATION_REPRESENTATION (  '', ( #53 ), #294 ) ;
#97 =( NAMED_UNIT ( * ) PLANE_ANGLE_UNIT ( ) SI_UNIT ( $, .RADIAN. ) );
#98 = EDGE_LOOP ( 'NONE', ( #245, #238, #297, #250 ) ) ;
#99 = SURFACE_SIDE_STYLE ('',( #273 ) ) ;
#100 = CONICAL_SURFACE ( 'NONE', #59, 0.05000000000000000278, 1.047197551196600074 ) ;
#101 = APPLICATION_CONTEXT ( 'automotive_design' ) ;
#102 = SURFACE_STYLE_USAGE ( .BOTH. , #99 ) ;
#103 = DIMENSIONAL_EXPONENTS ( 1.000000000000000000, 0.000000000000000000, 0.000000000000000000, 0.000000000000000000, 0.000000000000000000, 0.000000000000000000, 0.000000000000000000 ) ;
#104 = VERTEX_POINT ( 'NONE', #187 ) ;
#105 = CARTESIAN_POINT ( 'NONE',  ( -0.3750000000000000555, 0.1876388374866273800, 0.000000000000000000 ) ) ;
#106 = AXIS2_PLACEMENT_3D ( 'NONE', #2, #172, #62 ) ;
#107 = CYLINDRICAL_SURFACE ( 'NONE', #229, 0.3749999999999998890 ) ;
#108 = APPLICATION_PROTOCOL_DEFINITION ( 'draft international standard', 'automotive_design', 1998, #101 ) ;
#109 = EDGE_CURVE ( 'NONE', #38, #154, #189, .T. ) ;
#110 = STYLED_ITEM ( 'NONE', ( #184 ), #249 ) ;
#111 = AXIS2_PLACEMENT_3D ( 'NONE', #26, #77, #259 ) ;
#112 = PRESENTATION_STYLE_ASSIGNMENT (( #56 ) ) ;
#113 = VECTOR ( 'NONE', #45, 39.37007874015748143 ) ;
#114 = PLANE ( 'NONE',  #253 ) ;
#115 = FILL_AREA_STYLE ('',( #68 ) ) ;
#116 = MANIFOLD_SOLID_BREP ( 'Revolve - Cutting Edge', #255 ) ;
#117 = MANIFOLD_SOLID_BREP ( 'Revolve - Tool Body (Tipped Off)', #285 ) ;
#118 =( NAMED_UNIT ( * ) SI_UNIT ( $, .STERADIAN. ) SOLID_ANGLE_UNIT ( ) );
#119 = EDGE_LOOP ( 'NONE', ( #289, #52 ) ) ;
#120 = DIRECTION ( 'NONE',  ( -1.423419451047053664E-16, 1.000000000000000000, -0.000000000000000000 ) ) ;
#121 = EDGE_CURVE ( 'NONE', #73, #4, #211, .T. ) ;
#122 = ORIENTED_EDGE ( 'NONE', *, *, #191, .F. ) ;
#123 =( CONVERSION_BASED_UNIT ( 'INCH', #84 ) LENGTH_UNIT ( ) NAMED_UNIT ( #152 ) );
#124 = DIMENSIONAL_EXPONENTS ( 1.000000000000000000, 0.000000000000000000, 0.000000000000000000, 0.000000000000000000, 0.000000000000000000, 0.000000000000000000, 0.000000000000000000 ) ;
#125 = MECHANICAL_DESIGN_GEOMETRIC_PRESENTATION_REPRESENTATION (  '', ( #134 ), #63 ) ;
#126 = ORIENTED_EDGE ( 'NONE', *, *, #55, .F. ) ;
#127 = LENGTH_MEASURE_WITH_UNIT ( LENGTH_MEASURE( 0.02539999999999999897 ), #159 );
#128 = PRODUCT_DEFINITION_CONTEXT ( 'detailed design', #101, 'design' ) ;
#129 = FACE_OUTER_BOUND ( 'NONE', #180, .T. ) ;
#130 = DIRECTION ( 'NONE',  ( -1.423419451047053664E-16, 1.000000000000000000, -0.000000000000000000 ) ) ;
#131 =( GEOMETRIC_REPRESENTATION_CONTEXT ( 3 ) GLOBAL_UNCERTAINTY_ASSIGNED_CONTEXT ( ( #36 ) ) GLOBAL_UNIT_ASSIGNED_CONTEXT ( ( #219, #286, #118 ) ) REPRESENTATION_CONTEXT ( 'NONE', 'WORKASPACE' ) );
#132 = DIRECTION ( 'NONE',  ( 1.000000000000000000, 0.000000000000000000, 0.000000000000000000 ) ) ;
#133 = DIMENSIONAL_EXPONENTS ( 1.000000000000000000, 0.000000000000000000, 0.000000000000000000, 0.000000000000000000, 0.000000000000000000, 0.000000000000000000, 0.000000000000000000 ) ;
#134 = STYLED_ITEM ( 'NONE', ( #280 ), #40 ) ;
#135 = AXIS2_PLACEMENT_3D ( 'NONE', #190, #89, #132 ) ;
#136 = SURFACE_SIDE_STYLE ('',( #88 ) ) ;
#137 = EDGE_CURVE ( 'NONE', #287, #272, #93, .T. ) ;
#138 =( NAMED_UNIT ( * ) SI_UNIT ( $, .STERADIAN. ) SOLID_ANGLE_UNIT ( ) );
#139 = CARTESIAN_POINT ( 'NONE',  ( 1.492854381820356186E-36, 1.931873690113018298E-19, 0.000000000000000000 ) ) ;
#140 = AXIS2_PLACEMENT_3D ( 'NONE', #170, #224, #244 ) ;
#141 = CARTESIAN_POINT ( 'NONE',  ( -6.123233995736770966E-17, 3.000000000000000444, 0.000000000000000000 ) ) ;
#142 = DIRECTION ( 'NONE',  ( 1.000000000000000000, 1.423419451047053664E-16, 0.000000000000000000 ) ) ;
#143 = ORIENTED_EDGE ( 'NONE', *, *, #167, .F. ) ;
#144 = PRESENTATION_LAYER_ASSIGNMENT (  '', '', ( #282 ) ) ;
#145 = ADVANCED_FACE ( 'NONE', ( #267 ), #148, .F. ) ;
#146 =( LENGTH_UNIT ( ) NAMED_UNIT ( * ) SI_UNIT ( $, .METRE. ) );
#147 = SURFACE_STYLE_FILL_AREA ( #32 ) ;
#148 = PLANE ( 'NONE',  #307 ) ;
#149 = DIRECTION ( 'NONE',  ( 0.8660254037844397068, 0.4999999999999979461, 1.060575238724908024E-16 ) ) ;
#150 = ORIENTED_EDGE ( 'NONE', *, *, #55, .T. ) ;
#151 = CARTESIAN_POINT ( 'NONE',  ( 0.3750000000000000555, 0.1876388374866273800, 4.592425496802575451E-17 ) ) ;
#152 = DIMENSIONAL_EXPONENTS ( 1.000000000000000000, 0.000000000000000000, 0.000000000000000000, 0.000000000000000000, 0.000000000000000000, 0.000000000000000000, 0.000000000000000000 ) ;
#153 = AXIS2_PLACEMENT_3D ( 'NONE', #41, #248, #24 ) ;
#154 = VERTEX_POINT ( 'NONE', #202 ) ;
#155 = LINE ( 'NONE', #212, #162 ) ;
#156 = DIRECTION ( 'NONE',  ( -1.423419451047053664E-16, 1.000000000000000000, -0.000000000000000000 ) ) ;
#157 = PLANE ( 'NONE',  #111 ) ;
#158 = DIRECTION ( 'NONE',  ( -7.727494760452073194E-18, -1.000000000000000000, 0.000000000000000000 ) ) ;
#159 =( LENGTH_UNIT ( ) NAMED_UNIT ( * ) SI_UNIT ( $, .METRE. ) );
#160 = EDGE_CURVE ( 'NONE', #104, #23, #246, .T. ) ;
#161 = CIRCLE ( 'NONE', #140, 0.3749999999999996669 ) ;
#162 = VECTOR ( 'NONE', #149, 39.37007874015748854 ) ;
#163 = EDGE_LOOP ( 'NONE', ( #9, #150, #46, #122 ) ) ;
#164 =( LENGTH_UNIT ( ) NAMED_UNIT ( * ) SI_UNIT ( $, .METRE. ) );
#165 = CARTESIAN_POINT ( 'NONE',  ( 0.3750000000000000555, 0.1876388374866272968, 4.592425496802573602E-17 ) ) ;
#166 = DIRECTION ( 'NONE',  ( -1.423419451047053664E-16, 1.000000000000000000, -0.000000000000000000 ) ) ;
#167 = EDGE_CURVE ( 'NONE', #23, #4, #175, .T. ) ;
#168 = APPLICATION_CONTEXT ( 'automotive_design' ) ;
#169 = ORIENTED_EDGE ( 'NONE', *, *, #3, .F. ) ;
#170 = CARTESIAN_POINT ( 'NONE',  ( 3.390846182517161929E-16, 0.1876388374866272135, 0.000000000000000000 ) ) ;
#171 =( LENGTH_UNIT ( ) NAMED_UNIT ( * ) SI_UNIT ( $, .METRE. ) );
#172 = DIRECTION ( 'NONE',  ( -7.727494760452073194E-18, -1.000000000000000000, -0.000000000000000000 ) ) ;
#173 = SURFACE_SIDE_STYLE ('',( #147 ) ) ;
#174 = DIMENSIONAL_EXPONENTS ( 1.000000000000000000, 0.000000000000000000, 0.000000000000000000, 0.000000000000000000, 0.000000000000000000, 0.000000000000000000, 0.000000000000000000 ) ;
#175 = CIRCLE ( 'NONE', #153, 0.3750000000000001110 ) ;
#176 = FACE_OUTER_BOUND ( 'NONE', #30, .T. ) ;
#177 = PRODUCT_DEFINITION_FORMATION_WITH_SPECIFIED_SOURCE ( 'ANY', '', #239, .NOT_KNOWN. ) ;
#178 = DIRECTION ( 'NONE',  ( 1.000000000000000000, 0.000000000000000000, 0.000000000000000000 ) ) ;
#179 = FACE_OUTER_BOUND ( 'NONE', #252, .T. ) ;
#180 = EDGE_LOOP ( 'NONE', ( #247, #76, #208, #78 ) ) ;
#181 = LENGTH_MEASURE_WITH_UNIT ( LENGTH_MEASURE( 0.02539999999999999897 ), #188 );
#182 = EDGE_CURVE ( 'NONE', #104, #73, #161, .T. ) ;
#183 = ORIENTED_EDGE ( 'NONE', *, *, #137, .F. ) ;
#184 = PRESENTATION_STYLE_ASSIGNMENT (( #102 ) ) ;
#185 = AXIS2_PLACEMENT_3D ( 'NONE', #276, #130, #262 ) ;
#186 = FACE_OUTER_BOUND ( 'NONE', #42, .T. ) ;
#187 = CARTESIAN_POINT ( 'NONE',  ( -0.3749999999999993339, 0.1876388374866271580, 0.000000000000000000 ) ) ;
#188 =( LENGTH_UNIT ( ) NAMED_UNIT ( * ) SI_UNIT ( $, .METRE. ) );
#189 = CIRCLE ( 'NONE', #85, 0.05000000000000000278 ) ;
#190 = CARTESIAN_POINT ( 'NONE',  ( 0.000000000000000000, 0.000000000000000000, 0.000000000000000000 ) ) ;
#191 = EDGE_CURVE ( 'NONE', #4, #23, #223, .T. ) ;
#192 = UNCERTAINTY_MEASURE_WITH_UNIT (LENGTH_MEASURE( 1.000000000000000082E-05 ), #209, 'distance_accuracy_value', 'NONE');
#193 = PRODUCT_CONTEXT ( 'NONE', #168, 'mechanical' ) ;
#194 = FILL_AREA_STYLE ('',( #83 ) ) ;
#195 = CONICAL_SURFACE ( 'NONE', #269, 0.05000000000000000278, 1.047197551196600074 ) ;
#196 = COLOUR_RGB ( '',0.7921568627450980005, 0.8196078431372548767, 0.9333333333333333481 ) ;
#197 = DIRECTION ( 'NONE',  ( 1.000000000000000000, -7.727494760452073194E-18, 0.000000000000000000 ) ) ;
#198 = EDGE_CURVE ( 'NONE', #154, #38, #206, .T. ) ;
#199 = CARTESIAN_POINT ( 'NONE',  ( 0.3749999999999998335, 3.000000000000000444, 4.592425496802572986E-17 ) ) ;
#200 = DIRECTION ( 'NONE',  ( -1.000000000000000000, -1.423419451047053664E-16, 0.000000000000000000 ) ) ;
#201 = PRESENTATION_LAYER_ASSIGNMENT (  '', '', ( #110 ) ) ;
#202 = CARTESIAN_POINT ( 'NONE',  ( 0.05000000000000000278, 0.000000000000000000, 2.602374448188125966E-17 ) ) ;
#203 = COLOUR_RGB ( '',1.000000000000000000, 0.000000000000000000, 0.000000000000000000 ) ;
#204 = ORIENTED_EDGE ( 'NONE', *, *, #198, .T. ) ;
#205 = DIRECTION ( 'NONE',  ( -7.727494760452073194E-18, -1.000000000000000000, -0.000000000000000000 ) ) ;
#206 = CIRCLE ( 'NONE', #14, 0.05000000000000000278 ) ;
#207 = UNCERTAINTY_MEASURE_WITH_UNIT (LENGTH_MEASURE( 1.000000000000000082E-05 ), #10, 'distance_accuracy_value', 'NONE');
#208 = ORIENTED_EDGE ( 'NONE', *, *, #137, .T. ) ;
#209 =( CONVERSION_BASED_UNIT ( 'INCH', #181 ) LENGTH_UNIT ( ) NAMED_UNIT ( #124 ) );
#210 = ORIENTED_EDGE ( 'NONE', *, *, #182, .F. ) ;
#211 = LINE ( 'NONE', #199, #113 ) ;
#212 = CARTESIAN_POINT ( 'NONE',  ( 0.05000000000000000278, 0.000000000000000000, 6.123233995736766344E-18 ) ) ;
#213 = PRESENTATION_LAYER_ASSIGNMENT (  '', '', ( #29 ) ) ;
#214 = DIRECTION ( 'NONE',  ( -1.423419451047053664E-16, 1.000000000000000000, -0.000000000000000000 ) ) ;
#215 = FILL_AREA_STYLE ('',( #251 ) ) ;
#216 = MECHANICAL_DESIGN_GEOMETRIC_PRESENTATION_REPRESENTATION (  '', ( #29 ), #86 ) ;
#217 = LENGTH_MEASURE_WITH_UNIT ( LENGTH_MEASURE( 0.02539999999999999897 ), #13 );
#218 =( NAMED_UNIT ( * ) PLANE_ANGLE_UNIT ( ) SI_UNIT ( $, .RADIAN. ) );
#219 =( CONVERSION_BASED_UNIT ( 'INCH', #217 ) LENGTH_UNIT ( ) NAMED_UNIT ( #133 ) );
#220 = PRESENTATION_LAYER_ASSIGNMENT (  '', '', ( #243 ) ) ;
#221 =( CONVERSION_BASED_UNIT ( 'INCH', #91 ) LENGTH_UNIT ( ) NAMED_UNIT ( #174 ) );
#222 = SURFACE_STYLE_FILL_AREA ( #115 ) ;
#223 = CIRCLE ( 'NONE', #19, 0.3750000000000001110 ) ;
#224 = DIRECTION ( 'NONE',  ( -1.423419451047053664E-16, 1.000000000000000000, -0.000000000000000000 ) ) ;
#225 = EDGE_LOOP ( 'NONE', ( #65, #204 ) ) ;
#226 = CARTESIAN_POINT ( 'NONE',  ( 2.985708763640712371E-36, 3.863747380226036597E-19, 0.000000000000000000 ) ) ;
#227 = ORIENTED_EDGE ( 'NONE', *, *, #121, .T. ) ;
#228 = CARTESIAN_POINT ( 'NONE',  ( 2.985708763640712371E-36, 3.863747380226036597E-19, 0.000000000000000000 ) ) ;
#229 = AXIS2_PLACEMENT_3D ( 'NONE', #18, #214, #60 ) ;
#230 = MECHANICAL_DESIGN_GEOMETRIC_PRESENTATION_REPRESENTATION (  '', ( #282 ), #1 ) ;
#231 = ORIENTED_EDGE ( 'NONE', *, *, #160, .F. ) ;
#232 =( LENGTH_UNIT ( ) NAMED_UNIT ( * ) SI_UNIT ( $, .METRE. ) );
#233 = COLOUR_RGB ( '',1.000000000000000000, 0.000000000000000000, 0.000000000000000000 ) ;
#234 = EDGE_CURVE ( 'NONE', #38, #272, #290, .T. ) ;
#235 =( GEOMETRIC_REPRESENTATION_CONTEXT ( 3 ) GLOBAL_UNCERTAINTY_ASSIGNED_CONTEXT ( ( #192 ) ) GLOBAL_UNIT_ASSIGNED_CONTEXT ( ( #209, #296, #74 ) ) REPRESENTATION_CONTEXT ( 'NONE', 'WORKASPACE' ) );
#236 = PRESENTATION_LAYER_ASSIGNMENT (  '', '', ( #53 ) ) ;
#237 = CARTESIAN_POINT ( 'NONE',  ( -0.05000000000000000278, 7.727494760452073194E-19, 0.000000000000000000 ) ) ;
#238 = ORIENTED_EDGE ( 'NONE', *, *, #109, .F. ) ;
#239 = PRODUCT ( '59832', '59832', '', ( #193 ) ) ;
#240 = LENGTH_MEASURE_WITH_UNIT ( LENGTH_MEASURE( 0.02539999999999999897 ), #164 );
#241 = ADVANCED_FACE ( 'NONE', ( #176 ), #114, .F. ) ;
#242 = DIRECTION ( 'NONE',  ( 1.000000000000000000, -7.727494760452073194E-18, 0.000000000000000000 ) ) ;
#243 = STYLED_ITEM ( 'NONE', ( #112 ), #116 ) ;
#244 = DIRECTION ( 'NONE',  ( -1.000000000000000000, -1.821231995776177205E-16, 0.000000000000000000 ) ) ;
#245 = ORIENTED_EDGE ( 'NONE', *, *, #298, .F. ) ;
#246 = LINE ( 'NONE', #66, #292 ) ;
#247 = ORIENTED_EDGE ( 'NONE', *, *, #198, .F. ) ;
#248 = DIRECTION ( 'NONE',  ( -1.423419451047053664E-16, 1.000000000000000000, -0.000000000000000000 ) ) ;
#249 = ADVANCED_FACE ( 'NONE', ( #64 ), #100, .T. ) ;
#250 = ORIENTED_EDGE ( 'NONE', *, *, #3, .T. ) ;
#251 = FILL_AREA_STYLE_COLOUR ( '', #278 ) ;
#252 = EDGE_LOOP ( 'NONE', ( #169, #183 ) ) ;
#253 = AXIS2_PLACEMENT_3D ( 'NONE', #309, #92, #200 ) ;
#254 =( CONVERSION_BASED_UNIT ( 'INCH', #127 ) LENGTH_UNIT ( ) NAMED_UNIT ( #103 ) );
#255 = CLOSED_SHELL ( 'NONE', ( #20, #302, #249, #40 ) ) ;
#256 = DIRECTION ( 'NONE',  ( 7.727494760452073194E-18, 1.000000000000000000, 0.000000000000000000 ) ) ;
#257 = SURFACE_SIDE_STYLE ('',( #47 ) ) ;
#258 = DIRECTION ( 'NONE',  ( -7.727494760452073194E-18, -1.000000000000000000, -0.000000000000000000 ) ) ;
#259 = DIRECTION ( 'NONE',  ( -1.000000000000000000, 7.727494760452073194E-18, 0.000000000000000000 ) ) ;
#260 =( CONVERSION_BASED_UNIT ( 'INCH', #240 ) LENGTH_UNIT ( ) NAMED_UNIT ( #70 ) );
#261 = CIRCLE ( 'NONE', #274, 0.3749999999999996669 ) ;
#262 = DIRECTION ( 'NONE',  ( -1.000000000000000000, 0.000000000000000000, 0.000000000000000000 ) ) ;
#263 = UNCERTAINTY_MEASURE_WITH_UNIT (LENGTH_MEASURE( 1.000000000000000082E-05 ), #254, 'distance_accuracy_value', 'NONE');
#264 = COLOUR_RGB ( '',1.000000000000000000, 0.000000000000000000, 0.000000000000000000 ) ;
#265 = PRESENTATION_STYLE_ASSIGNMENT (( #43 ) ) ;
#266 = CARTESIAN_POINT ( 'NONE',  ( 0.3750000000000000555, 3.000000000000000444, 4.592425496802573602E-17 ) ) ;
#267 = FACE_OUTER_BOUND ( 'NONE', #119, .T. ) ;
#268 = SURFACE_STYLE_USAGE ( .BOTH. , #173 ) ;
#269 = AXIS2_PLACEMENT_3D ( 'NONE', #295, #256, #54 ) ;
#270 = SURFACE_SIDE_STYLE ('',( #222 ) ) ;
#271 =( NAMED_UNIT ( * ) PLANE_ANGLE_UNIT ( ) SI_UNIT ( $, .RADIAN. ) );
#272 = VERTEX_POINT ( 'NONE', #105 ) ;
#273 = SURFACE_STYLE_FILL_AREA ( #7 ) ;
#274 = AXIS2_PLACEMENT_3D ( 'NONE', #301, #156, #34 ) ;
#275 =( NAMED_UNIT ( * ) PLANE_ANGLE_UNIT ( ) SI_UNIT ( $, .RADIAN. ) );
#276 = CARTESIAN_POINT ( 'NONE',  ( -6.123233995736772199E-17, 3.000000000000000444, 0.000000000000000000 ) ) ;
#277 = SURFACE_SIDE_STYLE ('',( #37 ) ) ;
#278 = COLOUR_RGB ( '',1.000000000000000000, 0.000000000000000000, 0.000000000000000000 ) ;
#279 = PRODUCT_RELATED_PRODUCT_CATEGORY ( 'part', '', ( #239 ) ) ;
#280 = PRESENTATION_STYLE_ASSIGNMENT (( #58 ) ) ;
#281 = FACE_OUTER_BOUND ( 'NONE', #163, .T. ) ;
#282 = STYLED_ITEM ( 'NONE', ( #33 ), #302 ) ;
#283 = UNCERTAINTY_MEASURE_WITH_UNIT (LENGTH_MEASURE( 1.000000000000000082E-05 ), #123, 'distance_accuracy_value', 'NONE');
#284 = FILL_AREA_STYLE ('',( #299 ) ) ;
#285 = CLOSED_SHELL ( 'NONE', ( #48, #241, #95, #145 ) ) ;
#286 =( NAMED_UNIT ( * ) PLANE_ANGLE_UNIT ( ) SI_UNIT ( $, .RADIAN. ) );
#287 = VERTEX_POINT ( 'NONE', #151 ) ;
#288 =( NAMED_UNIT ( * ) SI_UNIT ( $, .STERADIAN. ) SOLID_ANGLE_UNIT ( ) );
#289 = ORIENTED_EDGE ( 'NONE', *, *, #167, .T. ) ;
#290 = LINE ( 'NONE', #21, #57 ) ;
#291 = LENGTH_MEASURE_WITH_UNIT ( LENGTH_MEASURE( 0.02539999999999999897 ), #171 );
#292 = VECTOR ( 'NONE', #166, 39.37007874015748143 ) ;
#293 =( GEOMETRIC_REPRESENTATION_CONTEXT ( 3 ) GLOBAL_UNCERTAINTY_ASSIGNED_CONTEXT ( ( #283 ) ) GLOBAL_UNIT_ASSIGNED_CONTEXT ( ( #123, #218, #87 ) ) REPRESENTATION_CONTEXT ( 'NONE', 'WORKASPACE' ) );
#294 =( GEOMETRIC_REPRESENTATION_CONTEXT ( 3 ) GLOBAL_UNCERTAINTY_ASSIGNED_CONTEXT ( ( #207 ) ) GLOBAL_UNIT_ASSIGNED_CONTEXT ( ( #10, #271, #27 ) ) REPRESENTATION_CONTEXT ( 'NONE', 'WORKASPACE' ) );
#295 = CARTESIAN_POINT ( 'NONE',  ( 2.985708763640712371E-36, 3.863747380226036597E-19, 0.000000000000000000 ) ) ;
#296 =( NAMED_UNIT ( * ) PLANE_ANGLE_UNIT ( ) SI_UNIT ( $, .RADIAN. ) );
#297 = ORIENTED_EDGE ( 'NONE', *, *, #234, .T. ) ;
#298 = EDGE_CURVE ( 'NONE', #154, #287, #155, .T. ) ;
#299 = FILL_AREA_STYLE_COLOUR ( '', #35 ) ;
#300 = CIRCLE ( 'NONE', #15, 0.3750000000000000555 ) ;
#301 = CARTESIAN_POINT ( 'NONE',  ( 3.390846182517161929E-16, 0.1876388374866272135, 0.000000000000000000 ) ) ;
#302 = ADVANCED_FACE ( 'NONE', ( #179 ), #157, .T. ) ;
#303 = PRODUCT_DEFINITION_SHAPE ( 'NONE', 'NONE',  #31 ) ;
#304 = UNCERTAINTY_MEASURE_WITH_UNIT (LENGTH_MEASURE( 1.000000000000000082E-05 ), #221, 'distance_accuracy_value', 'NONE');
#305 = SHAPE_DEFINITION_REPRESENTATION ( #303, #51 ) ;
#306 = CARTESIAN_POINT ( 'NONE',  ( 2.985708763640712371E-36, 3.863747380226036597E-19, 0.000000000000000000 ) ) ;
#307 = AXIS2_PLACEMENT_3D ( 'NONE', #308, #94, #142 ) ;
#308 = CARTESIAN_POINT ( 'NONE',  ( 0.3750000000000000555, 3.000000000000000444, 0.000000000000000000 ) ) ;
#309 = CARTESIAN_POINT ( 'NONE',  ( 3.390846182517161929E-16, 0.1876388374866273523, 0.000000000000000000 ) ) ;
ENDSEC;
END-ISO-10303-21;
