ISO-10303-21;
HEADER;
FILE_DESCRIPTION (( 'STEP AP214' ),
    '1' );
FILE_NAME ('49436.STEP',
    '2023-06-30T22:03:43',
    ( '' ),
    ( '' ),
    'SwSTEP 2.0',
    'SolidWorks 2023',
    '' );
FILE_SCHEMA (( 'AUTOMOTIVE_DESIGN' ));
ENDSEC;

DATA;
#1 = DIMENSIONAL_EXPONENTS ( 1.000000000000000000, 0.000000000000000000, 0.000000000000000000, 0.000000000000000000, 0.000000000000000000, 0.000000000000000000, 0.000000000000000000 ) ;
#2 = MECHANICAL_DESIGN_GEOMETRIC_PRESENTATION_REPRESENTATION (  '', ( #231 ), #119 ) ;
#3 = CARTESIAN_POINT ( 'NONE',  ( 0.000000000000000000, 0.5000000000000000000, -0.5000000000000000000 ) ) ;
#4 = ORIENTED_EDGE ( 'NONE', *, *, #338, .T. ) ;
#5 = DIMENSIONAL_EXPONENTS ( 1.000000000000000000, 0.000000000000000000, 0.000000000000000000, 0.000000000000000000, 0.000000000000000000, 0.000000000000000000, 0.000000000000000000 ) ;
#6 = ORIENTED_EDGE ( 'NONE', *, *, #321, .T. ) ;
#7 = PRODUCT_CONTEXT ( 'NONE', #355, 'mechanical' ) ;
#8 = EDGE_CURVE ( 'NONE', #242, #159, #81, .T. ) ;
#9 = SURFACE_STYLE_FILL_AREA ( #283 ) ;
#10 = PRESENTATION_LAYER_ASSIGNMENT (  '', '', ( #163 ) ) ;
#11 = MECHANICAL_DESIGN_GEOMETRIC_PRESENTATION_REPRESENTATION (  '', ( #332 ), #57 ) ;
#12 = CARTESIAN_POINT ( 'NONE',  ( -6.123233995736766036E-17, 0.5000000000000000000, 0.000000000000000000 ) ) ;
#13 = ADVANCED_FACE ( 'NONE', ( #371 ), #110, .T. ) ;
#14 = DIRECTION ( 'NONE',  ( -1.000000000000000000, 0.000000000000000000, 0.000000000000000000 ) ) ;
#15 =( LENGTH_UNIT ( ) NAMED_UNIT ( * ) SI_UNIT ( $, .METRE. ) );
#16 = AXIS2_PLACEMENT_3D ( 'NONE', #363, #333, #14 ) ;
#17 = DIRECTION ( 'NONE',  ( -1.000000000000000000, 0.000000000000000000, 0.000000000000000000 ) ) ;
#18 = SURFACE_STYLE_USAGE ( .BOTH. , #258 ) ;
#19 = DIRECTION ( 'NONE',  ( -1.203218943206089082E-16, 1.000000000000000000, -0.000000000000000000 ) ) ;
#20 = PRODUCT_DEFINITION ( 'UNKNOWN', '', #225, #260 ) ;
#21 = CARTESIAN_POINT ( 'NONE',  ( 0.000000000000000000, 0.5000000000000000000, 0.000000000000000000 ) ) ;
#22 = PRESENTATION_STYLE_ASSIGNMENT (( #264 ) ) ;
#23 = ORIENTED_EDGE ( 'NONE', *, *, #194, .T. ) ;
#24 = LENGTH_MEASURE_WITH_UNIT ( LENGTH_MEASURE( 0.02539999999999999897 ), #76 );
#25 = CIRCLE ( 'NONE', #30, 0.5000000000000000000 ) ;
#26 = SPHERICAL_SURFACE ( 'NONE', #141, 0.5000000000000000000 ) ;
#27 = EDGE_LOOP ( 'NONE', ( #51, #105, #166, #222 ) ) ;
#28 = ORIENTED_EDGE ( 'NONE', *, *, #259, .F. ) ;
#29 = MECHANICAL_DESIGN_GEOMETRIC_PRESENTATION_REPRESENTATION (  '', ( #266 ), #253 ) ;
#30 = AXIS2_PLACEMENT_3D ( 'NONE', #167, #34, #143 ) ;
#31 = DIRECTION ( 'NONE',  ( 0.000000000000000000, 0.000000000000000000, -1.000000000000000000 ) ) ;
#32 = ORIENTED_EDGE ( 'NONE', *, *, #259, .T. ) ;
#33 = DIRECTION ( 'NONE',  ( -1.000000000000000000, -1.203218943206089082E-16, 0.000000000000000000 ) ) ;
#34 = DIRECTION ( 'NONE',  ( -0.000000000000000000, -1.000000000000000000, -0.000000000000000000 ) ) ;
#35 = SURFACE_STYLE_USAGE ( .BOTH. , #121 ) ;
#36 = DIRECTION ( 'NONE',  ( -0.000000000000000000, -1.000000000000000000, -0.000000000000000000 ) ) ;
#37 = FILL_AREA_STYLE ('',( #198 ) ) ;
#38 = ORIENTED_EDGE ( 'NONE', *, *, #321, .F. ) ;
#39 = FILL_AREA_STYLE_COLOUR ( '', #295 ) ;
#40 =( NAMED_UNIT ( * ) SI_UNIT ( $, .STERADIAN. ) SOLID_ANGLE_UNIT ( ) );
#41 = DIMENSIONAL_EXPONENTS ( 1.000000000000000000, 0.000000000000000000, 0.000000000000000000, 0.000000000000000000, 0.000000000000000000, 0.000000000000000000, 0.000000000000000000 ) ;
#42 = DIRECTION ( 'NONE',  ( 1.000000000000000000, 0.000000000000000000, -1.224646799147353207E-16 ) ) ;
#43 = APPLICATION_PROTOCOL_DEFINITION ( 'draft international standard', 'automotive_design', 1998, #355 ) ;
#44 = CARTESIAN_POINT ( 'NONE',  ( 6.123233995736764803E-17, 1.250000000000000000, 0.4999999999999998335 ) ) ;
#45 = SURFACE_SIDE_STYLE ('',( #320 ) ) ;
#46 = DIRECTION ( 'NONE',  ( -1.203218943206089082E-16, 1.000000000000000000, -0.000000000000000000 ) ) ;
#47 = UNCERTAINTY_MEASURE_WITH_UNIT (LENGTH_MEASURE( 1.000000000000000082E-05 ), #245, 'distance_accuracy_value', 'NONE');
#48 = VECTOR ( 'NONE', #323, 39.37007874015748143 ) ;
#49 = EDGE_CURVE ( 'NONE', #108, #136, #95, .T. ) ;
#50 = SURFACE_STYLE_FILL_AREA ( #130 ) ;
#51 = ORIENTED_EDGE ( 'NONE', *, *, #165, .F. ) ;
#52 = EDGE_CURVE ( 'NONE', #58, #339, #207, .T. ) ;
#53 = AXIS2_PLACEMENT_3D ( 'NONE', #101, #369, #103 ) ;
#54 = ORIENTED_EDGE ( 'NONE', *, *, #165, .T. ) ;
#55 = ORIENTED_EDGE ( 'NONE', *, *, #72, .F. ) ;
#56 = AXIS2_PLACEMENT_3D ( 'NONE', #98, #197, #307 ) ;
#57 =( GEOMETRIC_REPRESENTATION_CONTEXT ( 3 ) GLOBAL_UNCERTAINTY_ASSIGNED_CONTEXT ( ( #318 ) ) GLOBAL_UNIT_ASSIGNED_CONTEXT ( ( #84, #210, #61 ) ) REPRESENTATION_CONTEXT ( 'NONE', 'WORKASPACE' ) );
#58 = VERTEX_POINT ( 'NONE', #91 ) ;
#59 = FACE_OUTER_BOUND ( 'NONE', #244, .T. ) ;
#60 = ORIENTED_EDGE ( 'NONE', *, *, #331, .F. ) ;
#61 =( NAMED_UNIT ( * ) SI_UNIT ( $, .STERADIAN. ) SOLID_ANGLE_UNIT ( ) );
#62 =( NAMED_UNIT ( * ) SI_UNIT ( $, .STERADIAN. ) SOLID_ANGLE_UNIT ( ) );
#63 = VERTEX_POINT ( 'NONE', #352 ) ;
#64 = MECHANICAL_DESIGN_GEOMETRIC_PRESENTATION_REPRESENTATION (  '', ( #311 ), #180 ) ;
#65 = DIRECTION ( 'NONE',  ( -1.203218943206089082E-16, 1.000000000000000000, 0.000000000000000000 ) ) ;
#66 = FACE_OUTER_BOUND ( 'NONE', #156, .T. ) ;
#67 = DIRECTION ( 'NONE',  ( 1.203218943206089082E-16, -1.000000000000000000, 0.000000000000000000 ) ) ;
#68 = ADVANCED_FACE ( 'NONE', ( #150 ), #26, .T. ) ;
#69 = AXIS2_PLACEMENT_3D ( 'NONE', #145, #287, #350 ) ;
#70 =( LENGTH_UNIT ( ) NAMED_UNIT ( * ) SI_UNIT ( $, .METRE. ) );
#71 = FILL_AREA_STYLE ('',( #185 ) ) ;
#72 = EDGE_CURVE ( 'NONE', #79, #134, #89, .T. ) ;
#73 = COLOUR_RGB ( '',1.000000000000000000, 0.000000000000000000, 0.000000000000000000 ) ;
#74 = DIRECTION ( 'NONE',  ( -1.203218943206089082E-16, 1.000000000000000000, -0.000000000000000000 ) ) ;
#75 = EDGE_CURVE ( 'NONE', #102, #242, #356, .T. ) ;
#76 =( LENGTH_UNIT ( ) NAMED_UNIT ( * ) SI_UNIT ( $, .METRE. ) );
#77 = MECHANICAL_DESIGN_GEOMETRIC_PRESENTATION_REPRESENTATION (  '', ( #163 ), #149 ) ;
#78 = CIRCLE ( 'NONE', #336, 0.4999999999999993894 ) ;
#79 = VERTEX_POINT ( 'NONE', #345 ) ;
#80 = DIMENSIONAL_EXPONENTS ( 1.000000000000000000, 0.000000000000000000, 0.000000000000000000, 0.000000000000000000, 0.000000000000000000, 0.000000000000000000, 0.000000000000000000 ) ;
#81 = LINE ( 'NONE', #140, #200 ) ;
#82 =( CONVERSION_BASED_UNIT ( 'INCH', #216 ) LENGTH_UNIT ( ) NAMED_UNIT ( #41 ) );
#83 = CIRCLE ( 'NONE', #215, 0.4999999999999997224 ) ;
#84 =( CONVERSION_BASED_UNIT ( 'INCH', #111 ) LENGTH_UNIT ( ) NAMED_UNIT ( #5 ) );
#85 = CARTESIAN_POINT ( 'NONE',  ( 0.4999999999999999445, 4.000000000000000000, 6.123233995736762338E-17 ) ) ;
#86 = ADVANCED_FACE ( 'NONE', ( #66 ), #351, .T. ) ;
#87 = DIRECTION ( 'NONE',  ( -0.000000000000000000, -1.000000000000000000, -0.000000000000000000 ) ) ;
#88 = CARTESIAN_POINT ( 'NONE',  ( 0.000000000000000000, 1.250000000000000000, 0.000000000000000000 ) ) ;
#89 = CIRCLE ( 'NONE', #56, 0.5000000000000000000 ) ;
#90 = SPHERICAL_SURFACE ( 'NONE', #341, 0.5000000000000000000 ) ;
#91 = CARTESIAN_POINT ( 'NONE',  ( -0.4999999999999988898, 1.250000000000000000, 0.000000000000000000 ) ) ;
#92 = CARTESIAN_POINT ( 'NONE',  ( 1.224646799147353207E-16, 4.000000000000000000, 0.000000000000000000 ) ) ;
#93 = DIRECTION ( 'NONE',  ( 0.000000000000000000, 0.000000000000000000, -1.000000000000000000 ) ) ;
#94 = DIRECTION ( 'NONE',  ( -0.000000000000000000, -1.000000000000000000, -0.000000000000000000 ) ) ;
#95 = CIRCLE ( 'NONE', #106, 0.5000000000000000000 ) ;
#96 = STYLED_ITEM ( 'NONE', ( #252 ), #204 ) ;
#97 = VECTOR ( 'NONE', #306, 39.37007874015748143 ) ;
#98 = CARTESIAN_POINT ( 'NONE',  ( 0.000000000000000000, 0.5000000000000000000, 0.000000000000000000 ) ) ;
#99 = CYLINDRICAL_SURFACE ( 'NONE', #142, 0.4999999999999996114 ) ;
#100 = PRESENTATION_STYLE_ASSIGNMENT (( #182 ) ) ;
#101 = CARTESIAN_POINT ( 'NONE',  ( 0.000000000000000000, 1.250000000000000000, 0.000000000000000000 ) ) ;
#102 = VERTEX_POINT ( 'NONE', #44 ) ;
#103 = DIRECTION ( 'NONE',  ( 0.000000000000000000, -0.000000000000000000, 1.000000000000000000 ) ) ;
#104 = SHAPE_DEFINITION_REPRESENTATION ( #302, #373 ) ;
#105 = ORIENTED_EDGE ( 'NONE', *, *, #234, .T. ) ;
#106 = AXIS2_PLACEMENT_3D ( 'NONE', #12, #256, #42 ) ;
#107 = AXIS2_PLACEMENT_3D ( 'NONE', #271, #87, #343 ) ;
#108 = VERTEX_POINT ( 'NONE', #286 ) ;
#109 = EDGE_CURVE ( 'NONE', #63, #250, #154, .T. ) ;
#110 = CYLINDRICAL_SURFACE ( 'NONE', #69, 0.4999999999999996114 ) ;
#111 = LENGTH_MEASURE_WITH_UNIT ( LENGTH_MEASURE( 0.02539999999999999897 ), #178 );
#112 = CLOSED_SHELL ( 'NONE', ( #68, #139, #135, #86, #204 ) ) ;
#113 =( CONVERSION_BASED_UNIT ( 'INCH', #308 ) LENGTH_UNIT ( ) NAMED_UNIT ( #80 ) );
#114 =( LENGTH_UNIT ( ) NAMED_UNIT ( * ) SI_UNIT ( $, .METRE. ) );
#115 = DIRECTION ( 'NONE',  ( -1.203218943206089082E-16, 1.000000000000000000, -0.000000000000000000 ) ) ;
#116 = ORIENTED_EDGE ( 'NONE', *, *, #234, .F. ) ;
#117 = DIRECTION ( 'NONE',  ( 0.000000000000000000, 0.000000000000000000, -1.000000000000000000 ) ) ;
#118 = DIRECTION ( 'NONE',  ( 1.000000000000000000, 0.000000000000000000, 0.000000000000000000 ) ) ;
#119 =( GEOMETRIC_REPRESENTATION_CONTEXT ( 3 ) GLOBAL_UNCERTAINTY_ASSIGNED_CONTEXT ( ( #124 ) ) GLOBAL_UNIT_ASSIGNED_CONTEXT ( ( #177, #359, #128 ) ) REPRESENTATION_CONTEXT ( 'NONE', 'WORKASPACE' ) );
#120 = COLOUR_RGB ( '',0.7921568627450980005, 0.8196078431372548767, 0.9333333333333333481 ) ;
#121 = SURFACE_SIDE_STYLE ('',( #314 ) ) ;
#122 = DIRECTION ( 'NONE',  ( 0.000000000000000000, 0.000000000000000000, 1.000000000000000000 ) ) ;
#123 = PRESENTATION_STYLE_ASSIGNMENT (( #227 ) ) ;
#124 = UNCERTAINTY_MEASURE_WITH_UNIT (LENGTH_MEASURE( 1.000000000000000082E-05 ), #177, 'distance_accuracy_value', 'NONE');
#125 = SURFACE_STYLE_USAGE ( .BOTH. , #228 ) ;
#126 = CARTESIAN_POINT ( 'NONE',  ( 1.224646799147353207E-16, 4.000000000000000000, 0.000000000000000000 ) ) ;
#127 = CIRCLE ( 'NONE', #16, 0.5000000000000000000 ) ;
#128 =( NAMED_UNIT ( * ) SI_UNIT ( $, .STERADIAN. ) SOLID_ANGLE_UNIT ( ) );
#129 = MANIFOLD_SOLID_BREP ( 'Revolve - Tool Body (Straight Shanked)', #319 ) ;
#130 = FILL_AREA_STYLE ('',( #138 ) ) ;
#131 = EDGE_LOOP ( 'NONE', ( #365, #196 ) ) ;
#132 = MECHANICAL_DESIGN_GEOMETRIC_PRESENTATION_REPRESENTATION (  '', ( #364 ), #213 ) ;
#133 = PRESENTATION_LAYER_ASSIGNMENT (  '', '', ( #96 ) ) ;
#134 = VERTEX_POINT ( 'NONE', #179 ) ;
#135 = ADVANCED_FACE ( 'NONE', ( #292 ), #257, .T. ) ;
#136 = VERTEX_POINT ( 'NONE', #334 ) ;
#137 = PRESENTATION_LAYER_ASSIGNMENT (  '', '', ( #311 ) ) ;
#138 = FILL_AREA_STYLE_COLOUR ( '', #347 ) ;
#139 = ADVANCED_FACE ( 'NONE', ( #212 ), #335, .T. ) ;
#140 = CARTESIAN_POINT ( 'NONE',  ( 0.000000000000000000, 0.000000000000000000, -0.4999999999999999445 ) ) ;
#141 = AXIS2_PLACEMENT_3D ( 'NONE', #146, #313, #202 ) ;
#142 = AXIS2_PLACEMENT_3D ( 'NONE', #290, #46, #17 ) ;
#143 = DIRECTION ( 'NONE',  ( 0.000000000000000000, 0.000000000000000000, -1.000000000000000000 ) ) ;
#144 =( LENGTH_UNIT ( ) NAMED_UNIT ( * ) SI_UNIT ( $, .METRE. ) );
#145 = CARTESIAN_POINT ( 'NONE',  ( 1.224646799147353207E-16, 4.000000000000000000, 0.000000000000000000 ) ) ;
#146 = CARTESIAN_POINT ( 'NONE',  ( -6.123233995736766036E-17, 0.5000000000000000000, 0.000000000000000000 ) ) ;
#147 = CARTESIAN_POINT ( 'NONE',  ( 6.123233995736764803E-17, 0.000000000000000000, 0.4999999999999999445 ) ) ;
#148 = CARTESIAN_POINT ( 'NONE',  ( 4.533498892964098121E-16, 1.250000000000000000, 0.000000000000000000 ) ) ;
#149 =( GEOMETRIC_REPRESENTATION_CONTEXT ( 3 ) GLOBAL_UNCERTAINTY_ASSIGNED_CONTEXT ( ( #208 ) ) GLOBAL_UNIT_ASSIGNED_CONTEXT ( ( #303, #366, #272 ) ) REPRESENTATION_CONTEXT ( 'NONE', 'WORKASPACE' ) );
#150 = FACE_OUTER_BOUND ( 'NONE', #240, .T. ) ;
#151 =( CONVERSION_BASED_UNIT ( 'INCH', #187 ) LENGTH_UNIT ( ) NAMED_UNIT ( #277 ) );
#152 = DIRECTION ( 'NONE',  ( -1.000000000000000000, 0.000000000000000000, 0.000000000000000000 ) ) ;
#153 = SURFACE_STYLE_FILL_AREA ( #71 ) ;
#154 = CIRCLE ( 'NONE', #304, 0.4999999999999997224 ) ;
#155 = SURFACE_SIDE_STYLE ('',( #50 ) ) ;
#156 = EDGE_LOOP ( 'NONE', ( #162, #337, #192, #28, #38 ) ) ;
#157 = AXIS2_PLACEMENT_3D ( 'NONE', #173, #251, #117 ) ;
#158 = COLOUR_RGB ( '',1.000000000000000000, 0.000000000000000000, 0.000000000000000000 ) ;
#159 = VERTEX_POINT ( 'NONE', #3 ) ;
#160 = LENGTH_MEASURE_WITH_UNIT ( LENGTH_MEASURE( 0.02539999999999999897 ), #362 );
#161 = ADVANCED_FACE ( 'NONE', ( #59 ), #278, .F. ) ;
#162 = ORIENTED_EDGE ( 'NONE', *, *, #194, .F. ) ;
#163 = STYLED_ITEM ( 'NONE', ( #233 ), #135 ) ;
#164 = CIRCLE ( 'NONE', #312, 0.4999999999999998335 ) ;
#165 = EDGE_CURVE ( 'NONE', #339, #250, #221, .T. ) ;
#166 = ORIENTED_EDGE ( 'NONE', *, *, #273, .T. ) ;
#167 = CARTESIAN_POINT ( 'NONE',  ( 0.000000000000000000, 0.5000000000000000000, 0.000000000000000000 ) ) ;
#168 = FACE_OUTER_BOUND ( 'NONE', #191, .T. ) ;
#169 =( NAMED_UNIT ( * ) SI_UNIT ( $, .STERADIAN. ) SOLID_ANGLE_UNIT ( ) );
#170 = CARTESIAN_POINT ( 'NONE',  ( 0.000000000000000000, 1.250000000000000000, -0.4999999999999998335 ) ) ;
#171 = EDGE_LOOP ( 'NONE', ( #175, #23, #55, #60, #269 ) ) ;
#172 = PRESENTATION_LAYER_ASSIGNMENT (  '', '', ( #332 ) ) ;
#173 = CARTESIAN_POINT ( 'NONE',  ( 0.000000000000000000, 1.250000000000000000, 0.000000000000000000 ) ) ;
#174 = CARTESIAN_POINT ( 'NONE',  ( 0.4999999999999997224, 4.000000000000000000, 6.123233995736761105E-17 ) ) ;
#175 = ORIENTED_EDGE ( 'NONE', *, *, #248, .T. ) ;
#176 = CARTESIAN_POINT ( 'NONE',  ( 4.533498892964098121E-16, 1.250000000000000000, 0.000000000000000000 ) ) ;
#177 =( CONVERSION_BASED_UNIT ( 'INCH', #330 ) LENGTH_UNIT ( ) NAMED_UNIT ( #1 ) );
#178 =( LENGTH_UNIT ( ) NAMED_UNIT ( * ) SI_UNIT ( $, .METRE. ) );
#179 = CARTESIAN_POINT ( 'NONE',  ( 6.123233995736767268E-17, 0.5000000000000000000, 0.5000000000000001110 ) ) ;
#180 =( GEOMETRIC_REPRESENTATION_CONTEXT ( 3 ) GLOBAL_UNCERTAINTY_ASSIGNED_CONTEXT ( ( #354 ) ) GLOBAL_UNIT_ASSIGNED_CONTEXT ( ( #184, #189, #289 ) ) REPRESENTATION_CONTEXT ( 'NONE', 'WORKASPACE' ) );
#181 = FILL_AREA_STYLE ('',( #209 ) ) ;
#182 = SURFACE_STYLE_USAGE ( .BOTH. , #45 ) ;
#183 = CARTESIAN_POINT ( 'NONE',  ( 0.4999999999999999445, 1.250000000000000000, 6.123233995736762338E-17 ) ) ;
#184 =( CONVERSION_BASED_UNIT ( 'INCH', #324 ) LENGTH_UNIT ( ) NAMED_UNIT ( #342 ) );
#185 = FILL_AREA_STYLE_COLOUR ( '', #329 ) ;
#186 = UNCERTAINTY_MEASURE_WITH_UNIT (LENGTH_MEASURE( 1.000000000000000082E-05 ), #82, 'distance_accuracy_value', 'NONE');
#187 = LENGTH_MEASURE_WITH_UNIT ( LENGTH_MEASURE( 0.02539999999999999897 ), #288 );
#188 = DIRECTION ( 'NONE',  ( -1.000000000000000000, 0.000000000000000000, 0.000000000000000000 ) ) ;
#189 =( NAMED_UNIT ( * ) PLANE_ANGLE_UNIT ( ) SI_UNIT ( $, .RADIAN. ) );
#190 = ORIENTED_EDGE ( 'NONE', *, *, #248, .F. ) ;
#191 = EDGE_LOOP ( 'NONE', ( #214, #32, #270, #4 ) ) ;
#192 = ORIENTED_EDGE ( 'NONE', *, *, #8, .T. ) ;
#193 = ORIENTED_EDGE ( 'NONE', *, *, #52, .T. ) ;
#194 = EDGE_CURVE ( 'NONE', #102, #134, #281, .T. ) ;
#195 = PRESENTATION_LAYER_ASSIGNMENT (  '', '', ( #364 ) ) ;
#196 = ORIENTED_EDGE ( 'NONE', *, *, #348, .T. ) ;
#197 = DIRECTION ( 'NONE',  ( -0.000000000000000000, -1.000000000000000000, -0.000000000000000000 ) ) ;
#198 = FILL_AREA_STYLE_COLOUR ( '', #158 ) ;
#199 = FILL_AREA_STYLE_COLOUR ( '', #120 ) ;
#200 = VECTOR ( 'NONE', #36, 39.37007874015748143 ) ;
#201 = VECTOR ( 'NONE', #115, 39.37007874015748143 ) ;
#202 = DIRECTION ( 'NONE',  ( 1.000000000000000000, 0.000000000000000000, 0.000000000000000000 ) ) ;
#203 = CARTESIAN_POINT ( 'NONE',  ( -6.123233995736766036E-17, 0.5000000000000000000, 0.000000000000000000 ) ) ;
#204 = ADVANCED_FACE ( 'NONE', ( #168 ), #90, .T. ) ;
#205 =( NAMED_UNIT ( * ) SI_UNIT ( $, .STERADIAN. ) SOLID_ANGLE_UNIT ( ) );
#206 = FILL_AREA_STYLE ('',( #353 ) ) ;
#207 = CIRCLE ( 'NONE', #298, 0.4999999999999993894 ) ;
#208 = UNCERTAINTY_MEASURE_WITH_UNIT (LENGTH_MEASURE( 1.000000000000000082E-05 ), #303, 'distance_accuracy_value', 'NONE');
#209 = FILL_AREA_STYLE_COLOUR ( '', #73 ) ;
#210 =( NAMED_UNIT ( * ) PLANE_ANGLE_UNIT ( ) SI_UNIT ( $, .RADIAN. ) );
#211 = AXIS2_PLACEMENT_3D ( 'NONE', #261, #94, #325 ) ;
#212 = FACE_OUTER_BOUND ( 'NONE', #171, .T. ) ;
#213 =( GEOMETRIC_REPRESENTATION_CONTEXT ( 3 ) GLOBAL_UNCERTAINTY_ASSIGNED_CONTEXT ( ( #186 ) ) GLOBAL_UNIT_ASSIGNED_CONTEXT ( ( #82, #218, #169 ) ) REPRESENTATION_CONTEXT ( 'NONE', 'WORKASPACE' ) );
#214 = ORIENTED_EDGE ( 'NONE', *, *, #49, .F. ) ;
#215 = AXIS2_PLACEMENT_3D ( 'NONE', #126, #74, #188 ) ;
#216 = LENGTH_MEASURE_WITH_UNIT ( LENGTH_MEASURE( 0.02539999999999999897 ), #114 );
#217 =( NAMED_UNIT ( * ) PLANE_ANGLE_UNIT ( ) SI_UNIT ( $, .RADIAN. ) );
#218 =( NAMED_UNIT ( * ) PLANE_ANGLE_UNIT ( ) SI_UNIT ( $, .RADIAN. ) );
#219 = AXIS2_PLACEMENT_3D ( 'NONE', #148, #65, #33 ) ;
#220 = CIRCLE ( 'NONE', #368, 0.5000000000000000000 ) ;
#221 = LINE ( 'NONE', #174, #201 ) ;
#222 = ORIENTED_EDGE ( 'NONE', *, *, #348, .F. ) ;
#223 = ADVANCED_FACE ( 'NONE', ( #310 ), #317, .F. ) ;
#224 = SURFACE_SIDE_STYLE ('',( #9 ) ) ;
#225 = PRODUCT_DEFINITION_FORMATION_WITH_SPECIFIED_SOURCE ( 'ANY', '', #262, .NOT_KNOWN. ) ;
#226 = DIRECTION ( 'NONE',  ( 1.000000000000000000, 1.203218943206089082E-16, 0.000000000000000000 ) ) ;
#227 = SURFACE_STYLE_USAGE ( .BOTH. , #361 ) ;
#228 = SURFACE_SIDE_STYLE ('',( #315 ) ) ;
#229 = CARTESIAN_POINT ( 'NONE',  ( 0.000000000000000000, 0.000000000000000000, 0.000000000000000000 ) ) ;
#230 = DIRECTION ( 'NONE',  ( -1.000000000000000000, 0.000000000000000000, 0.000000000000000000 ) ) ;
#231 = STYLED_ITEM ( 'NONE', ( #100 ), #129 ) ;
#232 = FILL_AREA_STYLE ('',( #39 ) ) ;
#233 = PRESENTATION_STYLE_ASSIGNMENT (( #18 ) ) ;
#234 = EDGE_CURVE ( 'NONE', #339, #58, #78, .T. ) ;
#235 = DIRECTION ( 'NONE',  ( -0.000000000000000000, -1.000000000000000000, -0.000000000000000000 ) ) ;
#236 = UNCERTAINTY_MEASURE_WITH_UNIT (LENGTH_MEASURE( 1.000000000000000082E-05 ), #113, 'distance_accuracy_value', 'NONE');
#237 = DIRECTION ( 'NONE',  ( -0.000000000000000000, -1.000000000000000000, -0.000000000000000000 ) ) ;
#238 = APPLICATION_CONTEXT ( 'automotive_design' ) ;
#239 =( GEOMETRIC_REPRESENTATION_CONTEXT ( 3 ) GLOBAL_UNCERTAINTY_ASSIGNED_CONTEXT ( ( #236 ) ) GLOBAL_UNIT_ASSIGNED_CONTEXT ( ( #113, #217, #62 ) ) REPRESENTATION_CONTEXT ( 'NONE', 'WORKASPACE' ) );
#240 = EDGE_LOOP ( 'NONE', ( #6, #300, #309, #367 ) ) ;
#241 = MANIFOLD_SOLID_BREP ( 'Revolve - Cutting Edge', #112 ) ;
#242 = VERTEX_POINT ( 'NONE', #170 ) ;
#243 = PRESENTATION_LAYER_ASSIGNMENT (  '', '', ( #266 ) ) ;
#244 = EDGE_LOOP ( 'NONE', ( #268, #116 ) ) ;
#245 =( CONVERSION_BASED_UNIT ( 'INCH', #160 ) LENGTH_UNIT ( ) NAMED_UNIT ( #297 ) );
#246 = CARTESIAN_POINT ( 'NONE',  ( -0.4999999999999994449, 4.000000000000000000, 0.000000000000000000 ) ) ;
#247 = CARTESIAN_POINT ( 'NONE',  ( 0.4999999999999998335, 4.000000000000000000, 0.000000000000000000 ) ) ;
#248 = EDGE_CURVE ( 'NONE', #242, #102, #164, .T. ) ;
#249 = LINE ( 'NONE', #246, #48 ) ;
#250 = VERTEX_POINT ( 'NONE', #85 ) ;
#251 = DIRECTION ( 'NONE',  ( -0.000000000000000000, -1.000000000000000000, -0.000000000000000000 ) ) ;
#252 = PRESENTATION_STYLE_ASSIGNMENT (( #35 ) ) ;
#253 =( GEOMETRIC_REPRESENTATION_CONTEXT ( 3 ) GLOBAL_UNCERTAINTY_ASSIGNED_CONTEXT ( ( #326 ) ) GLOBAL_UNIT_ASSIGNED_CONTEXT ( ( #151, #293, #40 ) ) REPRESENTATION_CONTEXT ( 'NONE', 'WORKASPACE' ) );
#254 =( GEOMETRIC_REPRESENTATION_CONTEXT ( 3 ) GLOBAL_UNCERTAINTY_ASSIGNED_CONTEXT ( ( #47 ) ) GLOBAL_UNIT_ASSIGNED_CONTEXT ( ( #245, #349, #205 ) ) REPRESENTATION_CONTEXT ( 'NONE', 'WORKASPACE' ) );
#255 = SURFACE_STYLE_FILL_AREA ( #232 ) ;
#256 = DIRECTION ( 'NONE',  ( 1.224646799147353207E-16, -0.000000000000000000, 1.000000000000000000 ) ) ;
#257 = PLANE ( 'NONE',  #53 ) ;
#258 = SURFACE_SIDE_STYLE ('',( #153 ) ) ;
#259 = EDGE_CURVE ( 'NONE', #108, #159, #25, .T. ) ;
#260 = PRODUCT_DEFINITION_CONTEXT ( 'detailed design', #238, 'design' ) ;
#261 = CARTESIAN_POINT ( 'NONE',  ( 0.000000000000000000, 0.000000000000000000, 0.000000000000000000 ) ) ;
#262 = PRODUCT ( '49436', '49436', '', ( #7 ) ) ;
#263 = DIRECTION ( 'NONE',  ( 0.000000000000000000, 0.000000000000000000, -1.000000000000000000 ) ) ;
#264 = SURFACE_STYLE_USAGE ( .BOTH. , #155 ) ;
#265 = EDGE_LOOP ( 'NONE', ( #193, #54, #301, #276 ) ) ;
#266 = STYLED_ITEM ( 'NONE', ( #327 ), #68 ) ;
#267 = AXIS2_PLACEMENT_3D ( 'NONE', #21, #237, #93 ) ;
#268 = ORIENTED_EDGE ( 'NONE', *, *, #52, .F. ) ;
#269 = ORIENTED_EDGE ( 'NONE', *, *, #8, .F. ) ;
#270 = ORIENTED_EDGE ( 'NONE', *, *, #331, .T. ) ;
#271 = CARTESIAN_POINT ( 'NONE',  ( 0.000000000000000000, 0.000000000000000000, 0.000000000000000000 ) ) ;
#272 =( NAMED_UNIT ( * ) SI_UNIT ( $, .STERADIAN. ) SOLID_ANGLE_UNIT ( ) );
#273 = EDGE_CURVE ( 'NONE', #58, #63, #249, .T. ) ;
#274 = COLOUR_RGB ( '',0.7921568627450980005, 0.8196078431372548767, 0.9333333333333333481 ) ;
#275 = MECHANICAL_DESIGN_GEOMETRIC_PRESENTATION_REPRESENTATION (  '', ( #96 ), #239 ) ;
#276 = ORIENTED_EDGE ( 'NONE', *, *, #273, .F. ) ;
#277 = DIMENSIONAL_EXPONENTS ( 1.000000000000000000, 0.000000000000000000, 0.000000000000000000, 0.000000000000000000, 0.000000000000000000, 0.000000000000000000, 0.000000000000000000 ) ;
#278 = PLANE ( 'NONE',  #219 ) ;
#279 = DIRECTION ( 'NONE',  ( -0.000000000000000000, -1.000000000000000000, -0.000000000000000000 ) ) ;
#280 = DIMENSIONAL_EXPONENTS ( 1.000000000000000000, 0.000000000000000000, 0.000000000000000000, 0.000000000000000000, 0.000000000000000000, 0.000000000000000000, 0.000000000000000000 ) ;
#281 = LINE ( 'NONE', #147, #97 ) ;
#282 = PRESENTATION_LAYER_ASSIGNMENT (  '', '', ( #231 ) ) ;
#283 = FILL_AREA_STYLE ('',( #199 ) ) ;
#284 = EDGE_LOOP ( 'NONE', ( #190, #305 ) ) ;
#285 = DIRECTION ( 'NONE',  ( -1.203218943206089082E-16, 1.000000000000000000, -0.000000000000000000 ) ) ;
#286 = CARTESIAN_POINT ( 'NONE',  ( -0.5000000000000000000, 0.5000000000000000000, 6.123233995736764803E-17 ) ) ;
#287 = DIRECTION ( 'NONE',  ( -1.203218943206089082E-16, 1.000000000000000000, -0.000000000000000000 ) ) ;
#288 =( LENGTH_UNIT ( ) NAMED_UNIT ( * ) SI_UNIT ( $, .METRE. ) );
#289 =( NAMED_UNIT ( * ) SI_UNIT ( $, .STERADIAN. ) SOLID_ANGLE_UNIT ( ) );
#290 = CARTESIAN_POINT ( 'NONE',  ( 1.224646799147353207E-16, 4.000000000000000000, 0.000000000000000000 ) ) ;
#291 = APPLICATION_PROTOCOL_DEFINITION ( 'draft international standard', 'automotive_design', 1998, #238 ) ;
#292 = FACE_OUTER_BOUND ( 'NONE', #284, .T. ) ;
#293 =( NAMED_UNIT ( * ) PLANE_ANGLE_UNIT ( ) SI_UNIT ( $, .RADIAN. ) );
#294 = FACE_OUTER_BOUND ( 'NONE', #265, .T. ) ;
#295 = COLOUR_RGB ( '',1.000000000000000000, 0.000000000000000000, 0.000000000000000000 ) ;
#296 = AXIS2_PLACEMENT_3D ( 'NONE', #247, #67, #226 ) ;
#297 = DIMENSIONAL_EXPONENTS ( 1.000000000000000000, 0.000000000000000000, 0.000000000000000000, 0.000000000000000000, 0.000000000000000000, 0.000000000000000000, 0.000000000000000000 ) ;
#298 = AXIS2_PLACEMENT_3D ( 'NONE', #357, #360, #152 ) ;
#299 = CIRCLE ( 'NONE', #267, 0.5000000000000000000 ) ;
#300 = ORIENTED_EDGE ( 'NONE', *, *, #49, .T. ) ;
#301 = ORIENTED_EDGE ( 'NONE', *, *, #109, .F. ) ;
#302 = PRODUCT_DEFINITION_SHAPE ( 'NONE', 'NONE',  #20 ) ;
#303 =( CONVERSION_BASED_UNIT ( 'INCH', #24 ) LENGTH_UNIT ( ) NAMED_UNIT ( #280 ) );
#304 = AXIS2_PLACEMENT_3D ( 'NONE', #92, #19, #230 ) ;
#305 = ORIENTED_EDGE ( 'NONE', *, *, #75, .F. ) ;
#306 = DIRECTION ( 'NONE',  ( -0.000000000000000000, -1.000000000000000000, -0.000000000000000000 ) ) ;
#307 = DIRECTION ( 'NONE',  ( 0.000000000000000000, 0.000000000000000000, -1.000000000000000000 ) ) ;
#308 = LENGTH_MEASURE_WITH_UNIT ( LENGTH_MEASURE( 0.02539999999999999897 ), #144 );
#309 = ORIENTED_EDGE ( 'NONE', *, *, #338, .F. ) ;
#310 = FACE_OUTER_BOUND ( 'NONE', #131, .T. ) ;
#311 = STYLED_ITEM ( 'NONE', ( #123 ), #86 ) ;
#312 = AXIS2_PLACEMENT_3D ( 'NONE', #88, #279, #31 ) ;
#313 = DIRECTION ( 'NONE',  ( 0.000000000000000000, 0.000000000000000000, 1.000000000000000000 ) ) ;
#314 = SURFACE_STYLE_FILL_AREA ( #37 ) ;
#315 = SURFACE_STYLE_FILL_AREA ( #181 ) ;
#316 = PRODUCT_RELATED_PRODUCT_CATEGORY ( 'part', '', ( #262 ) ) ;
#317 = PLANE ( 'NONE',  #296 ) ;
#318 = UNCERTAINTY_MEASURE_WITH_UNIT (LENGTH_MEASURE( 1.000000000000000082E-05 ), #84, 'distance_accuracy_value', 'NONE');
#319 = CLOSED_SHELL ( 'NONE', ( #370, #161, #13, #223 ) ) ;
#320 = SURFACE_STYLE_FILL_AREA ( #206 ) ;
#321 = EDGE_CURVE ( 'NONE', #134, #108, #220, .T. ) ;
#322 = DIRECTION ( 'NONE',  ( 1.000000000000000000, 0.000000000000000000, 0.000000000000000000 ) ) ;
#323 = DIRECTION ( 'NONE',  ( -1.203218943206089082E-16, 1.000000000000000000, -0.000000000000000000 ) ) ;
#324 = LENGTH_MEASURE_WITH_UNIT ( LENGTH_MEASURE( 0.02539999999999999897 ), #70 );
#325 = DIRECTION ( 'NONE',  ( 0.000000000000000000, 0.000000000000000000, -1.000000000000000000 ) ) ;
#326 = UNCERTAINTY_MEASURE_WITH_UNIT (LENGTH_MEASURE( 1.000000000000000082E-05 ), #151, 'distance_accuracy_value', 'NONE');
#327 = PRESENTATION_STYLE_ASSIGNMENT (( #125 ) ) ;
#328 = CARTESIAN_POINT ( 'NONE',  ( 0.000000000000000000, 0.5000000000000000000, 0.000000000000000000 ) ) ;
#329 = COLOUR_RGB ( '',1.000000000000000000, 0.000000000000000000, 0.000000000000000000 ) ;
#330 = LENGTH_MEASURE_WITH_UNIT ( LENGTH_MEASURE( 0.02539999999999999897 ), #15 );
#331 = EDGE_CURVE ( 'NONE', #159, #79, #299, .T. ) ;
#332 = STYLED_ITEM ( 'NONE', ( #340 ), #241 ) ;
#333 = DIRECTION ( 'NONE',  ( 0.000000000000000000, 0.000000000000000000, -1.000000000000000000 ) ) ;
#334 = CARTESIAN_POINT ( 'NONE',  ( -3.061616997868383018E-17, 0.000000000000000000, 0.000000000000000000 ) ) ;
#335 = CYLINDRICAL_SURFACE ( 'NONE', #107, 0.4999999999999999445 ) ;
#336 = AXIS2_PLACEMENT_3D ( 'NONE', #176, #285, #372 ) ;
#337 = ORIENTED_EDGE ( 'NONE', *, *, #75, .T. ) ;
#338 = EDGE_CURVE ( 'NONE', #79, #136, #127, .T. ) ;
#339 = VERTEX_POINT ( 'NONE', #183 ) ;
#340 = PRESENTATION_STYLE_ASSIGNMENT (( #346 ) ) ;
#341 = AXIS2_PLACEMENT_3D ( 'NONE', #203, #344, #118 ) ;
#342 = DIMENSIONAL_EXPONENTS ( 1.000000000000000000, 0.000000000000000000, 0.000000000000000000, 0.000000000000000000, 0.000000000000000000, 0.000000000000000000, 0.000000000000000000 ) ;
#343 = DIRECTION ( 'NONE',  ( 0.000000000000000000, 0.000000000000000000, -1.000000000000000000 ) ) ;
#344 = DIRECTION ( 'NONE',  ( 0.000000000000000000, 0.000000000000000000, 1.000000000000000000 ) ) ;
#345 = CARTESIAN_POINT ( 'NONE',  ( 0.5000000000000000000, 0.5000000000000000000, 0.000000000000000000 ) ) ;
#346 = SURFACE_STYLE_USAGE ( .BOTH. , #224 ) ;
#347 = COLOUR_RGB ( '',1.000000000000000000, 0.000000000000000000, 0.000000000000000000 ) ;
#348 = EDGE_CURVE ( 'NONE', #250, #63, #83, .T. ) ;
#349 =( NAMED_UNIT ( * ) PLANE_ANGLE_UNIT ( ) SI_UNIT ( $, .RADIAN. ) );
#350 = DIRECTION ( 'NONE',  ( -1.000000000000000000, 0.000000000000000000, 0.000000000000000000 ) ) ;
#351 = CYLINDRICAL_SURFACE ( 'NONE', #211, 0.4999999999999999445 ) ;
#352 = CARTESIAN_POINT ( 'NONE',  ( -0.4999999999999996114, 4.000000000000000000, 0.000000000000000000 ) ) ;
#353 = FILL_AREA_STYLE_COLOUR ( '', #274 ) ;
#354 = UNCERTAINTY_MEASURE_WITH_UNIT (LENGTH_MEASURE( 1.000000000000000082E-05 ), #184, 'distance_accuracy_value', 'NONE');
#355 = APPLICATION_CONTEXT ( 'automotive_design' ) ;
#356 = CIRCLE ( 'NONE', #157, 0.4999999999999998335 ) ;
#357 = CARTESIAN_POINT ( 'NONE',  ( 4.533498892964098121E-16, 1.250000000000000000, 0.000000000000000000 ) ) ;
#358 = AXIS2_PLACEMENT_3D ( 'NONE', #229, #122, #322 ) ;
#359 =( NAMED_UNIT ( * ) PLANE_ANGLE_UNIT ( ) SI_UNIT ( $, .RADIAN. ) );
#360 = DIRECTION ( 'NONE',  ( -1.203218943206089082E-16, 1.000000000000000000, -0.000000000000000000 ) ) ;
#361 = SURFACE_SIDE_STYLE ('',( #255 ) ) ;
#362 =( LENGTH_UNIT ( ) NAMED_UNIT ( * ) SI_UNIT ( $, .METRE. ) );
#363 = CARTESIAN_POINT ( 'NONE',  ( -6.123233995736766036E-17, 0.5000000000000000000, 0.000000000000000000 ) ) ;
#364 = STYLED_ITEM ( 'NONE', ( #22 ), #139 ) ;
#365 = ORIENTED_EDGE ( 'NONE', *, *, #109, .T. ) ;
#366 =( NAMED_UNIT ( * ) PLANE_ANGLE_UNIT ( ) SI_UNIT ( $, .RADIAN. ) );
#367 = ORIENTED_EDGE ( 'NONE', *, *, #72, .T. ) ;
#368 = AXIS2_PLACEMENT_3D ( 'NONE', #328, #235, #263 ) ;
#369 = DIRECTION ( 'NONE',  ( 0.000000000000000000, 1.000000000000000000, 0.000000000000000000 ) ) ;
#370 = ADVANCED_FACE ( 'NONE', ( #294 ), #99, .T. ) ;
#371 = FACE_OUTER_BOUND ( 'NONE', #27, .T. ) ;
#372 = DIRECTION ( 'NONE',  ( -1.000000000000000000, 0.000000000000000000, 0.000000000000000000 ) ) ;
#373 = ADVANCED_BREP_SHAPE_REPRESENTATION ( '49436', ( #241, #129, #358 ), #254 ) ;
ENDSEC;
END-ISO-10303-21;
