ISO-10303-21;
HEADER;
FILE_DESCRIPTION (( 'STEP AP214' ),
    '1' );
FILE_NAME ('Micro_GEC-187-3-030X.STEP',
    '2021-09-03T17:11:10',
    ( '' ),
    ( '' ),
    'SwSTEP 2.0',
    'SolidWorks 2020',
    '' );
FILE_SCHEMA (( 'AUTOMOTIVE_DESIGN' ));
ENDSEC;

DATA;
#1 = CIRCLE ( 'NONE', #90, 0.06365624999999998368 ) ;
#2 = EDGE_LOOP ( 'NONE', ( #276, #208, #327, #134 ) ) ;
#3 = CARTESIAN_POINT ( 'NONE',  ( 0.09365624999999999645, 1.146958267826442798E-17, -1.146958267826442798E-17 ) ) ;
#4 = EDGE_CURVE ( 'NONE', #241, #344, #72, .T. ) ;
#5 = DIRECTION ( 'NONE',  ( -0.0000000000000000000, -0.0000000000000000000, -1.000000000000000000 ) ) ;
#6 = AXIS2_PLACEMENT_3D ( 'NONE', #296, #98, #226 ) ;
#7 = AXIS2_PLACEMENT_3D ( 'NONE', #118, #140, #218 ) ;
#8 = DIRECTION ( 'NONE',  ( 1.000000000000000000, 0.0000000000000000000, 0.0000000000000000000 ) ) ;
#9 = ADVANCED_FACE ( 'NONE', ( #246 ), #187, .T. ) ;
#10 = EDGE_CURVE ( 'NONE', #34, #160, #291, .T. ) ;
#11 = FACE_OUTER_BOUND ( 'NONE', #2, .T. ) ;
#12 = CARTESIAN_POINT ( 'NONE',  ( 7.654042494670957853E-17, 0.0000000000000000000, 0.6250000000000000000 ) ) ;
#13 = FACE_OUTER_BOUND ( 'NONE', #39, .T. ) ;
#14 = LINE ( 'NONE', #153, #258 ) ;
#15 = ORIENTED_EDGE ( 'NONE', *, *, #33, .F. ) ;
#16 = EDGE_CURVE ( 'NONE', #53, #315, #14, .T. ) ;
#17 = EDGE_LOOP ( 'NONE', ( #84, #264, #265, #299 ) ) ;
#18 = DIRECTION ( 'NONE',  ( 1.000000000000000000, 0.0000000000000000000, 0.0000000000000000000 ) ) ;
#19 = ORIENTED_EDGE ( 'NONE', *, *, #249, .T. ) ;
#20 = DIRECTION ( 'NONE',  ( 1.000000000000000000, 0.0000000000000000000, 0.0000000000000000000 ) ) ;
#21 = CYLINDRICAL_SURFACE ( 'NONE', #229, 0.09365624999999999645 ) ;
#22 = DIMENSIONAL_EXPONENTS ( 1.000000000000000000, 0.0000000000000000000, 0.0000000000000000000, 0.0000000000000000000, 0.0000000000000000000, 0.0000000000000000000, 0.0000000000000000000 ) ;
#23 = AXIS2_PLACEMENT_3D ( 'NONE', #346, #78, #20 ) ;
#24 = FILL_AREA_STYLE ('',( #155 ) ) ;
#25 = ORIENTED_EDGE ( 'NONE', *, *, #35, .T. ) ;
#26 = TOROIDAL_SURFACE ( 'NONE', #295, 0.06365624999999998368, 0.02999999999999999889 ) ;
#27 = ORIENTED_EDGE ( 'NONE', *, *, #188, .T. ) ;
#28 =( LENGTH_UNIT ( ) NAMED_UNIT ( * ) SI_UNIT ( $, .METRE. ) );
#29 =( LENGTH_UNIT ( ) NAMED_UNIT ( * ) SI_UNIT ( $, .METRE. ) );
#30 = ADVANCED_FACE ( 'NONE', ( #48 ), #324, .T. ) ;
#31 = DIRECTION ( 'NONE',  ( 0.0000000000000000000, 0.0000000000000000000, 1.000000000000000000 ) ) ;
#32 =( CONVERSION_BASED_UNIT ( 'INCH', #113 ) LENGTH_UNIT ( ) NAMED_UNIT ( #133 ) );
#33 = EDGE_CURVE ( 'NONE', #282, #34, #336, .T. ) ;
#34 = VERTEX_POINT ( 'NONE', #216 ) ;
#35 = EDGE_CURVE ( 'NONE', #282, #131, #163, .T. ) ;
#36 = CARTESIAN_POINT ( 'NONE',  ( 0.07874999999999980627, 9.644093543285380530E-18, 2.000000000000000000 ) ) ;
#37 = VECTOR ( 'NONE', #62, 39.37007874015748143 ) ;
#38 = PRODUCT_DEFINITION_FORMATION_WITH_SPECIFIED_SOURCE ( 'ANY', '', #95, .NOT_KNOWN. ) ;
#39 = EDGE_LOOP ( 'NONE', ( #170, #238, #171, #199 ) ) ;
#40 = PRODUCT_DEFINITION_SHAPE ( 'NONE', 'NONE',  #290 ) ;
#41 = DIRECTION ( 'NONE',  ( 1.000000000000000000, 0.0000000000000000000, 0.0000000000000000000 ) ) ;
#42 = ORIENTED_EDGE ( 'NONE', *, *, #339, .T. ) ;
#43 = FACE_OUTER_BOUND ( 'NONE', #159, .T. ) ;
#44 = ORIENTED_EDGE ( 'NONE', *, *, #92, .F. ) ;
#45 = DIRECTION ( 'NONE',  ( -0.0000000000000000000, -0.0000000000000000000, -1.000000000000000000 ) ) ;
#46 = ADVANCED_FACE ( 'NONE', ( #91 ), #26, .T. ) ;
#47 = DIRECTION ( 'NONE',  ( 0.0000000000000000000, 0.0000000000000000000, -1.000000000000000000 ) ) ;
#48 = FACE_OUTER_BOUND ( 'NONE', #67, .T. ) ;
#49 = DIRECTION ( 'NONE',  ( 1.000000000000000000, 0.0000000000000000000, 0.0000000000000000000 ) ) ;
#50 = AXIS2_PLACEMENT_3D ( 'NONE', #12, #77, #345 ) ;
#51 = COLOUR_RGB ( '',0.7921568627450980005, 0.8196078431372548767, 0.9333333333333333481 ) ;
#52 = DIRECTION ( 'NONE',  ( -1.000000000000000000, 0.0000000000000000000, 0.0000000000000000000 ) ) ;
#53 = VERTEX_POINT ( 'NONE', #301 ) ;
#54 = EDGE_LOOP ( 'NONE', ( #271, #108, #194, #193 ) ) ;
#55 = EDGE_CURVE ( 'NONE', #315, #160, #111, .T. ) ;
#56 = AXIS2_PLACEMENT_3D ( 'NONE', #266, #212, #273 ) ;
#57 = FACE_OUTER_BOUND ( 'NONE', #219, .T. ) ;
#58 = DIRECTION ( 'NONE',  ( 0.1736481776669313304, 0.0000000000000000000, 0.9848077530122077983 ) ) ;
#59 = CARTESIAN_POINT ( 'NONE',  ( -0.09365624999999999645, 0.0000000000000000000, 1.146958267826442798E-17 ) ) ;
#60 = AXIS2_PLACEMENT_3D ( 'NONE', #311, #5, #145 ) ;
#61 = ORIENTED_EDGE ( 'NONE', *, *, #141, .T. ) ;
#62 = DIRECTION ( 'NONE',  ( -1.224646799147353207E-16, -0.0000000000000000000, -1.000000000000000000 ) ) ;
#63 = CARTESIAN_POINT ( 'NONE',  ( -0.09375000000000001388, 0.0000000000000000000, 1.984999999999999654 ) ) ;
#64 = ORIENTED_EDGE ( 'NONE', *, *, #310, .T. ) ;
#65 = CARTESIAN_POINT ( 'NONE',  ( 0.0000000000000000000, 0.0000000000000000000, 0.0000000000000000000 ) ) ;
#66 = FILL_AREA_STYLE_COLOUR ( '', #51 ) ;
#67 = EDGE_LOOP ( 'NONE', ( #215, #42 ) ) ;
#68 = CARTESIAN_POINT ( 'NONE',  ( 0.0000000000000000000, 0.0000000000000000000, 0.0000000000000000000 ) ) ;
#69 =( GEOMETRIC_REPRESENTATION_CONTEXT ( 3 ) GLOBAL_UNCERTAINTY_ASSIGNED_CONTEXT ( ( #203 ) ) GLOBAL_UNIT_ASSIGNED_CONTEXT ( ( #32, #337, #277 ) ) REPRESENTATION_CONTEXT ( 'NONE', 'WORKASPACE' ) );
#70 = ADVANCED_FACE ( 'NONE', ( #57 ), #136, .T. ) ;
#71 = ORIENTED_EDGE ( 'NONE', *, *, #128, .F. ) ;
#72 = LINE ( 'NONE', #36, #180 ) ;
#73 = EDGE_LOOP ( 'NONE', ( #272, #71, #167, #123 ) ) ;
#74 = DIRECTION ( 'NONE',  ( -1.000000000000000000, 0.0000000000000000000, 1.224646799147352961E-16 ) ) ;
#75 = AXIS2_PLACEMENT_3D ( 'NONE', #65, #31, #137 ) ;
#76 = AXIS2_PLACEMENT_3D ( 'NONE', #286, #122, #172 ) ;
#77 = DIRECTION ( 'NONE',  ( -1.224646799147353207E-16, -0.0000000000000000000, -1.000000000000000000 ) ) ;
#78 = DIRECTION ( 'NONE',  ( 0.0000000000000000000, 0.0000000000000000000, -1.000000000000000000 ) ) ;
#79 = CARTESIAN_POINT ( 'NONE',  ( 0.0000000000000000000, 0.0000000000000000000, 2.000000000000000000 ) ) ;
#80 = SURFACE_SIDE_STYLE ('',( #205 ) ) ;
#81 = CIRCLE ( 'NONE', #224, 0.07874999999999980627 ) ;
#82 = APPLICATION_CONTEXT ( 'automotive_design' ) ;
#83 = LENGTH_MEASURE_WITH_UNIT ( LENGTH_MEASURE( 0.02539999999999999897 ), #29 );
#84 = ORIENTED_EDGE ( 'NONE', *, *, #249, .F. ) ;
#85 = ORIENTED_EDGE ( 'NONE', *, *, #164, .T. ) ;
#86 = CIRCLE ( 'NONE', #60, 0.06365624999999998368 ) ;
#87 = DIRECTION ( 'NONE',  ( 1.000000000000000000, 0.0000000000000000000, 0.0000000000000000000 ) ) ;
#88 = DIRECTION ( 'NONE',  ( 0.0000000000000000000, 0.0000000000000000000, 1.000000000000000000 ) ) ;
#89 = CARTESIAN_POINT ( 'NONE',  ( 0.09375000000000001388, 1.148106374200643863E-17, 1.984999999999999654 ) ) ;
#90 = AXIS2_PLACEMENT_3D ( 'NONE', #261, #147, #338 ) ;
#91 = FACE_OUTER_BOUND ( 'NONE', #222, .T. ) ;
#92 = EDGE_CURVE ( 'NONE', #233, #181, #86, .T. ) ;
#93 = ORIENTED_EDGE ( 'NONE', *, *, #310, .F. ) ;
#94 = CARTESIAN_POINT ( 'NONE',  ( 7.660553729477949085E-17, 0.0000000000000000000, 0.6255316826705892286 ) ) ;
#95 = PRODUCT ( 'Micro_GEC-187-3-030X', 'Micro_GEC-187-3-030X', '', ( #247 ) ) ;
#96 = LINE ( 'NONE', #151, #124 ) ;
#97 = VERTEX_POINT ( 'NONE', #235 ) ;
#98 = DIRECTION ( 'NONE',  ( -1.224646799147353207E-16, -0.0000000000000000000, -1.000000000000000000 ) ) ;
#99 = AXIS2_PLACEMENT_3D ( 'NONE', #79, #221, #107 ) ;
#100 = CONICAL_SURFACE ( 'NONE', #252, 0.07874999999999980627, 0.7853981633974466137 ) ;
#101 = AXIS2_PLACEMENT_3D ( 'NONE', #237, #333, #87 ) ;
#102 = LINE ( 'NONE', #197, #148 ) ;
#103 = CARTESIAN_POINT ( 'NONE',  ( 0.07874999999999980627, 1.056257864264590573E-17, 2.000000000000000000 ) ) ;
#104 = DIMENSIONAL_EXPONENTS ( 1.000000000000000000, 0.0000000000000000000, 0.0000000000000000000, 0.0000000000000000000, 0.0000000000000000000, 0.0000000000000000000, 0.0000000000000000000 ) ;
#105 = ORIENTED_EDGE ( 'NONE', *, *, #92, .T. ) ;
#106 = CIRCLE ( 'NONE', #50, 0.09365624999999999645 ) ;
#107 = DIRECTION ( 'NONE',  ( 1.000000000000000000, 0.0000000000000000000, -0.0000000000000000000 ) ) ;
#108 = ORIENTED_EDGE ( 'NONE', *, *, #4, .T. ) ;
#109 = ADVANCED_FACE ( 'NONE', ( #185 ), #268, .F. ) ;
#110 = DIRECTION ( 'NONE',  ( 0.0000000000000000000, 0.0000000000000000000, 1.000000000000000000 ) ) ;
#111 = LINE ( 'NONE', #242, #129 ) ;
#112 = AXIS2_PLACEMENT_3D ( 'NONE', #204, #126, #231 ) ;
#113 = LENGTH_MEASURE_WITH_UNIT ( LENGTH_MEASURE( 0.02539999999999999897 ), #28 );
#114 = PRODUCT_DEFINITION_CONTEXT ( 'detailed design', #263, 'design' ) ;
#115 =( NAMED_UNIT ( * ) PLANE_ANGLE_UNIT ( ) SI_UNIT ( $, .RADIAN. ) );
#116 =( NAMED_UNIT ( * ) SI_UNIT ( $, .STERADIAN. ) SOLID_ANGLE_UNIT ( ) );
#117 = ORIENTED_EDGE ( 'NONE', *, *, #164, .F. ) ;
#118 = CARTESIAN_POINT ( 'NONE',  ( 0.0000000000000000000, 0.0000000000000000000, 2.000000000000000000 ) ) ;
#119 = CIRCLE ( 'NONE', #101, 0.07874999999999980627 ) ;
#120 =( LENGTH_UNIT ( ) NAMED_UNIT ( * ) SI_UNIT ( $, .METRE. ) );
#121 = APPLICATION_PROTOCOL_DEFINITION ( 'draft international standard', 'automotive_design', 1998, #263 ) ;
#122 = DIRECTION ( 'NONE',  ( -1.224646799147353207E-16, -0.0000000000000000000, -1.000000000000000000 ) ) ;
#123 = ORIENTED_EDGE ( 'NONE', *, *, #156, .F. ) ;
#124 = VECTOR ( 'NONE', #200, 39.37007874015747433 ) ;
#125 = DIRECTION ( 'NONE',  ( 0.7071067811865463515, 8.659560562354916834E-17, -0.7071067811865486830 ) ) ;
#126 = DIRECTION ( 'NONE',  ( 0.0000000000000000000, 0.0000000000000000000, -1.000000000000000000 ) ) ;
#127 = CARTESIAN_POINT ( 'NONE',  ( -0.06365624999999998368, 9.632612479543399156E-18, 0.0000000000000000000 ) ) ;
#128 = EDGE_CURVE ( 'NONE', #53, #241, #81, .T. ) ;
#129 = VECTOR ( 'NONE', #331, 39.37007874015748143 ) ;
#130 = DIRECTION ( 'NONE',  ( -1.000000000000000000, 1.224646799147352961E-16, 0.0000000000000000000 ) ) ;
#131 = VERTEX_POINT ( 'NONE', #189 ) ;
#132 = SURFACE_STYLE_USAGE ( .BOTH. , #80 ) ;
#133 = DIMENSIONAL_EXPONENTS ( 1.000000000000000000, 0.0000000000000000000, 0.0000000000000000000, 0.0000000000000000000, 0.0000000000000000000, 0.0000000000000000000, 0.0000000000000000000 ) ;
#134 = ORIENTED_EDGE ( 'NONE', *, *, #10, .F. ) ;
#135 = VECTOR ( 'NONE', #303, 39.37007874015748143 ) ;
#136 = CYLINDRICAL_SURFACE ( 'NONE', #56, 0.09375000000000001388 ) ;
#137 = DIRECTION ( 'NONE',  ( 1.000000000000000000, 0.0000000000000000000, -0.0000000000000000000 ) ) ;
#138 = AXIS2_PLACEMENT_3D ( 'NONE', #177, #228, #49 ) ;
#139 = AXIS2_PLACEMENT_3D ( 'NONE', #68, #313, #18 ) ;
#140 = DIRECTION ( 'NONE',  ( -0.0000000000000000000, -0.0000000000000000000, -1.000000000000000000 ) ) ;
#141 = EDGE_CURVE ( 'NONE', #232, #97, #239, .T. ) ;
#142 = EDGE_CURVE ( 'NONE', #315, #344, #245, .T. ) ;
#143 = SURFACE_STYLE_FILL_AREA ( #267 ) ;
#144 = ORIENTED_EDGE ( 'NONE', *, *, #213, .T. ) ;
#145 = DIRECTION ( 'NONE',  ( 1.000000000000000000, 0.0000000000000000000, 0.0000000000000000000 ) ) ;
#146 = PRESENTATION_STYLE_ASSIGNMENT (( #274 ) ) ;
#147 = DIRECTION ( 'NONE',  ( -0.0000000000000000000, -0.0000000000000000000, -1.000000000000000000 ) ) ;
#148 = VECTOR ( 'NONE', #45, 39.37007874015748143 ) ;
#149 = PRESENTATION_LAYER_ASSIGNMENT (  '', '', ( #178 ) ) ;
#150 = EDGE_LOOP ( 'NONE', ( #248, #25, #64, #209 ) ) ;
#151 = CARTESIAN_POINT ( 'NONE',  ( -0.09365624999999992706, 1.146958267826442798E-17, 0.6250000000000000000 ) ) ;
#152 = STYLED_ITEM ( 'NONE', ( #184 ), #293 ) ;
#153 = CARTESIAN_POINT ( 'NONE',  ( -0.07874999999999980627, 0.0000000000000000000, 2.000000000000000000 ) ) ;
#154 = CARTESIAN_POINT ( 'NONE',  ( 0.0000000000000000000, 0.0000000000000000000, 0.0000000000000000000 ) ) ;
#155 = FILL_AREA_STYLE_COLOUR ( '', #314 ) ;
#156 = EDGE_CURVE ( 'NONE', #344, #315, #191, .T. ) ;
#157 = CARTESIAN_POINT ( 'NONE',  ( 0.09365625000000006584, 0.0000000000000000000, 0.6250000000000000000 ) ) ;
#158 = AXIS2_PLACEMENT_3D ( 'NONE', #243, #279, #269 ) ;
#159 = EDGE_LOOP ( 'NONE', ( #298, #288, #61, #27 ) ) ;
#160 = VERTEX_POINT ( 'NONE', #319 ) ;
#161 = CIRCLE ( 'NONE', #306, 0.03000000000000000583 ) ;
#162 = AXIS2_PLACEMENT_3D ( 'NONE', #251, #225, #280 ) ;
#163 = LINE ( 'NONE', #3, #135 ) ;
#164 = EDGE_CURVE ( 'NONE', #160, #34, #270, .T. ) ;
#165 =( GEOMETRIC_REPRESENTATION_CONTEXT ( 3 ) GLOBAL_UNCERTAINTY_ASSIGNED_CONTEXT ( ( #348 ) ) GLOBAL_UNIT_ASSIGNED_CONTEXT ( ( #179, #240, #116 ) ) REPRESENTATION_CONTEXT ( 'NONE', 'WORKASPACE' ) );
#166 = CYLINDRICAL_SURFACE ( 'NONE', #7, 0.09375000000000001388 ) ;
#167 = ORIENTED_EDGE ( 'NONE', *, *, #16, .T. ) ;
#168 = CARTESIAN_POINT ( 'NONE',  ( 3.673940397442059190E-18, 0.0000000000000000000, 0.02999999999999999889 ) ) ;
#169 = DIRECTION ( 'NONE',  ( 0.0000000000000000000, 0.0000000000000000000, 1.000000000000000000 ) ) ;
#170 = ORIENTED_EDGE ( 'NONE', *, *, #213, .F. ) ;
#171 = ORIENTED_EDGE ( 'NONE', *, *, #33, .T. ) ;
#172 = DIRECTION ( 'NONE',  ( -1.000000000000000000, 0.0000000000000000000, 0.0000000000000000000 ) ) ;
#173 = ORIENTED_EDGE ( 'NONE', *, *, #202, .F. ) ;
#174 = DIRECTION ( 'NONE',  ( 1.224646799147353207E-16, 1.000000000000000000, -0.0000000000000000000 ) ) ;
#175 = FACE_OUTER_BOUND ( 'NONE', #150, .T. ) ;
#176 = CARTESIAN_POINT ( 'NONE',  ( 0.06365624999999998368, 0.0000000000000000000, 0.0000000000000000000 ) ) ;
#177 = CARTESIAN_POINT ( 'NONE',  ( 0.0000000000000000000, 0.0000000000000000000, 1.984999999999999654 ) ) ;
#178 = STYLED_ITEM ( 'NONE', ( #146 ), #284 ) ;
#179 =( CONVERSION_BASED_UNIT ( 'INCH', #83 ) LENGTH_UNIT ( ) NAMED_UNIT ( #104 ) );
#180 = VECTOR ( 'NONE', #125, 39.37007874015748143 ) ;
#181 = VERTEX_POINT ( 'NONE', #176 ) ;
#182 = UNCERTAINTY_MEASURE_WITH_UNIT (LENGTH_MEASURE( 1.000000000000000082E-05 ), #302, 'distance_accuracy_value', 'NONE');
#183 = AXIS2_PLACEMENT_3D ( 'NONE', #244, #340, #198 ) ;
#184 = PRESENTATION_STYLE_ASSIGNMENT (( #132 ) ) ;
#185 = FACE_OUTER_BOUND ( 'NONE', #351, .T. ) ;
#186 = SURFACE_SIDE_STYLE ('',( #143 ) ) ;
#187 = CONICAL_SURFACE ( 'NONE', #162, 0.09365624999999999645, 0.1745329251994338360 ) ;
#188 = EDGE_CURVE ( 'NONE', #97, #131, #201, .T. ) ;
#189 = CARTESIAN_POINT ( 'NONE',  ( 0.09365624999999999645, 1.146958267826442798E-17, 0.03000000000000000583 ) ) ;
#190 = DIRECTION ( 'NONE',  ( 1.000000000000000000, 0.0000000000000000000, 0.0000000000000000000 ) ) ;
#191 = CIRCLE ( 'NONE', #138, 0.09375000000000001388 ) ;
#192 = DIRECTION ( 'NONE',  ( 0.0000000000000000000, 0.0000000000000000000, 1.000000000000000000 ) ) ;
#193 = ORIENTED_EDGE ( 'NONE', *, *, #16, .F. ) ;
#194 = ORIENTED_EDGE ( 'NONE', *, *, #142, .F. ) ;
#195 = AXIS2_PLACEMENT_3D ( 'NONE', #283, #292, #259 ) ;
#196 = CIRCLE ( 'NONE', #76, 0.09365624999999999645 ) ;
#197 = CARTESIAN_POINT ( 'NONE',  ( 0.09375000000000001388, 1.148106374200643863E-17, 2.000000000000000000 ) ) ;
#198 = DIRECTION ( 'NONE',  ( 1.000000000000000000, 0.0000000000000000000, 0.0000000000000000000 ) ) ;
#199 = ORIENTED_EDGE ( 'NONE', *, *, #10, .T. ) ;
#200 = DIRECTION ( 'NONE',  ( -0.1736481776669311639, 2.126576849575782392E-17, 0.9848077530122080203 ) ) ;
#201 = CIRCLE ( 'NONE', #183, 0.09365624999999999645 ) ;
#202 = EDGE_CURVE ( 'NONE', #181, #131, #320, .T. ) ;
#203 = UNCERTAINTY_MEASURE_WITH_UNIT (LENGTH_MEASURE( 1.000000000000000082E-05 ), #32, 'distance_accuracy_value', 'NONE');
#204 = CARTESIAN_POINT ( 'NONE',  ( 0.0000000000000000000, 0.0000000000000000000, 2.000000000000000000 ) ) ;
#205 = SURFACE_STYLE_FILL_AREA ( #24 ) ;
#206 = AXIS2_PLACEMENT_3D ( 'NONE', #154, #322, #220 ) ;
#207 = CIRCLE ( 'NONE', #300, 0.09365624999999999645 ) ;
#208 = ORIENTED_EDGE ( 'NONE', *, *, #156, .T. ) ;
#209 = ORIENTED_EDGE ( 'NONE', *, *, #141, .F. ) ;
#210 = ADVANCED_FACE ( 'NONE', ( #230 ), #100, .T. ) ;
#211 = PRESENTATION_LAYER_ASSIGNMENT (  '', '', ( #152 ) ) ;
#212 = DIRECTION ( 'NONE',  ( -0.0000000000000000000, -0.0000000000000000000, -1.000000000000000000 ) ) ;
#213 = EDGE_CURVE ( 'NONE', #232, #160, #96, .T. ) ;
#214 = CARTESIAN_POINT ( 'NONE',  ( 3.673940397442059960E-18, 0.0000000000000000000, 0.03000000000000000583 ) ) ;
#215 = ORIENTED_EDGE ( 'NONE', *, *, #128, .T. ) ;
#216 = CARTESIAN_POINT ( 'NONE',  ( 0.09375000000000006939, 1.148106374200644633E-17, 0.6255316826705892286 ) ) ;
#217 = ORIENTED_EDGE ( 'NONE', *, *, #55, .F. ) ;
#218 = DIRECTION ( 'NONE',  ( -1.000000000000000000, 0.0000000000000000000, 0.0000000000000000000 ) ) ;
#219 = EDGE_LOOP ( 'NONE', ( #316, #342, #117, #217 ) ) ;
#220 = DIRECTION ( 'NONE',  ( -1.000000000000000000, 0.0000000000000000000, 1.224646799147352961E-16 ) ) ;
#221 = DIRECTION ( 'NONE',  ( 0.0000000000000000000, 0.0000000000000000000, 1.000000000000000000 ) ) ;
#222 = EDGE_LOOP ( 'NONE', ( #44, #19, #93, #173 ) ) ;
#223 = ADVANCED_FACE ( 'NONE', ( #43 ), #317, .T. ) ;
#224 = AXIS2_PLACEMENT_3D ( 'NONE', #334, #88, #190 ) ;
#225 = DIRECTION ( 'NONE',  ( 1.224646799147353207E-16, 0.0000000000000000000, 1.000000000000000000 ) ) ;
#226 = DIRECTION ( 'NONE',  ( 1.000000000000000000, 0.0000000000000000000, 0.0000000000000000000 ) ) ;
#227 = EDGE_CURVE ( 'NONE', #232, #282, #106, .T. ) ;
#228 = DIRECTION ( 'NONE',  ( 0.0000000000000000000, 0.0000000000000000000, -1.000000000000000000 ) ) ;
#229 = AXIS2_PLACEMENT_3D ( 'NONE', #350, #294, #74 ) ;
#230 = FACE_OUTER_BOUND ( 'NONE', #54, .T. ) ;
#231 = DIRECTION ( 'NONE',  ( -1.000000000000000000, 0.0000000000000000000, 0.0000000000000000000 ) ) ;
#232 = VERTEX_POINT ( 'NONE', #253 ) ;
#233 = VERTEX_POINT ( 'NONE', #127 ) ;
#234 = ADVANCED_FACE ( 'NONE', ( #175 ), #21, .T. ) ;
#235 = CARTESIAN_POINT ( 'NONE',  ( -0.09365624999999999645, 0.0000000000000000000, 0.03000000000000000583 ) ) ;
#236 = FACE_OUTER_BOUND ( 'NONE', #17, .T. ) ;
#237 = CARTESIAN_POINT ( 'NONE',  ( 0.0000000000000000000, 0.0000000000000000000, 2.000000000000000000 ) ) ;
#238 = ORIENTED_EDGE ( 'NONE', *, *, #347, .F. ) ;
#239 = LINE ( 'NONE', #59, #37 ) ;
#240 =( NAMED_UNIT ( * ) PLANE_ANGLE_UNIT ( ) SI_UNIT ( $, .RADIAN. ) );
#241 = VERTEX_POINT ( 'NONE', #103 ) ;
#242 = CARTESIAN_POINT ( 'NONE',  ( -0.09375000000000001388, 0.0000000000000000000, 2.000000000000000000 ) ) ;
#243 = CARTESIAN_POINT ( 'NONE',  ( 7.654042494670957853E-17, 0.0000000000000000000, 0.6250000000000000000 ) ) ;
#244 = CARTESIAN_POINT ( 'NONE',  ( 3.673940397442059960E-18, 0.0000000000000000000, 0.03000000000000000583 ) ) ;
#245 = CIRCLE ( 'NONE', #23, 0.09375000000000001388 ) ;
#246 = FACE_OUTER_BOUND ( 'NONE', #254, .T. ) ;
#247 = PRODUCT_CONTEXT ( 'NONE', #82, 'mechanical' ) ;
#248 = ORIENTED_EDGE ( 'NONE', *, *, #227, .T. ) ;
#249 = EDGE_CURVE ( 'NONE', #233, #97, #161, .T. ) ;
#250 = EDGE_CURVE ( 'NONE', #344, #34, #102, .T. ) ;
#251 = CARTESIAN_POINT ( 'NONE',  ( 7.654042494670957853E-17, 0.0000000000000000000, 0.6250000000000000000 ) ) ;
#252 = AXIS2_PLACEMENT_3D ( 'NONE', #325, #47, #52 ) ;
#253 = CARTESIAN_POINT ( 'NONE',  ( -0.09365624999999992706, 1.147532321013543253E-17, 0.6250000000000000000 ) ) ;
#254 = EDGE_LOOP ( 'NONE', ( #329, #144, #85, #15 ) ) ;
#255 = APPLICATION_PROTOCOL_DEFINITION ( 'draft international standard', 'automotive_design', 1998, #82 ) ;
#256 = FACE_OUTER_BOUND ( 'NONE', #73, .T. ) ;
#257 = AXIS2_PLACEMENT_3D ( 'NONE', #94, #318, #41 ) ;
#258 = VECTOR ( 'NONE', #312, 39.37007874015748143 ) ;
#259 = DIRECTION ( 'NONE',  ( 0.0000000000000000000, 0.0000000000000000000, -1.000000000000000000 ) ) ;
#260 = CONICAL_SURFACE ( 'NONE', #112, 0.07874999999999980627, 0.7853981633974466137 ) ;
#261 = CARTESIAN_POINT ( 'NONE',  ( 3.673940397442059190E-18, 0.0000000000000000000, 0.0000000000000000000 ) ) ;
#262 = CLOSED_SHELL ( 'NONE', ( #46, #234, #9, #210, #70, #323, #30, #278, #305, #223, #109, #328 ) ) ;
#263 = APPLICATION_CONTEXT ( 'automotive_design' ) ;
#264 = ORIENTED_EDGE ( 'NONE', *, *, #297, .F. ) ;
#265 = ORIENTED_EDGE ( 'NONE', *, *, #202, .T. ) ;
#266 = CARTESIAN_POINT ( 'NONE',  ( 0.0000000000000000000, 0.0000000000000000000, 2.000000000000000000 ) ) ;
#267 = FILL_AREA_STYLE ('',( #66 ) ) ;
#268 = PLANE ( 'NONE',  #75 ) ;
#269 = DIRECTION ( 'NONE',  ( 1.000000000000000000, 0.0000000000000000000, 0.0000000000000000000 ) ) ;
#270 = CIRCLE ( 'NONE', #6, 0.09375000000000001388 ) ;
#271 = ORIENTED_EDGE ( 'NONE', *, *, #339, .F. ) ;
#272 = ORIENTED_EDGE ( 'NONE', *, *, #4, .F. ) ;
#273 = DIRECTION ( 'NONE',  ( -1.000000000000000000, 0.0000000000000000000, 0.0000000000000000000 ) ) ;
#274 = SURFACE_STYLE_USAGE ( .BOTH. , #186 ) ;
#275 = DIRECTION ( 'NONE',  ( 1.000000000000000000, 0.0000000000000000000, 0.0000000000000000000 ) ) ;
#276 = ORIENTED_EDGE ( 'NONE', *, *, #250, .F. ) ;
#277 =( NAMED_UNIT ( * ) SI_UNIT ( $, .STERADIAN. ) SOLID_ANGLE_UNIT ( ) );
#278 = ADVANCED_FACE ( 'NONE', ( #256 ), #260, .T. ) ;
#279 = DIRECTION ( 'NONE',  ( 1.224646799147353207E-16, 0.0000000000000000000, 1.000000000000000000 ) ) ;
#280 = DIRECTION ( 'NONE',  ( 1.000000000000000000, 0.0000000000000000000, 0.0000000000000000000 ) ) ;
#281 = SHAPE_DEFINITION_REPRESENTATION ( #40, #284 ) ;
#282 = VERTEX_POINT ( 'NONE', #157 ) ;
#283 = CARTESIAN_POINT ( 'NONE',  ( 0.06365624999999998368, 0.0000000000000000000, 0.02999999999999999889 ) ) ;
#284 = ADVANCED_BREP_SHAPE_REPRESENTATION ( 'Micro_GEC-187-3-030X', ( #293, #139 ), #321 ) ;
#285 = VECTOR ( 'NONE', #58, 39.37007874015748143 ) ;
#286 = CARTESIAN_POINT ( 'NONE',  ( 7.654042494670957853E-17, 0.0000000000000000000, 0.6250000000000000000 ) ) ;
#287 = MECHANICAL_DESIGN_GEOMETRIC_PRESENTATION_REPRESENTATION (  '', ( #178 ), #69 ) ;
#288 = ORIENTED_EDGE ( 'NONE', *, *, #347, .T. ) ;
#289 = CARTESIAN_POINT ( 'NONE',  ( -0.06365624999999998368, 7.795642280822368790E-18, 0.02999999999999999889 ) ) ;
#290 = PRODUCT_DEFINITION ( 'UNKNOWN', '', #38, #114 ) ;
#291 = CIRCLE ( 'NONE', #257, 0.09375000000000001388 ) ;
#292 = DIRECTION ( 'NONE',  ( 0.0000000000000000000, -1.000000000000000000, 0.0000000000000000000 ) ) ;
#293 = MANIFOLD_SOLID_BREP ( 'Fillet1', #262 ) ;
#294 = DIRECTION ( 'NONE',  ( -1.224646799147353207E-16, -0.0000000000000000000, -1.000000000000000000 ) ) ;
#295 = AXIS2_PLACEMENT_3D ( 'NONE', #168, #110, #8 ) ;
#296 = CARTESIAN_POINT ( 'NONE',  ( 7.660553729477949085E-17, 0.0000000000000000000, 0.6255316826705892286 ) ) ;
#297 = EDGE_CURVE ( 'NONE', #181, #233, #1, .T. ) ;
#298 = ORIENTED_EDGE ( 'NONE', *, *, #35, .F. ) ;
#299 = ORIENTED_EDGE ( 'NONE', *, *, #188, .F. ) ;
#300 = AXIS2_PLACEMENT_3D ( 'NONE', #214, #192, #304 ) ;
#301 = CARTESIAN_POINT ( 'NONE',  ( -0.07874999999999980627, 0.0000000000000000000, 2.000000000000000000 ) ) ;
#302 =( CONVERSION_BASED_UNIT ( 'INCH', #332 ) LENGTH_UNIT ( ) NAMED_UNIT ( #22 ) );
#303 = DIRECTION ( 'NONE',  ( -1.224646799147353207E-16, -0.0000000000000000000, -1.000000000000000000 ) ) ;
#304 = DIRECTION ( 'NONE',  ( 1.000000000000000000, 0.0000000000000000000, 0.0000000000000000000 ) ) ;
#305 = ADVANCED_FACE ( 'NONE', ( #13 ), #349, .T. ) ;
#306 = AXIS2_PLACEMENT_3D ( 'NONE', #289, #174, #130 ) ;
#307 = TOROIDAL_SURFACE ( 'NONE', #326, 0.06365624999999998368, 0.02999999999999999889 ) ;
#308 =( NAMED_UNIT ( * ) SI_UNIT ( $, .STERADIAN. ) SOLID_ANGLE_UNIT ( ) );
#309 = ORIENTED_EDGE ( 'NONE', *, *, #297, .T. ) ;
#310 = EDGE_CURVE ( 'NONE', #131, #97, #207, .T. ) ;
#311 = CARTESIAN_POINT ( 'NONE',  ( 3.673940397442059190E-18, 0.0000000000000000000, 0.0000000000000000000 ) ) ;
#312 = DIRECTION ( 'NONE',  ( -0.7071067811865463515, 0.0000000000000000000, -0.7071067811865486830 ) ) ;
#313 = DIRECTION ( 'NONE',  ( 0.0000000000000000000, 0.0000000000000000000, 1.000000000000000000 ) ) ;
#314 = COLOUR_RGB ( '',0.7921568627450980005, 0.8196078431372548767, 0.9333333333333333481 ) ;
#315 = VERTEX_POINT ( 'NONE', #63 ) ;
#316 = ORIENTED_EDGE ( 'NONE', *, *, #142, .T. ) ;
#317 = CYLINDRICAL_SURFACE ( 'NONE', #206, 0.09365624999999999645 ) ;
#318 = DIRECTION ( 'NONE',  ( -1.224646799147353207E-16, -0.0000000000000000000, -1.000000000000000000 ) ) ;
#319 = CARTESIAN_POINT ( 'NONE',  ( -0.09374999999999994449, 0.0000000000000000000, 0.6255316826705892286 ) ) ;
#320 = CIRCLE ( 'NONE', #195, 0.02999999999999999889 ) ;
#321 =( GEOMETRIC_REPRESENTATION_CONTEXT ( 3 ) GLOBAL_UNCERTAINTY_ASSIGNED_CONTEXT ( ( #182 ) ) GLOBAL_UNIT_ASSIGNED_CONTEXT ( ( #302, #115, #308 ) ) REPRESENTATION_CONTEXT ( 'NONE', 'WORKASPACE' ) );
#322 = DIRECTION ( 'NONE',  ( -1.224646799147353207E-16, -0.0000000000000000000, -1.000000000000000000 ) ) ;
#323 = ADVANCED_FACE ( 'NONE', ( #11 ), #166, .T. ) ;
#324 = PLANE ( 'NONE',  #99 ) ;
#325 = CARTESIAN_POINT ( 'NONE',  ( 0.0000000000000000000, 0.0000000000000000000, 2.000000000000000000 ) ) ;
#326 = AXIS2_PLACEMENT_3D ( 'NONE', #335, #169, #275 ) ;
#327 = ORIENTED_EDGE ( 'NONE', *, *, #55, .T. ) ;
#328 = ADVANCED_FACE ( 'NONE', ( #236 ), #307, .T. ) ;
#329 = ORIENTED_EDGE ( 'NONE', *, *, #227, .F. ) ;
#330 = CARTESIAN_POINT ( 'NONE',  ( 0.09365625000000006584, 0.0000000000000000000, 0.6250000000000000000 ) ) ;
#331 = DIRECTION ( 'NONE',  ( -0.0000000000000000000, -0.0000000000000000000, -1.000000000000000000 ) ) ;
#332 = LENGTH_MEASURE_WITH_UNIT ( LENGTH_MEASURE( 0.02539999999999999897 ), #120 );
#333 = DIRECTION ( 'NONE',  ( 0.0000000000000000000, 0.0000000000000000000, 1.000000000000000000 ) ) ;
#334 = CARTESIAN_POINT ( 'NONE',  ( 0.0000000000000000000, 0.0000000000000000000, 2.000000000000000000 ) ) ;
#335 = CARTESIAN_POINT ( 'NONE',  ( 3.673940397442059190E-18, 0.0000000000000000000, 0.02999999999999999889 ) ) ;
#336 = LINE ( 'NONE', #330, #285 ) ;
#337 =( NAMED_UNIT ( * ) PLANE_ANGLE_UNIT ( ) SI_UNIT ( $, .RADIAN. ) );
#338 = DIRECTION ( 'NONE',  ( 1.000000000000000000, 0.0000000000000000000, 0.0000000000000000000 ) ) ;
#339 = EDGE_CURVE ( 'NONE', #241, #53, #119, .T. ) ;
#340 = DIRECTION ( 'NONE',  ( 0.0000000000000000000, 0.0000000000000000000, 1.000000000000000000 ) ) ;
#341 = PRODUCT_RELATED_PRODUCT_CATEGORY ( 'part', '', ( #95 ) ) ;
#342 = ORIENTED_EDGE ( 'NONE', *, *, #250, .T. ) ;
#343 = MECHANICAL_DESIGN_GEOMETRIC_PRESENTATION_REPRESENTATION (  '', ( #152 ), #165 ) ;
#344 = VERTEX_POINT ( 'NONE', #89 ) ;
#345 = DIRECTION ( 'NONE',  ( -1.000000000000000000, 0.0000000000000000000, 0.0000000000000000000 ) ) ;
#346 = CARTESIAN_POINT ( 'NONE',  ( 0.0000000000000000000, 0.0000000000000000000, 1.984999999999999654 ) ) ;
#347 = EDGE_CURVE ( 'NONE', #282, #232, #196, .T. ) ;
#348 = UNCERTAINTY_MEASURE_WITH_UNIT (LENGTH_MEASURE( 1.000000000000000082E-05 ), #179, 'distance_accuracy_value', 'NONE');
#349 = CONICAL_SURFACE ( 'NONE', #158, 0.09365624999999999645, 0.1745329251994338360 ) ;
#350 = CARTESIAN_POINT ( 'NONE',  ( 0.0000000000000000000, 0.0000000000000000000, 0.0000000000000000000 ) ) ;
#351 = EDGE_LOOP ( 'NONE', ( #309, #105 ) ) ;
ENDSEC;
END-ISO-10303-21;
