ISO-10303-21;
HEADER;
FILE_DESCRIPTION (( 'STEP AP214' ),
    '1' );
FILE_NAME ('Micro_SME-006-2X.STEP',
    '2021-09-02T09:38:53',
    ( '' ),
    ( '' ),
    'SwSTEP 2.0',
    'SolidWorks 2020',
    '' );
FILE_SCHEMA (( 'AUTOMOTIVE_DESIGN' ));
ENDSEC;

DATA;
#1 = CARTESIAN_POINT ( 'NONE',  ( 0.0000000000000000000, 0.0000000000000000000, 1.500000000000000222 ) ) ;
#2 = CIRCLE ( 'NONE', #121, 0.002996999999999999664 ) ;
#3 = VECTOR ( 'NONE', #186, 39.37007874015748854 ) ;
#4 = PLANE ( 'NONE',  #271 ) ;
#5 = ORIENTED_EDGE ( 'NONE', *, *, #288, .T. ) ;
#6 =( LENGTH_UNIT ( ) NAMED_UNIT ( * ) SI_UNIT ( $, .METRE. ) );
#7 =( CONVERSION_BASED_UNIT ( 'INCH', #60 ) LENGTH_UNIT ( ) NAMED_UNIT ( #103 ) );
#8 = CONICAL_SURFACE ( 'NONE', #256, 0.04750000000000064587, 0.7853981633974466137 ) ;
#9 = APPLICATION_PROTOCOL_DEFINITION ( 'draft international standard', 'automotive_design', 1998, #219 ) ;
#10 = ADVANCED_FACE ( 'NONE', ( #272 ), #294, .T. ) ;
#11 = CARTESIAN_POINT ( 'NONE',  ( 0.0000000000000000000, 0.0000000000000000000, 1.500000000000000222 ) ) ;
#12 = DIRECTION ( 'NONE',  ( 0.0000000000000000000, 0.0000000000000000000, 1.000000000000000000 ) ) ;
#13 = PRODUCT_RELATED_PRODUCT_CATEGORY ( 'part', '', ( #214 ) ) ;
#14 = DIRECTION ( 'NONE',  ( 1.000000000000000000, 0.0000000000000000000, 0.0000000000000000000 ) ) ;
#15 = PRODUCT_CONTEXT ( 'NONE', #237, 'mechanical' ) ;
#16 = ORIENTED_EDGE ( 'NONE', *, *, #104, .F. ) ;
#17 = CIRCLE ( 'NONE', #238, 0.04750000000000064587 ) ;
#18 = EDGE_LOOP ( 'NONE', ( #149, #246 ) ) ;
#19 = DIRECTION ( 'NONE',  ( 0.7071067811865462405, 8.659560562354916834E-17, -0.7071067811865486830 ) ) ;
#20 = EDGE_CURVE ( 'NONE', #193, #249, #89, .T. ) ;
#21 = ORIENTED_EDGE ( 'NONE', *, *, #166, .T. ) ;
#22 = DIRECTION ( 'NONE',  ( 1.000000000000000000, 0.0000000000000000000, 0.0000000000000000000 ) ) ;
#23 = CARTESIAN_POINT ( 'NONE',  ( -0.002997000000000000965, 0.0000000000000000000, 3.670266457044620039E-19 ) ) ;
#24 = ORIENTED_EDGE ( 'NONE', *, *, #55, .T. ) ;
#25 = ORIENTED_EDGE ( 'NONE', *, *, #204, .T. ) ;
#26 = ORIENTED_EDGE ( 'NONE', *, *, #40, .F. ) ;
#27 = EDGE_CURVE ( 'NONE', #243, #90, #296, .T. ) ;
#28 = FACE_OUTER_BOUND ( 'NONE', #51, .T. ) ;
#29 = DIRECTION ( 'NONE',  ( 1.224646799147353700E-16, 0.0000000000000000000, 1.000000000000000000 ) ) ;
#30 = VECTOR ( 'NONE', #293, 39.37007874015748143 ) ;
#31 = ORIENTED_EDGE ( 'NONE', *, *, #57, .F. ) ;
#32 = DIRECTION ( 'NONE',  ( -0.0000000000000000000, -0.0000000000000000000, -1.000000000000000000 ) ) ;
#33 = UNCERTAINTY_MEASURE_WITH_UNIT (LENGTH_MEASURE( 1.000000000000000082E-05 ), #7, 'distance_accuracy_value', 'NONE');
#34 = CONICAL_SURFACE ( 'NONE', #110, 0.002996999999999999664, 0.1745329251994338915 ) ;
#35 = DIRECTION ( 'NONE',  ( -1.000000000000000000, 0.0000000000000000000, 0.0000000000000000000 ) ) ;
#36 = CARTESIAN_POINT ( 'NONE',  ( -0.002996999999999998797, 3.670266457044617150E-19, 0.008999999999999999320 ) ) ;
#37 = LENGTH_MEASURE_WITH_UNIT ( LENGTH_MEASURE( 0.02539999999999999897 ), #285 );
#38 = EDGE_CURVE ( 'NONE', #90, #243, #159, .T. ) ;
#39 = VECTOR ( 'NONE', #189, 39.37007874015748143 ) ;
#40 = EDGE_CURVE ( 'NONE', #215, #145, #2, .T. ) ;
#41 = ORIENTED_EDGE ( 'NONE', *, *, #38, .F. ) ;
#42 = ORIENTED_EDGE ( 'NONE', *, *, #190, .F. ) ;
#43 = LINE ( 'NONE', #126, #99 ) ;
#44 = PRODUCT_DEFINITION_FORMATION_WITH_SPECIFIED_SOURCE ( 'ANY', '', #214, .NOT_KNOWN. ) ;
#45 = ORIENTED_EDGE ( 'NONE', *, *, #20, .T. ) ;
#46 = LINE ( 'NONE', #241, #39 ) ;
#47 = DIRECTION ( 'NONE',  ( -1.000000000000000000, 0.0000000000000000000, 0.0000000000000000000 ) ) ;
#48 = ORIENTED_EDGE ( 'NONE', *, *, #236, .F. ) ;
#49 = AXIS2_PLACEMENT_3D ( 'NONE', #282, #32, #35 ) ;
#50 = DIRECTION ( 'NONE',  ( 0.0000000000000000000, 0.0000000000000000000, -1.000000000000000000 ) ) ;
#51 = EDGE_LOOP ( 'NONE', ( #261, #262, #24, #41 ) ) ;
#52 =( NAMED_UNIT ( * ) PLANE_ANGLE_UNIT ( ) SI_UNIT ( $, .RADIAN. ) );
#53 = CARTESIAN_POINT ( 'NONE',  ( -0.04750000000000064587, 0.0000000000000000000, 1.500000000000000222 ) ) ;
#54 = STYLED_ITEM ( 'NONE', ( #250 ), #188 ) ;
#55 = EDGE_CURVE ( 'NONE', #145, #243, #109, .T. ) ;
#56 = LINE ( 'NONE', #102, #182 ) ;
#57 = EDGE_CURVE ( 'NONE', #277, #259, #162, .T. ) ;
#58 = SURFACE_SIDE_STYLE ('',( #206 ) ) ;
#59 = AXIS2_PLACEMENT_3D ( 'NONE', #107, #88, #270 ) ;
#60 = LENGTH_MEASURE_WITH_UNIT ( LENGTH_MEASURE( 0.02539999999999999897 ), #6 );
#61 = EDGE_CURVE ( 'NONE', #249, #193, #105, .T. ) ;
#62 = PRESENTATION_LAYER_ASSIGNMENT (  '', '', ( #54 ) ) ;
#63 = DIRECTION ( 'NONE',  ( -1.000000000000000000, 0.0000000000000000000, 0.0000000000000000000 ) ) ;
#64 = ORIENTED_EDGE ( 'NONE', *, *, #61, .T. ) ;
#65 = CARTESIAN_POINT ( 'NONE',  ( 0.0000000000000000000, 0.0000000000000000000, 1.500000000000000222 ) ) ;
#66 = ORIENTED_EDGE ( 'NONE', *, *, #73, .T. ) ;
#67 = CARTESIAN_POINT ( 'NONE',  ( -0.06249999999999997918, 0.0000000000000000000, 0.3464582821127109025 ) ) ;
#68 =( GEOMETRIC_REPRESENTATION_CONTEXT ( 3 ) GLOBAL_UNCERTAINTY_ASSIGNED_CONTEXT ( ( #139 ) ) GLOBAL_UNIT_ASSIGNED_CONTEXT ( ( #207, #299, #164 ) ) REPRESENTATION_CONTEXT ( 'NONE', 'WORKASPACE' ) );
#69 = CARTESIAN_POINT ( 'NONE',  ( 0.06250000000000002776, 7.654042494670959086E-18, 1.485000000000000764 ) ) ;
#70 = EDGE_LOOP ( 'NONE', ( #64, #66, #42, #267 ) ) ;
#71 = ADVANCED_FACE ( 'NONE', ( #298 ), #8, .T. ) ;
#72 = CARTESIAN_POINT ( 'NONE',  ( 0.0000000000000000000, 0.0000000000000000000, 1.500000000000000222 ) ) ;
#73 = EDGE_CURVE ( 'NONE', #193, #87, #56, .T. ) ;
#74 = DIRECTION ( 'NONE',  ( -1.224646799147353700E-16, -0.0000000000000000000, -1.000000000000000000 ) ) ;
#75 = SURFACE_SIDE_STYLE ('',( #276 ) ) ;
#76 = LINE ( 'NONE', #117, #125 ) ;
#77 = DIRECTION ( 'NONE',  ( -1.000000000000000000, 0.0000000000000000000, 1.224646799147353700E-16 ) ) ;
#78 = DIRECTION ( 'NONE',  ( -1.224646799147353700E-16, -0.0000000000000000000, -1.000000000000000000 ) ) ;
#79 = AXIS2_PLACEMENT_3D ( 'NONE', #201, #50, #158 ) ;
#80 = AXIS2_PLACEMENT_3D ( 'NONE', #254, #92, #22 ) ;
#81 =( LENGTH_UNIT ( ) NAMED_UNIT ( * ) SI_UNIT ( $, .METRE. ) );
#82 = CARTESIAN_POINT ( 'NONE',  ( -0.06250000000000002776, 0.0000000000000000000, 1.485000000000000764 ) ) ;
#83 = DIRECTION ( 'NONE',  ( 0.0000000000000000000, 0.0000000000000000000, 1.000000000000000000 ) ) ;
#84 = DIRECTION ( 'NONE',  ( 1.000000000000000000, 0.0000000000000000000, -0.0000000000000000000 ) ) ;
#85 = DIRECTION ( 'NONE',  ( -0.0000000000000000000, -0.0000000000000000000, -1.000000000000000000 ) ) ;
#86 = EDGE_LOOP ( 'NONE', ( #269, #45, #234, #223 ) ) ;
#87 = VERTEX_POINT ( 'NONE', #240 ) ;
#88 = DIRECTION ( 'NONE',  ( -1.224646799147353700E-16, -0.0000000000000000000, -1.000000000000000000 ) ) ;
#89 = CIRCLE ( 'NONE', #265, 0.06250000000000002776 ) ;
#90 = VERTEX_POINT ( 'NONE', #205 ) ;
#91 = CARTESIAN_POINT ( 'NONE',  ( 1.102182119232618142E-18, 0.0000000000000000000, 0.008999999999999999320 ) ) ;
#92 = DIRECTION ( 'NONE',  ( -1.224646799147353700E-16, -0.0000000000000000000, -1.000000000000000000 ) ) ;
#93 = AXIS2_PLACEMENT_3D ( 'NONE', #138, #229, #96 ) ;
#94 = CARTESIAN_POINT ( 'NONE',  ( 0.002997000000000000965, 0.0000000000000000000, 0.008999999999999999320 ) ) ;
#95 = CARTESIAN_POINT ( 'NONE',  ( 4.494780068637593816E-35, 0.0000000000000000000, 3.670266457044621484E-19 ) ) ;
#96 = DIRECTION ( 'NONE',  ( 1.000000000000000000, 0.0000000000000000000, 0.0000000000000000000 ) ) ;
#97 = FACE_OUTER_BOUND ( 'NONE', #211, .T. ) ;
#98 = UNCERTAINTY_MEASURE_WITH_UNIT (LENGTH_MEASURE( 1.000000000000000082E-05 ), #264, 'distance_accuracy_value', 'NONE');
#99 = VECTOR ( 'NONE', #19, 39.37007874015748854 ) ;
#100 = CARTESIAN_POINT ( 'NONE',  ( 0.0000000000000000000, 0.0000000000000000000, 1.500000000000000222 ) ) ;
#101 = FILL_AREA_STYLE ('',( #142 ) ) ;
#102 = CARTESIAN_POINT ( 'NONE',  ( 0.06250000000000002776, 7.654042494670959086E-18, 1.500000000000000222 ) ) ;
#103 = DIMENSIONAL_EXPONENTS ( 1.000000000000000000, 0.0000000000000000000, 0.0000000000000000000, 0.0000000000000000000, 0.0000000000000000000, 0.0000000000000000000, 0.0000000000000000000 ) ;
#104 = EDGE_CURVE ( 'NONE', #277, #193, #43, .T. ) ;
#105 = CIRCLE ( 'NONE', #79, 0.06250000000000002776 ) ;
#106 = CONICAL_SURFACE ( 'NONE', #148, 0.04750000000000064587, 0.7853981633974466137 ) ;
#107 = CARTESIAN_POINT ( 'NONE',  ( 4.242890262274222123E-17, 0.0000000000000000000, 0.3464582821127109025 ) ) ;
#108 = EDGE_LOOP ( 'NONE', ( #21, #5, #132, #113 ) ) ;
#109 = LINE ( 'NONE', #23, #170 ) ;
#110 = AXIS2_PLACEMENT_3D ( 'NONE', #258, #29, #120 ) ;
#111 = DIRECTION ( 'NONE',  ( 0.0000000000000000000, 0.0000000000000000000, -1.000000000000000000 ) ) ;
#112 = EDGE_LOOP ( 'NONE', ( #16, #174, #25, #154 ) ) ;
#113 = ORIENTED_EDGE ( 'NONE', *, *, #55, .F. ) ;
#114 = DIRECTION ( 'NONE',  ( 1.000000000000000000, 0.0000000000000000000, -0.0000000000000000000 ) ) ;
#115 = SURFACE_STYLE_USAGE ( .BOTH. , #58 ) ;
#116 = DIRECTION ( 'NONE',  ( 1.000000000000000000, 0.0000000000000000000, 0.0000000000000000000 ) ) ;
#117 = CARTESIAN_POINT ( 'NONE',  ( 0.002997000000000000965, 3.670266457044618595E-19, -3.670266457044620039E-19 ) ) ;
#118 = EDGE_CURVE ( 'NONE', #87, #123, #135, .T. ) ;
#119 = CYLINDRICAL_SURFACE ( 'NONE', #49, 0.06250000000000002776 ) ;
#120 = DIRECTION ( 'NONE',  ( 1.000000000000000000, 0.0000000000000000000, 0.0000000000000000000 ) ) ;
#121 = AXIS2_PLACEMENT_3D ( 'NONE', #91, #177, #47 ) ;
#122 = MECHANICAL_DESIGN_GEOMETRIC_PRESENTATION_REPRESENTATION (  '', ( #216 ), #68 ) ;
#123 = VERTEX_POINT ( 'NONE', #67 ) ;
#124 = CARTESIAN_POINT ( 'NONE',  ( 0.0000000000000000000, 0.0000000000000000000, 1.500000000000000222 ) ) ;
#125 = VECTOR ( 'NONE', #251, 39.37007874015748143 ) ;
#126 = CARTESIAN_POINT ( 'NONE',  ( 0.04750000000000064587, 5.817072295950006528E-18, 1.500000000000000222 ) ) ;
#127 = DIMENSIONAL_EXPONENTS ( 1.000000000000000000, 0.0000000000000000000, 0.0000000000000000000, 0.0000000000000000000, 0.0000000000000000000, 0.0000000000000000000, 0.0000000000000000000 ) ;
#128 = FACE_OUTER_BOUND ( 'NONE', #70, .T. ) ;
#129 = DIRECTION ( 'NONE',  ( 1.000000000000000000, 0.0000000000000000000, 0.0000000000000000000 ) ) ;
#130 = CLOSED_SHELL ( 'NONE', ( #10, #228, #71, #161, #268, #286, #146, #263, #290, #257 ) ) ;
#131 = CYLINDRICAL_SURFACE ( 'NONE', #167, 0.06250000000000002776 ) ;
#132 = ORIENTED_EDGE ( 'NONE', *, *, #27, .F. ) ;
#133 = DIRECTION ( 'NONE',  ( -1.000000000000000000, 0.0000000000000000000, 0.0000000000000000000 ) ) ;
#134 = ORIENTED_EDGE ( 'NONE', *, *, #183, .T. ) ;
#135 = CIRCLE ( 'NONE', #59, 0.06250000000000002776 ) ;
#136 = DIRECTION ( 'NONE',  ( -0.0000000000000000000, -0.0000000000000000000, -1.000000000000000000 ) ) ;
#137 = DIRECTION ( 'NONE',  ( -1.224646799147353700E-16, -0.0000000000000000000, -1.000000000000000000 ) ) ;
#138 = CARTESIAN_POINT ( 'NONE',  ( 1.102182119232618142E-18, 0.0000000000000000000, 0.008999999999999999320 ) ) ;
#139 = UNCERTAINTY_MEASURE_WITH_UNIT (LENGTH_MEASURE( 1.000000000000000082E-05 ), #207, 'distance_accuracy_value', 'NONE');
#140 = CARTESIAN_POINT ( 'NONE',  ( 0.04750000000000064587, 6.735557395310483192E-18, 1.500000000000000222 ) ) ;
#141 = ORIENTED_EDGE ( 'NONE', *, *, #61, .F. ) ;
#142 = FILL_AREA_STYLE_COLOUR ( '', #200 ) ;
#143 = AXIS2_PLACEMENT_3D ( 'NONE', #180, #213, #129 ) ;
#144 = PRESENTATION_LAYER_ASSIGNMENT (  '', '', ( #216 ) ) ;
#145 = VERTEX_POINT ( 'NONE', #150 ) ;
#146 = ADVANCED_FACE ( 'NONE', ( #152 ), #106, .T. ) ;
#147 = ORIENTED_EDGE ( 'NONE', *, *, #297, .T. ) ;
#148 = AXIS2_PLACEMENT_3D ( 'NONE', #65, #244, #63 ) ;
#149 = ORIENTED_EDGE ( 'NONE', *, *, #27, .T. ) ;
#150 = CARTESIAN_POINT ( 'NONE',  ( -0.002996999999999998797, 4.010534570187710810E-18, 0.008999999999999999320 ) ) ;
#151 = LINE ( 'NONE', #253, #3 ) ;
#152 = FACE_OUTER_BOUND ( 'NONE', #112, .T. ) ;
#153 =( NAMED_UNIT ( * ) SI_UNIT ( $, .STERADIAN. ) SOLID_ANGLE_UNIT ( ) );
#154 = ORIENTED_EDGE ( 'NONE', *, *, #20, .F. ) ;
#155 = EDGE_CURVE ( 'NONE', #249, #123, #46, .T. ) ;
#156 = DIRECTION ( 'NONE',  ( -1.224646799147353700E-16, -0.0000000000000000000, -1.000000000000000000 ) ) ;
#157 = ORIENTED_EDGE ( 'NONE', *, *, #104, .T. ) ;
#158 = DIRECTION ( 'NONE',  ( 1.000000000000000000, 0.0000000000000000000, 0.0000000000000000000 ) ) ;
#159 = CIRCLE ( 'NONE', #255, 0.002997000000000001833 ) ;
#160 = SURFACE_STYLE_USAGE ( .BOTH. , #75 ) ;
#161 = ADVANCED_FACE ( 'NONE', ( #128 ), #131, .T. ) ;
#162 = CIRCLE ( 'NONE', #194, 0.04750000000000064587 ) ;
#163 = AXIS2_PLACEMENT_3D ( 'NONE', #202, #78, #210 ) ;
#164 =( NAMED_UNIT ( * ) SI_UNIT ( $, .STERADIAN. ) SOLID_ANGLE_UNIT ( ) );
#165 = FACE_OUTER_BOUND ( 'NONE', #18, .T. ) ;
#166 = EDGE_CURVE ( 'NONE', #145, #215, #287, .T. ) ;
#167 = AXIS2_PLACEMENT_3D ( 'NONE', #11, #85, #279 ) ;
#168 = ORIENTED_EDGE ( 'NONE', *, *, #166, .F. ) ;
#169 = PRODUCT_DEFINITION_SHAPE ( 'NONE', 'NONE',  #274 ) ;
#170 = VECTOR ( 'NONE', #74, 39.37007874015748143 ) ;
#171 = AXIS2_PLACEMENT_3D ( 'NONE', #191, #83, #84 ) ;
#172 = DIRECTION ( 'NONE',  ( 0.0000000000000000000, 0.0000000000000000000, -1.000000000000000000 ) ) ;
#173 = ORIENTED_EDGE ( 'NONE', *, *, #190, .T. ) ;
#174 = ORIENTED_EDGE ( 'NONE', *, *, #297, .F. ) ;
#175 = MECHANICAL_DESIGN_GEOMETRIC_PRESENTATION_REPRESENTATION (  '', ( #54 ), #222 ) ;
#176 = EDGE_LOOP ( 'NONE', ( #31, #157, #141, #289 ) ) ;
#177 = DIRECTION ( 'NONE',  ( -1.224646799147353700E-16, -0.0000000000000000000, -1.000000000000000000 ) ) ;
#178 = CARTESIAN_POINT ( 'NONE',  ( 0.0000000000000000000, 0.0000000000000000000, 0.0000000000000000000 ) ) ;
#179 = FILL_AREA_STYLE ('',( #295 ) ) ;
#180 = CARTESIAN_POINT ( 'NONE',  ( 0.0000000000000000000, 0.0000000000000000000, 0.0000000000000000000 ) ) ;
#181 = PRESENTATION_STYLE_ASSIGNMENT (( #115 ) ) ;
#182 = VECTOR ( 'NONE', #136, 39.37007874015748143 ) ;
#183 = EDGE_CURVE ( 'NONE', #215, #87, #221, .T. ) ;
#184 = DIRECTION ( 'NONE',  ( -0.1736481776669311916, 2.126576849575783316E-17, 0.9848077530122080203 ) ) ;
#185 = DIRECTION ( 'NONE',  ( 0.0000000000000000000, 0.0000000000000000000, 1.000000000000000000 ) ) ;
#186 = DIRECTION ( 'NONE',  ( -0.7071067811865462405, 0.0000000000000000000, -0.7071067811865486830 ) ) ;
#187 = CONICAL_SURFACE ( 'NONE', #93, 0.002996999999999999664, 0.1745329251994338915 ) ;
#188 = ADVANCED_BREP_SHAPE_REPRESENTATION ( 'Micro_SME-006-2X', ( #224, #143 ), #248 ) ;
#189 = DIRECTION ( 'NONE',  ( -0.0000000000000000000, -0.0000000000000000000, -1.000000000000000000 ) ) ;
#190 = EDGE_CURVE ( 'NONE', #123, #87, #266, .T. ) ;
#191 = CARTESIAN_POINT ( 'NONE',  ( 0.0000000000000000000, 0.0000000000000000000, 0.0000000000000000000 ) ) ;
#192 = DIMENSIONAL_EXPONENTS ( 1.000000000000000000, 0.0000000000000000000, 0.0000000000000000000, 0.0000000000000000000, 0.0000000000000000000, 0.0000000000000000000, 0.0000000000000000000 ) ;
#193 = VERTEX_POINT ( 'NONE', #69 ) ;
#194 = AXIS2_PLACEMENT_3D ( 'NONE', #72, #230, #116 ) ;
#195 = AXIS2_PLACEMENT_3D ( 'NONE', #226, #156, #133 ) ;
#196 = DIRECTION ( 'NONE',  ( 1.000000000000000000, 0.0000000000000000000, 0.0000000000000000000 ) ) ;
#197 = ORIENTED_EDGE ( 'NONE', *, *, #57, .T. ) ;
#198 = DIRECTION ( 'NONE',  ( -1.000000000000000000, 0.0000000000000000000, 0.0000000000000000000 ) ) ;
#199 = CARTESIAN_POINT ( 'NONE',  ( 0.0000000000000000000, 0.0000000000000000000, 1.485000000000000764 ) ) ;
#200 = COLOUR_RGB ( '',0.7921568627450980005, 0.8196078431372548767, 0.9333333333333333481 ) ;
#201 = CARTESIAN_POINT ( 'NONE',  ( 0.0000000000000000000, 0.0000000000000000000, 1.485000000000000764 ) ) ;
#202 = CARTESIAN_POINT ( 'NONE',  ( 0.0000000000000000000, 0.0000000000000000000, 0.0000000000000000000 ) ) ;
#203 = PRODUCT_DEFINITION_CONTEXT ( 'detailed design', #219, 'design' ) ;
#204 = EDGE_CURVE ( 'NONE', #259, #249, #151, .T. ) ;
#205 = CARTESIAN_POINT ( 'NONE',  ( 0.002997000000000001833, 3.670266457044619076E-19, 5.923751059261921468E-35 ) ) ;
#206 = SURFACE_STYLE_FILL_AREA ( #101 ) ;
#207 =( CONVERSION_BASED_UNIT ( 'INCH', #231 ) LENGTH_UNIT ( ) NAMED_UNIT ( #192 ) );
#208 = FACE_OUTER_BOUND ( 'NONE', #220, .T. ) ;
#209 = ORIENTED_EDGE ( 'NONE', *, *, #236, .T. ) ;
#210 = DIRECTION ( 'NONE',  ( -1.000000000000000000, 0.0000000000000000000, 1.224646799147353700E-16 ) ) ;
#211 = EDGE_LOOP ( 'NONE', ( #147, #197 ) ) ;
#212 = PLANE ( 'NONE',  #171 ) ;
#213 = DIRECTION ( 'NONE',  ( 0.0000000000000000000, 0.0000000000000000000, 1.000000000000000000 ) ) ;
#214 = PRODUCT ( 'Micro_SME-006-2X', 'Micro_SME-006-2X', '', ( #15 ) ) ;
#215 = VERTEX_POINT ( 'NONE', #281 ) ;
#216 = STYLED_ITEM ( 'NONE', ( #181 ), #224 ) ;
#217 = ORIENTED_EDGE ( 'NONE', *, *, #118, .T. ) ;
#218 = SHAPE_DEFINITION_REPRESENTATION ( #169, #188 ) ;
#219 = APPLICATION_CONTEXT ( 'automotive_design' ) ;
#220 = EDGE_LOOP ( 'NONE', ( #48, #26, #134, #217 ) ) ;
#221 = LINE ( 'NONE', #94, #30 ) ;
#222 =( GEOMETRIC_REPRESENTATION_CONTEXT ( 3 ) GLOBAL_UNCERTAINTY_ASSIGNED_CONTEXT ( ( #33 ) ) GLOBAL_UNIT_ASSIGNED_CONTEXT ( ( #7, #52, #153 ) ) REPRESENTATION_CONTEXT ( 'NONE', 'WORKASPACE' ) );
#223 = ORIENTED_EDGE ( 'NONE', *, *, #118, .F. ) ;
#224 = MANIFOLD_SOLID_BREP ( 'Cut-Revolve1', #130 ) ;
#225 = ORIENTED_EDGE ( 'NONE', *, *, #183, .F. ) ;
#226 = CARTESIAN_POINT ( 'NONE',  ( 1.102182119232618142E-18, 0.0000000000000000000, 0.008999999999999999320 ) ) ;
#227 = EDGE_LOOP ( 'NONE', ( #168, #209, #173, #225 ) ) ;
#228 = ADVANCED_FACE ( 'NONE', ( #235 ), #34, .T. ) ;
#229 = DIRECTION ( 'NONE',  ( 1.224646799147353700E-16, 0.0000000000000000000, 1.000000000000000000 ) ) ;
#230 = DIRECTION ( 'NONE',  ( 0.0000000000000000000, 0.0000000000000000000, 1.000000000000000000 ) ) ;
#231 = LENGTH_MEASURE_WITH_UNIT ( LENGTH_MEASURE( 0.02539999999999999897 ), #81 );
#232 = LINE ( 'NONE', #36, #242 ) ;
#233 = AXIS2_PLACEMENT_3D ( 'NONE', #95, #292, #77 ) ;
#234 = ORIENTED_EDGE ( 'NONE', *, *, #155, .T. ) ;
#235 = FACE_OUTER_BOUND ( 'NONE', #227, .T. ) ;
#236 = EDGE_CURVE ( 'NONE', #145, #123, #232, .T. ) ;
#237 = APPLICATION_CONTEXT ( 'automotive_design' ) ;
#238 = AXIS2_PLACEMENT_3D ( 'NONE', #124, #12, #14 ) ;
#239 = APPLICATION_PROTOCOL_DEFINITION ( 'draft international standard', 'automotive_design', 1998, #237 ) ;
#240 = CARTESIAN_POINT ( 'NONE',  ( 0.06250000000000006939, 7.654042494670963708E-18, 0.3464582821127109025 ) ) ;
#241 = CARTESIAN_POINT ( 'NONE',  ( -0.06250000000000002776, 0.0000000000000000000, 1.500000000000000222 ) ) ;
#242 = VECTOR ( 'NONE', #184, 39.37007874015747433 ) ;
#243 = VERTEX_POINT ( 'NONE', #283 ) ;
#244 = DIRECTION ( 'NONE',  ( 0.0000000000000000000, 0.0000000000000000000, -1.000000000000000000 ) ) ;
#245 = DIRECTION ( 'NONE',  ( -1.000000000000000000, 0.0000000000000000000, 1.224646799147353700E-16 ) ) ;
#246 = ORIENTED_EDGE ( 'NONE', *, *, #38, .T. ) ;
#247 =( NAMED_UNIT ( * ) PLANE_ANGLE_UNIT ( ) SI_UNIT ( $, .RADIAN. ) );
#248 =( GEOMETRIC_REPRESENTATION_CONTEXT ( 3 ) GLOBAL_UNCERTAINTY_ASSIGNED_CONTEXT ( ( #98 ) ) GLOBAL_UNIT_ASSIGNED_CONTEXT ( ( #264, #247, #291 ) ) REPRESENTATION_CONTEXT ( 'NONE', 'WORKASPACE' ) );
#249 = VERTEX_POINT ( 'NONE', #82 ) ;
#250 = PRESENTATION_STYLE_ASSIGNMENT (( #160 ) ) ;
#251 = DIRECTION ( 'NONE',  ( -1.224646799147353700E-16, -0.0000000000000000000, -1.000000000000000000 ) ) ;
#252 = CARTESIAN_POINT ( 'NONE',  ( 4.494780068637593816E-35, 0.0000000000000000000, 3.670266457044621484E-19 ) ) ;
#253 = CARTESIAN_POINT ( 'NONE',  ( -0.04750000000000064587, 0.0000000000000000000, 1.500000000000000222 ) ) ;
#254 = CARTESIAN_POINT ( 'NONE',  ( 4.242890262274222123E-17, 0.0000000000000000000, 0.3464582821127109025 ) ) ;
#255 = AXIS2_PLACEMENT_3D ( 'NONE', #252, #137, #245 ) ;
#256 = AXIS2_PLACEMENT_3D ( 'NONE', #1, #172, #198 ) ;
#257 = ADVANCED_FACE ( 'NONE', ( #165 ), #212, .F. ) ;
#258 = CARTESIAN_POINT ( 'NONE',  ( 1.102182119232618142E-18, 0.0000000000000000000, 0.008999999999999999320 ) ) ;
#259 = VERTEX_POINT ( 'NONE', #53 ) ;
#260 = COLOUR_RGB ( '',0.7921568627450980005, 0.8196078431372548767, 0.9333333333333333481 ) ;
#261 = ORIENTED_EDGE ( 'NONE', *, *, #288, .F. ) ;
#262 = ORIENTED_EDGE ( 'NONE', *, *, #40, .T. ) ;
#263 = ADVANCED_FACE ( 'NONE', ( #208 ), #187, .T. ) ;
#264 =( CONVERSION_BASED_UNIT ( 'INCH', #37 ) LENGTH_UNIT ( ) NAMED_UNIT ( #127 ) );
#265 = AXIS2_PLACEMENT_3D ( 'NONE', #199, #111, #196 ) ;
#266 = CIRCLE ( 'NONE', #80, 0.06250000000000002776 ) ;
#267 = ORIENTED_EDGE ( 'NONE', *, *, #155, .F. ) ;
#268 = ADVANCED_FACE ( 'NONE', ( #280 ), #119, .T. ) ;
#269 = ORIENTED_EDGE ( 'NONE', *, *, #73, .F. ) ;
#270 = DIRECTION ( 'NONE',  ( 1.000000000000000000, 0.0000000000000000000, 0.0000000000000000000 ) ) ;
#271 = AXIS2_PLACEMENT_3D ( 'NONE', #100, #185, #114 ) ;
#272 = FACE_OUTER_BOUND ( 'NONE', #108, .T. ) ;
#273 = DIRECTION ( 'NONE',  ( -1.000000000000000000, 0.0000000000000000000, 1.224646799147353700E-16 ) ) ;
#274 = PRODUCT_DEFINITION ( 'UNKNOWN', '', #44, #203 ) ;
#275 = DIRECTION ( 'NONE',  ( -1.224646799147353700E-16, -0.0000000000000000000, -1.000000000000000000 ) ) ;
#276 = SURFACE_STYLE_FILL_AREA ( #179 ) ;
#277 = VERTEX_POINT ( 'NONE', #140 ) ;
#278 = CYLINDRICAL_SURFACE ( 'NONE', #163, 0.002997000000000000965 ) ;
#279 = DIRECTION ( 'NONE',  ( -1.000000000000000000, 0.0000000000000000000, 0.0000000000000000000 ) ) ;
#280 = FACE_OUTER_BOUND ( 'NONE', #86, .T. ) ;
#281 = CARTESIAN_POINT ( 'NONE',  ( 0.002997000000000000965, 0.0000000000000000000, 0.008999999999999999320 ) ) ;
#282 = CARTESIAN_POINT ( 'NONE',  ( 0.0000000000000000000, 0.0000000000000000000, 1.500000000000000222 ) ) ;
#283 = CARTESIAN_POINT ( 'NONE',  ( -0.002997000000000001833, 0.0000000000000000000, 7.340532914089242967E-19 ) ) ;
#284 = AXIS2_PLACEMENT_3D ( 'NONE', #178, #275, #273 ) ;
#285 =( LENGTH_UNIT ( ) NAMED_UNIT ( * ) SI_UNIT ( $, .METRE. ) );
#286 = ADVANCED_FACE ( 'NONE', ( #97 ), #4, .T. ) ;
#287 = CIRCLE ( 'NONE', #195, 0.002996999999999999664 ) ;
#288 = EDGE_CURVE ( 'NONE', #215, #90, #76, .T. ) ;
#289 = ORIENTED_EDGE ( 'NONE', *, *, #204, .F. ) ;
#290 = ADVANCED_FACE ( 'NONE', ( #28 ), #278, .T. ) ;
#291 =( NAMED_UNIT ( * ) SI_UNIT ( $, .STERADIAN. ) SOLID_ANGLE_UNIT ( ) );
#292 = DIRECTION ( 'NONE',  ( -1.224646799147353700E-16, -0.0000000000000000000, -1.000000000000000000 ) ) ;
#293 = DIRECTION ( 'NONE',  ( 0.1736481776669313859, 0.0000000000000000000, 0.9848077530122077983 ) ) ;
#294 = CYLINDRICAL_SURFACE ( 'NONE', #284, 0.002997000000000000965 ) ;
#295 = FILL_AREA_STYLE_COLOUR ( '', #260 ) ;
#296 = CIRCLE ( 'NONE', #233, 0.002997000000000001833 ) ;
#297 = EDGE_CURVE ( 'NONE', #259, #277, #17, .T. ) ;
#298 = FACE_OUTER_BOUND ( 'NONE', #176, .T. ) ;
#299 =( NAMED_UNIT ( * ) PLANE_ANGLE_UNIT ( ) SI_UNIT ( $, .RADIAN. ) );
ENDSEC;
END-ISO-10303-21;
