ISO-10303-21;
HEADER;
FILE_DESCRIPTION (( 'STEP AP214' ),
    '1' );
FILE_NAME ('Micro_RDB-50.STEP',
    '2021-08-31T17:00:04',
    ( '' ),
    ( '' ),
    'SwSTEP 2.0',
    'SolidWorks 2020',
    '' );
FILE_SCHEMA (( 'AUTOMOTIVE_DESIGN' ));
ENDSEC;

DATA;
#1 =( GEOMETRIC_REPRESENTATION_CONTEXT ( 3 ) GLOBAL_UNCERTAINTY_ASSIGNED_CONTEXT ( ( #211 ) ) GLOBAL_UNIT_ASSIGNED_CONTEXT ( ( #291, #241, #128 ) ) REPRESENTATION_CONTEXT ( 'NONE', 'WORKASPACE' ) );
#2 = ORIENTED_EDGE ( 'NONE', *, *, #94, .T. ) ;
#3 = CARTESIAN_POINT ( 'NONE',  ( 9.830965331808376686E-17, 0.0000000000000000000, 0.8027592395336416997 ) ) ;
#4 = ORIENTED_EDGE ( 'NONE', *, *, #85, .T. ) ;
#5 = DIRECTION ( 'NONE',  ( 0.0000000000000000000, 0.0000000000000000000, 1.000000000000000000 ) ) ;
#6 = DIRECTION ( 'NONE',  ( 1.000000000000000000, 0.0000000000000000000, 0.0000000000000000000 ) ) ;
#7 = DIRECTION ( 'NONE',  ( -1.000000000000000000, 0.0000000000000000000, 0.0000000000000000000 ) ) ;
#8 = ORIENTED_EDGE ( 'NONE', *, *, #284, .F. ) ;
#9 = DIRECTION ( 'NONE',  ( -1.224646799147353207E-16, -0.0000000000000000000, -1.000000000000000000 ) ) ;
#10 = DIRECTION ( 'NONE',  ( -1.224646799147353207E-16, -0.0000000000000000000, -1.000000000000000000 ) ) ;
#11 = DIRECTION ( 'NONE',  ( 0.1736481776669314414, 0.0000000000000000000, 0.9848077530122077983 ) ) ;
#12 = AXIS2_PLACEMENT_3D ( 'NONE', #26, #107, #6 ) ;
#13 = FILL_AREA_STYLE_COLOUR ( '', #245 ) ;
#14 = VERTEX_POINT ( 'NONE', #78 ) ;
#15 = SURFACE_SIDE_STYLE ('',( #195 ) ) ;
#16 = ADVANCED_FACE ( 'NONE', ( #109 ), #271, .T. ) ;
#17 = FACE_OUTER_BOUND ( 'NONE', #230, .T. ) ;
#18 = DIRECTION ( 'NONE',  ( -0.0000000000000000000, -0.0000000000000000000, -1.000000000000000000 ) ) ;
#19 = CIRCLE ( 'NONE', #41, 0.1250000000000000000 ) ;
#20 = AXIS2_PLACEMENT_3D ( 'NONE', #196, #209, #77 ) ;
#21 = AXIS2_PLACEMENT_3D ( 'NONE', #51, #59, #147 ) ;
#22 = ORIENTED_EDGE ( 'NONE', *, *, #40, .T. ) ;
#23 = ORIENTED_EDGE ( 'NONE', *, *, #259, .F. ) ;
#24 = CYLINDRICAL_SURFACE ( 'NONE', #55, 0.1250000000000000000 ) ;
#25 = ORIENTED_EDGE ( 'NONE', *, *, #160, .F. ) ;
#26 = CARTESIAN_POINT ( 'NONE',  ( 7.654042494670957853E-17, 0.0000000000000000000, 0.6250000000000000000 ) ) ;
#27 = UNCERTAINTY_MEASURE_WITH_UNIT (LENGTH_MEASURE( 1.000000000000000082E-05 ), #79, 'distance_accuracy_value', 'NONE');
#28 = VECTOR ( 'NONE', #110, 39.37007874015748143 ) ;
#29 = DIRECTION ( 'NONE',  ( -0.0000000000000000000, -0.0000000000000000000, -1.000000000000000000 ) ) ;
#30 = DIRECTION ( 'NONE',  ( -1.000000000000000000, 0.0000000000000000000, 1.224646799147352961E-16 ) ) ;
#31 = SURFACE_STYLE_FILL_AREA ( #143 ) ;
#32 = ORIENTED_EDGE ( 'NONE', *, *, #249, .T. ) ;
#33 = LINE ( 'NONE', #275, #272 ) ;
#34 = CARTESIAN_POINT ( 'NONE',  ( -0.09365624999999999645, 0.0000000000000000000, 1.146958267826442798E-17 ) ) ;
#35 = VERTEX_POINT ( 'NONE', #197 ) ;
#36 = COLOUR_RGB ( '',0.7921568627450980005, 0.8196078431372548767, 0.9333333333333333481 ) ;
#37 = EDGE_CURVE ( 'NONE', #244, #200, #54, .T. ) ;
#38 = FACE_OUTER_BOUND ( 'NONE', #293, .T. ) ;
#39 = DIRECTION ( 'NONE',  ( 1.000000000000000000, 0.0000000000000000000, 0.0000000000000000000 ) ) ;
#40 = EDGE_CURVE ( 'NONE', #200, #258, #222, .T. ) ;
#41 = AXIS2_PLACEMENT_3D ( 'NONE', #296, #183, #67 ) ;
#42 = AXIS2_PLACEMENT_3D ( 'NONE', #63, #156, #265 ) ;
#43 =( GEOMETRIC_REPRESENTATION_CONTEXT ( 3 ) GLOBAL_UNCERTAINTY_ASSIGNED_CONTEXT ( ( #167 ) ) GLOBAL_UNIT_ASSIGNED_CONTEXT ( ( #87, #66, #225 ) ) REPRESENTATION_CONTEXT ( 'NONE', 'WORKASPACE' ) );
#44 = ORIENTED_EDGE ( 'NONE', *, *, #96, .F. ) ;
#45 = ORIENTED_EDGE ( 'NONE', *, *, #252, .T. ) ;
#46 = EDGE_LOOP ( 'NONE', ( #221, #2, #153, #44 ) ) ;
#47 = ADVANCED_FACE ( 'NONE', ( #214 ), #228, .T. ) ;
#48 = CONICAL_SURFACE ( 'NONE', #256, 0.1099999999999996397, 0.7853981633974426169 ) ;
#49 = FACE_OUTER_BOUND ( 'NONE', #177, .T. ) ;
#50 = PRODUCT_DEFINITION_CONTEXT ( 'detailed design', #180, 'design' ) ;
#51 = CARTESIAN_POINT ( 'NONE',  ( 7.654042494670957853E-17, 0.0000000000000000000, 0.6250000000000000000 ) ) ;
#52 = CYLINDRICAL_SURFACE ( 'NONE', #253, 0.09365624999999999645 ) ;
#53 = LINE ( 'NONE', #34, #219 ) ;
#54 = LINE ( 'NONE', #132, #116 ) ;
#55 = AXIS2_PLACEMENT_3D ( 'NONE', #262, #212, #7 ) ;
#56 = DIRECTION ( 'NONE',  ( 1.000000000000000000, 0.0000000000000000000, 0.0000000000000000000 ) ) ;
#57 = CARTESIAN_POINT ( 'NONE',  ( 0.0000000000000000000, 0.0000000000000000000, 0.0000000000000000000 ) ) ;
#58 = SURFACE_STYLE_USAGE ( .BOTH. , #15 ) ;
#59 = DIRECTION ( 'NONE',  ( -1.224646799147353207E-16, -0.0000000000000000000, -1.000000000000000000 ) ) ;
#60 = VERTEX_POINT ( 'NONE', #294 ) ;
#61 = PRODUCT_DEFINITION ( 'UNKNOWN', '', #208, #50 ) ;
#62 = CARTESIAN_POINT ( 'NONE',  ( 0.0000000000000000000, 0.0000000000000000000, 2.000000000000000000 ) ) ;
#63 = CARTESIAN_POINT ( 'NONE',  ( 0.0000000000000000000, 0.0000000000000000000, 2.000000000000000000 ) ) ;
#64 = AXIS2_PLACEMENT_3D ( 'NONE', #174, #179, #270 ) ;
#65 = AXIS2_PLACEMENT_3D ( 'NONE', #216, #5, #84 ) ;
#66 =( NAMED_UNIT ( * ) PLANE_ANGLE_UNIT ( ) SI_UNIT ( $, .RADIAN. ) );
#67 = DIRECTION ( 'NONE',  ( 1.000000000000000000, 0.0000000000000000000, 0.0000000000000000000 ) ) ;
#68 = EDGE_CURVE ( 'NONE', #199, #101, #172, .T. ) ;
#69 = CARTESIAN_POINT ( 'NONE',  ( 0.09365624999999999645, 1.146958267826442798E-17, -1.146958267826442798E-17 ) ) ;
#70 = PRODUCT ( 'Micro_RDB-50', 'Micro_RDB-50', '', ( #276 ) ) ;
#71 = SHAPE_DEFINITION_REPRESENTATION ( #277, #154 ) ;
#72 = MECHANICAL_DESIGN_GEOMETRIC_PRESENTATION_REPRESENTATION (  '', ( #226 ), #121 ) ;
#73 = ORIENTED_EDGE ( 'NONE', *, *, #135, .F. ) ;
#74 = ORIENTED_EDGE ( 'NONE', *, *, #207, .T. ) ;
#75 = CIRCLE ( 'NONE', #95, 0.1099999999999996397 ) ;
#76 = ORIENTED_EDGE ( 'NONE', *, *, #96, .T. ) ;
#77 = DIRECTION ( 'NONE',  ( -1.000000000000000000, 0.0000000000000000000, 1.224646799147352961E-16 ) ) ;
#78 = CARTESIAN_POINT ( 'NONE',  ( 0.1099999999999996397, 1.438959988998137757E-17, 2.000000000000000000 ) ) ;
#79 =( CONVERSION_BASED_UNIT ( 'INCH', #106 ) LENGTH_UNIT ( ) NAMED_UNIT ( #161 ) );
#80 = EDGE_LOOP ( 'NONE', ( #8, #210, #22, #268 ) ) ;
#81 = DIRECTION ( 'NONE',  ( 0.0000000000000000000, 0.0000000000000000000, -1.000000000000000000 ) ) ;
#82 =( NAMED_UNIT ( * ) PLANE_ANGLE_UNIT ( ) SI_UNIT ( $, .RADIAN. ) );
#83 = DIRECTION ( 'NONE',  ( -1.000000000000000000, 0.0000000000000000000, 0.0000000000000000000 ) ) ;
#84 = DIRECTION ( 'NONE',  ( 1.000000000000000000, 0.0000000000000000000, -0.0000000000000000000 ) ) ;
#85 = EDGE_CURVE ( 'NONE', #14, #244, #182, .T. ) ;
#86 = ORIENTED_EDGE ( 'NONE', *, *, #160, .T. ) ;
#87 =( CONVERSION_BASED_UNIT ( 'INCH', #287 ) LENGTH_UNIT ( ) NAMED_UNIT ( #251 ) );
#88 = ORIENTED_EDGE ( 'NONE', *, *, #207, .F. ) ;
#89 = PRESENTATION_STYLE_ASSIGNMENT (( #58 ) ) ;
#90 = CARTESIAN_POINT ( 'NONE',  ( 0.0000000000000000000, 0.0000000000000000000, 1.984999999999999432 ) ) ;
#91 = VECTOR ( 'NONE', #247, 39.37007874015748143 ) ;
#92 = CIRCLE ( 'NONE', #229, 0.09365624999999999645 ) ;
#93 = ADVANCED_FACE ( 'NONE', ( #17 ), #52, .T. ) ;
#94 = EDGE_CURVE ( 'NONE', #199, #258, #127, .T. ) ;
#95 = AXIS2_PLACEMENT_3D ( 'NONE', #292, #239, #257 ) ;
#96 = EDGE_CURVE ( 'NONE', #101, #60, #114, .T. ) ;
#97 = DIRECTION ( 'NONE',  ( 1.000000000000000000, 0.0000000000000000000, 0.0000000000000000000 ) ) ;
#98 = ORIENTED_EDGE ( 'NONE', *, *, #227, .T. ) ;
#99 = CIRCLE ( 'NONE', #254, 0.1250000000000000000 ) ;
#100 = PRODUCT_RELATED_PRODUCT_CATEGORY ( 'part', '', ( #70 ) ) ;
#101 = VERTEX_POINT ( 'NONE', #238 ) ;
#102 = AXIS2_PLACEMENT_3D ( 'NONE', #261, #289, #83 ) ;
#103 = LINE ( 'NONE', #288, #28 ) ;
#104 = VECTOR ( 'NONE', #10, 39.37007874015748143 ) ;
#105 = ORIENTED_EDGE ( 'NONE', *, *, #37, .T. ) ;
#106 = LENGTH_MEASURE_WITH_UNIT ( LENGTH_MEASURE( 0.02539999999999999897 ), #152 );
#107 = DIRECTION ( 'NONE',  ( 1.224646799147353207E-16, 0.0000000000000000000, 1.000000000000000000 ) ) ;
#108 = CARTESIAN_POINT ( 'NONE',  ( -0.09365624999999999645, 0.0000000000000000000, 2.293916535652885596E-17 ) ) ;
#109 = FACE_OUTER_BOUND ( 'NONE', #46, .T. ) ;
#110 = DIRECTION ( 'NONE',  ( 0.7071067811865434649, 8.659560562354883554E-17, -0.7071067811865515695 ) ) ;
#111 = CARTESIAN_POINT ( 'NONE',  ( 0.09365625000000003808, 0.0000000000000000000, 0.6250000000000000000 ) ) ;
#112 = VERTEX_POINT ( 'NONE', #123 ) ;
#113 = CARTESIAN_POINT ( 'NONE',  ( 0.0000000000000000000, 0.0000000000000000000, 1.984999999999999432 ) ) ;
#114 = LINE ( 'NONE', #111, #298 ) ;
#115 = DIRECTION ( 'NONE',  ( -1.000000000000000000, 0.0000000000000000000, 0.0000000000000000000 ) ) ;
#116 = VECTOR ( 'NONE', #151, 39.37007874015748143 ) ;
#117 = EDGE_CURVE ( 'NONE', #112, #200, #279, .T. ) ;
#118 = AXIS2_PLACEMENT_3D ( 'NONE', #264, #267, #56 ) ;
#119 = DIMENSIONAL_EXPONENTS ( 1.000000000000000000, 0.0000000000000000000, 0.0000000000000000000, 0.0000000000000000000, 0.0000000000000000000, 0.0000000000000000000, 0.0000000000000000000 ) ;
#120 = EDGE_LOOP ( 'NONE', ( #286, #280, #73, #232 ) ) ;
#121 =( GEOMETRIC_REPRESENTATION_CONTEXT ( 3 ) GLOBAL_UNCERTAINTY_ASSIGNED_CONTEXT ( ( #27 ) ) GLOBAL_UNIT_ASSIGNED_CONTEXT ( ( #79, #82, #206 ) ) REPRESENTATION_CONTEXT ( 'NONE', 'WORKASPACE' ) );
#122 = CARTESIAN_POINT ( 'NONE',  ( 0.0000000000000000000, 0.0000000000000000000, 2.000000000000000000 ) ) ;
#123 = CARTESIAN_POINT ( 'NONE',  ( 0.1250000000000000000, 1.530808498934191509E-17, 1.984999999999999432 ) ) ;
#124 = APPLICATION_CONTEXT ( 'automotive_design' ) ;
#125 = ORIENTED_EDGE ( 'NONE', *, *, #249, .F. ) ;
#126 = PLANE ( 'NONE',  #140 ) ;
#127 = LINE ( 'NONE', #217, #91 ) ;
#128 =( NAMED_UNIT ( * ) SI_UNIT ( $, .STERADIAN. ) SOLID_ANGLE_UNIT ( ) );
#129 = DIRECTION ( 'NONE',  ( -1.224646799147353207E-16, -0.0000000000000000000, -1.000000000000000000 ) ) ;
#130 = ORIENTED_EDGE ( 'NONE', *, *, #37, .F. ) ;
#131 = LENGTH_MEASURE_WITH_UNIT ( LENGTH_MEASURE( 0.02539999999999999897 ), #202 );
#132 = CARTESIAN_POINT ( 'NONE',  ( -0.1099999999999996397, 0.0000000000000000000, 2.000000000000000000 ) ) ;
#133 = FACE_OUTER_BOUND ( 'NONE', #120, .T. ) ;
#134 = AXIS2_PLACEMENT_3D ( 'NONE', #136, #278, #97 ) ;
#135 = EDGE_CURVE ( 'NONE', #258, #60, #19, .T. ) ;
#136 = CARTESIAN_POINT ( 'NONE',  ( 0.0000000000000000000, 0.0000000000000000000, 0.0000000000000000000 ) ) ;
#137 = AXIS2_PLACEMENT_3D ( 'NONE', #3, #165, #234 ) ;
#138 = EDGE_CURVE ( 'NONE', #244, #14, #75, .T. ) ;
#139 = ORIENTED_EDGE ( 'NONE', *, *, #235, .F. ) ;
#140 = AXIS2_PLACEMENT_3D ( 'NONE', #62, #158, #248 ) ;
#141 = PLANE ( 'NONE',  #65 ) ;
#142 = VERTEX_POINT ( 'NONE', #108 ) ;
#143 = FILL_AREA_STYLE ('',( #13 ) ) ;
#144 = DIRECTION ( 'NONE',  ( -1.224646799147353207E-16, -0.0000000000000000000, -1.000000000000000000 ) ) ;
#145 = AXIS2_PLACEMENT_3D ( 'NONE', #90, #201, #274 ) ;
#146 = MECHANICAL_DESIGN_GEOMETRIC_PRESENTATION_REPRESENTATION (  '', ( #184 ), #43 ) ;
#147 = DIRECTION ( 'NONE',  ( -1.000000000000000000, 0.0000000000000000000, 0.0000000000000000000 ) ) ;
#148 = CARTESIAN_POINT ( 'NONE',  ( -0.1250000000000000000, 0.0000000000000000000, 2.000000000000000000 ) ) ;
#149 = CARTESIAN_POINT ( 'NONE',  ( -0.1099999999999996397, 0.0000000000000000000, 2.000000000000000000 ) ) ;
#150 = FACE_OUTER_BOUND ( 'NONE', #236, .T. ) ;
#151 = DIRECTION ( 'NONE',  ( -0.7071067811865434649, 0.0000000000000000000, -0.7071067811865515695 ) ) ;
#152 =( LENGTH_UNIT ( ) NAMED_UNIT ( * ) SI_UNIT ( $, .METRE. ) );
#153 = ORIENTED_EDGE ( 'NONE', *, *, #135, .T. ) ;
#154 = ADVANCED_BREP_SHAPE_REPRESENTATION ( 'Micro_RDB-50', ( #213, #134 ), #1 ) ;
#155 = VECTOR ( 'NONE', #29, 39.37007874015748143 ) ;
#156 = DIRECTION ( 'NONE',  ( 0.0000000000000000000, 0.0000000000000000000, 1.000000000000000000 ) ) ;
#157 = CIRCLE ( 'NONE', #137, 0.1250000000000000000 ) ;
#158 = DIRECTION ( 'NONE',  ( 0.0000000000000000000, 0.0000000000000000000, 1.000000000000000000 ) ) ;
#159 = CIRCLE ( 'NONE', #233, 0.09365624999999999645 ) ;
#160 = EDGE_CURVE ( 'NONE', #14, #112, #103, .T. ) ;
#161 = DIMENSIONAL_EXPONENTS ( 1.000000000000000000, 0.0000000000000000000, 0.0000000000000000000, 0.0000000000000000000, 0.0000000000000000000, 0.0000000000000000000, 0.0000000000000000000 ) ;
#162 = ORIENTED_EDGE ( 'NONE', *, *, #94, .F. ) ;
#163 = ORIENTED_EDGE ( 'NONE', *, *, #218, .T. ) ;
#164 = ADVANCED_FACE ( 'NONE', ( #176 ), #285, .T. ) ;
#165 = DIRECTION ( 'NONE',  ( -1.224646799147353207E-16, -0.0000000000000000000, -1.000000000000000000 ) ) ;
#166 = EDGE_LOOP ( 'NONE', ( #32, #169 ) ) ;
#167 = UNCERTAINTY_MEASURE_WITH_UNIT (LENGTH_MEASURE( 1.000000000000000082E-05 ), #87, 'distance_accuracy_value', 'NONE');
#168 = DIRECTION ( 'NONE',  ( 0.0000000000000000000, 0.0000000000000000000, -1.000000000000000000 ) ) ;
#169 = ORIENTED_EDGE ( 'NONE', *, *, #235, .T. ) ;
#170 = ADVANCED_FACE ( 'NONE', ( #49 ), #48, .T. ) ;
#171 = ORIENTED_EDGE ( 'NONE', *, *, #252, .F. ) ;
#172 = CIRCLE ( 'NONE', #64, 0.09365624999999996869 ) ;
#173 = FACE_OUTER_BOUND ( 'NONE', #166, .T. ) ;
#174 = CARTESIAN_POINT ( 'NONE',  ( 7.654042494670957853E-17, 0.0000000000000000000, 0.6250000000000000000 ) ) ;
#175 = DIRECTION ( 'NONE',  ( -0.0000000000000000000, -0.0000000000000000000, -1.000000000000000000 ) ) ;
#176 = FACE_OUTER_BOUND ( 'NONE', #255, .T. ) ;
#177 = EDGE_LOOP ( 'NONE', ( #281, #86, #23, #130 ) ) ;
#178 = CYLINDRICAL_SURFACE ( 'NONE', #250, 0.1250000000000000000 ) ;
#179 = DIRECTION ( 'NONE',  ( -1.224646799147353207E-16, -0.0000000000000000000, -1.000000000000000000 ) ) ;
#180 = APPLICATION_CONTEXT ( 'automotive_design' ) ;
#181 =( LENGTH_UNIT ( ) NAMED_UNIT ( * ) SI_UNIT ( $, .METRE. ) );
#182 = CIRCLE ( 'NONE', #42, 0.1099999999999996397 ) ;
#183 = DIRECTION ( 'NONE',  ( -1.224646799147353207E-16, -0.0000000000000000000, -1.000000000000000000 ) ) ;
#184 = STYLED_ITEM ( 'NONE', ( #89 ), #154 ) ;
#185 = CARTESIAN_POINT ( 'NONE',  ( 1.404618771449245766E-33, 0.0000000000000000000, 1.146958267826442798E-17 ) ) ;
#186 = DIRECTION ( 'NONE',  ( -1.000000000000000000, 0.0000000000000000000, 1.224646799147352961E-16 ) ) ;
#187 = CONICAL_SURFACE ( 'NONE', #118, 0.09365624999999996869, 0.1745329251994339470 ) ;
#188 = APPLICATION_PROTOCOL_DEFINITION ( 'draft international standard', 'automotive_design', 1998, #180 ) ;
#189 = ORIENTED_EDGE ( 'NONE', *, *, #117, .F. ) ;
#190 = SURFACE_STYLE_USAGE ( .BOTH. , #237 ) ;
#191 = ORIENTED_EDGE ( 'NONE', *, *, #138, .T. ) ;
#192 = ADVANCED_FACE ( 'NONE', ( #173 ), #141, .F. ) ;
#193 = CARTESIAN_POINT ( 'NONE',  ( -0.1250000000000000000, 0.0000000000000000000, 1.984999999999999432 ) ) ;
#194 = ORIENTED_EDGE ( 'NONE', *, *, #138, .F. ) ;
#195 = SURFACE_STYLE_FILL_AREA ( #295 ) ;
#196 = CARTESIAN_POINT ( 'NONE',  ( 0.0000000000000000000, 0.0000000000000000000, 0.0000000000000000000 ) ) ;
#197 = CARTESIAN_POINT ( 'NONE',  ( 0.09365624999999999645, 1.146958267826442798E-17, 0.0000000000000000000 ) ) ;
#198 = PRESENTATION_STYLE_ASSIGNMENT (( #190 ) ) ;
#199 = VERTEX_POINT ( 'NONE', #260 ) ;
#200 = VERTEX_POINT ( 'NONE', #193 ) ;
#201 = DIRECTION ( 'NONE',  ( 0.0000000000000000000, 0.0000000000000000000, -1.000000000000000000 ) ) ;
#202 =( LENGTH_UNIT ( ) NAMED_UNIT ( * ) SI_UNIT ( $, .METRE. ) );
#203 = ORIENTED_EDGE ( 'NONE', *, *, #68, .T. ) ;
#204 = CIRCLE ( 'NONE', #21, 0.09365624999999996869 ) ;
#205 = ADVANCED_FACE ( 'NONE', ( #150 ), #187, .T. ) ;
#206 =( NAMED_UNIT ( * ) SI_UNIT ( $, .STERADIAN. ) SOLID_ANGLE_UNIT ( ) );
#207 = EDGE_CURVE ( 'NONE', #101, #199, #204, .T. ) ;
#208 = PRODUCT_DEFINITION_FORMATION_WITH_SPECIFIED_SOURCE ( 'ANY', '', #70, .NOT_KNOWN. ) ;
#209 = DIRECTION ( 'NONE',  ( -1.224646799147353207E-16, -0.0000000000000000000, -1.000000000000000000 ) ) ;
#210 = ORIENTED_EDGE ( 'NONE', *, *, #117, .T. ) ;
#211 = UNCERTAINTY_MEASURE_WITH_UNIT (LENGTH_MEASURE( 1.000000000000000082E-05 ), #291, 'distance_accuracy_value', 'NONE');
#212 = DIRECTION ( 'NONE',  ( -0.0000000000000000000, -0.0000000000000000000, -1.000000000000000000 ) ) ;
#213 = MANIFOLD_SOLID_BREP ( 'Cut-Revolve1', #297 ) ;
#214 = FACE_OUTER_BOUND ( 'NONE', #240, .T. ) ;
#215 = APPLICATION_PROTOCOL_DEFINITION ( 'draft international standard', 'automotive_design', 1998, #124 ) ;
#216 = CARTESIAN_POINT ( 'NONE',  ( 0.0000000000000000000, 0.0000000000000000000, 0.0000000000000000000 ) ) ;
#217 = CARTESIAN_POINT ( 'NONE',  ( -0.09365624999999991318, 1.146958267826442644E-17, 0.6250000000000000000 ) ) ;
#218 = EDGE_CURVE ( 'NONE', #199, #142, #53, .T. ) ;
#219 = VECTOR ( 'NONE', #129, 39.37007874015748143 ) ;
#220 = FACE_OUTER_BOUND ( 'NONE', #80, .T. ) ;
#221 = ORIENTED_EDGE ( 'NONE', *, *, #68, .F. ) ;
#222 = LINE ( 'NONE', #148, #155 ) ;
#223 = CARTESIAN_POINT ( 'NONE',  ( 1.404618771449245766E-33, 0.0000000000000000000, 1.146958267826442798E-17 ) ) ;
#224 = CARTESIAN_POINT ( 'NONE',  ( 0.0000000000000000000, 0.0000000000000000000, 2.000000000000000000 ) ) ;
#225 =( NAMED_UNIT ( * ) SI_UNIT ( $, .STERADIAN. ) SOLID_ANGLE_UNIT ( ) );
#226 = STYLED_ITEM ( 'NONE', ( #198 ), #213 ) ;
#227 = EDGE_CURVE ( 'NONE', #60, #258, #157, .T. ) ;
#228 = CONICAL_SURFACE ( 'NONE', #102, 0.1099999999999996397, 0.7853981633974426169 ) ;
#229 = AXIS2_PLACEMENT_3D ( 'NONE', #185, #269, #186 ) ;
#230 = EDGE_LOOP ( 'NONE', ( #171, #74, #163, #139 ) ) ;
#231 = ADVANCED_FACE ( 'NONE', ( #220 ), #24, .T. ) ;
#232 = ORIENTED_EDGE ( 'NONE', *, *, #40, .F. ) ;
#233 = AXIS2_PLACEMENT_3D ( 'NONE', #223, #9, #30 ) ;
#234 = DIRECTION ( 'NONE',  ( 1.000000000000000000, 0.0000000000000000000, 0.0000000000000000000 ) ) ;
#235 = EDGE_CURVE ( 'NONE', #35, #142, #92, .T. ) ;
#236 = EDGE_LOOP ( 'NONE', ( #162, #88, #76, #98 ) ) ;
#237 = SURFACE_SIDE_STYLE ('',( #31 ) ) ;
#238 = CARTESIAN_POINT ( 'NONE',  ( 0.09365625000000003808, 0.0000000000000000000, 0.6250000000000000000 ) ) ;
#239 = DIRECTION ( 'NONE',  ( 0.0000000000000000000, 0.0000000000000000000, 1.000000000000000000 ) ) ;
#240 = EDGE_LOOP ( 'NONE', ( #25, #194, #105, #189 ) ) ;
#241 =( NAMED_UNIT ( * ) PLANE_ANGLE_UNIT ( ) SI_UNIT ( $, .RADIAN. ) );
#242 = DIRECTION ( 'NONE',  ( -1.000000000000000000, 0.0000000000000000000, 1.224646799147352961E-16 ) ) ;
#243 = CARTESIAN_POINT ( 'NONE',  ( -0.1249999999999999029, 0.0000000000000000000, 0.8027592395336416997 ) ) ;
#244 = VERTEX_POINT ( 'NONE', #149 ) ;
#245 = COLOUR_RGB ( '',0.7921568627450980005, 0.8196078431372548767, 0.9333333333333333481 ) ;
#246 = LINE ( 'NONE', #69, #104 ) ;
#247 = DIRECTION ( 'NONE',  ( -0.1736481776669312194, 2.126576849575783625E-17, 0.9848077530122077983 ) ) ;
#248 = DIRECTION ( 'NONE',  ( 1.000000000000000000, 0.0000000000000000000, -0.0000000000000000000 ) ) ;
#249 = EDGE_CURVE ( 'NONE', #142, #35, #159, .T. ) ;
#250 = AXIS2_PLACEMENT_3D ( 'NONE', #224, #18, #115 ) ;
#251 = DIMENSIONAL_EXPONENTS ( 1.000000000000000000, 0.0000000000000000000, 0.0000000000000000000, 0.0000000000000000000, 0.0000000000000000000, 0.0000000000000000000, 0.0000000000000000000 ) ;
#252 = EDGE_CURVE ( 'NONE', #101, #35, #246, .T. ) ;
#253 = AXIS2_PLACEMENT_3D ( 'NONE', #57, #144, #242 ) ;
#254 = AXIS2_PLACEMENT_3D ( 'NONE', #113, #81, #39 ) ;
#255 = EDGE_LOOP ( 'NONE', ( #203, #45, #125, #263 ) ) ;
#256 = AXIS2_PLACEMENT_3D ( 'NONE', #122, #168, #282 ) ;
#257 = DIRECTION ( 'NONE',  ( 1.000000000000000000, 0.0000000000000000000, 0.0000000000000000000 ) ) ;
#258 = VERTEX_POINT ( 'NONE', #243 ) ;
#259 = EDGE_CURVE ( 'NONE', #200, #112, #99, .T. ) ;
#260 = CARTESIAN_POINT ( 'NONE',  ( -0.09365624999999991318, 1.338883383380317076E-17, 0.6250000000000000000 ) ) ;
#261 = CARTESIAN_POINT ( 'NONE',  ( 0.0000000000000000000, 0.0000000000000000000, 2.000000000000000000 ) ) ;
#262 = CARTESIAN_POINT ( 'NONE',  ( 0.0000000000000000000, 0.0000000000000000000, 2.000000000000000000 ) ) ;
#263 = ORIENTED_EDGE ( 'NONE', *, *, #218, .F. ) ;
#264 = CARTESIAN_POINT ( 'NONE',  ( 7.654042494670957853E-17, 0.0000000000000000000, 0.6250000000000000000 ) ) ;
#265 = DIRECTION ( 'NONE',  ( 1.000000000000000000, 0.0000000000000000000, 0.0000000000000000000 ) ) ;
#266 = FILL_AREA_STYLE_COLOUR ( '', #36 ) ;
#267 = DIRECTION ( 'NONE',  ( 1.224646799147353207E-16, 0.0000000000000000000, 1.000000000000000000 ) ) ;
#268 = ORIENTED_EDGE ( 'NONE', *, *, #227, .F. ) ;
#269 = DIRECTION ( 'NONE',  ( -1.224646799147353207E-16, -0.0000000000000000000, -1.000000000000000000 ) ) ;
#270 = DIRECTION ( 'NONE',  ( -1.000000000000000000, 0.0000000000000000000, 0.0000000000000000000 ) ) ;
#271 = CONICAL_SURFACE ( 'NONE', #12, 0.09365624999999996869, 0.1745329251994339470 ) ;
#272 = VECTOR ( 'NONE', #175, 39.37007874015748143 ) ;
#273 = ADVANCED_FACE ( 'NONE', ( #38 ), #126, .T. ) ;
#274 = DIRECTION ( 'NONE',  ( 1.000000000000000000, 0.0000000000000000000, 0.0000000000000000000 ) ) ;
#275 = CARTESIAN_POINT ( 'NONE',  ( 0.1250000000000000000, 1.530808498934191509E-17, 2.000000000000000000 ) ) ;
#276 = PRODUCT_CONTEXT ( 'NONE', #124, 'mechanical' ) ;
#277 = PRODUCT_DEFINITION_SHAPE ( 'NONE', 'NONE',  #61 ) ;
#278 = DIRECTION ( 'NONE',  ( 0.0000000000000000000, 0.0000000000000000000, 1.000000000000000000 ) ) ;
#279 = CIRCLE ( 'NONE', #145, 0.1250000000000000000 ) ;
#280 = ORIENTED_EDGE ( 'NONE', *, *, #284, .T. ) ;
#281 = ORIENTED_EDGE ( 'NONE', *, *, #85, .F. ) ;
#282 = DIRECTION ( 'NONE',  ( -1.000000000000000000, 0.0000000000000000000, 0.0000000000000000000 ) ) ;
#283 = PRESENTATION_LAYER_ASSIGNMENT (  '', '', ( #226 ) ) ;
#284 = EDGE_CURVE ( 'NONE', #112, #60, #33, .T. ) ;
#285 = CYLINDRICAL_SURFACE ( 'NONE', #20, 0.09365624999999999645 ) ;
#286 = ORIENTED_EDGE ( 'NONE', *, *, #259, .T. ) ;
#287 = LENGTH_MEASURE_WITH_UNIT ( LENGTH_MEASURE( 0.02539999999999999897 ), #181 );
#288 = CARTESIAN_POINT ( 'NONE',  ( 0.1099999999999996397, 1.347111479062084158E-17, 2.000000000000000000 ) ) ;
#289 = DIRECTION ( 'NONE',  ( 0.0000000000000000000, 0.0000000000000000000, -1.000000000000000000 ) ) ;
#290 = PRESENTATION_LAYER_ASSIGNMENT (  '', '', ( #184 ) ) ;
#291 =( CONVERSION_BASED_UNIT ( 'INCH', #131 ) LENGTH_UNIT ( ) NAMED_UNIT ( #119 ) );
#292 = CARTESIAN_POINT ( 'NONE',  ( 0.0000000000000000000, 0.0000000000000000000, 2.000000000000000000 ) ) ;
#293 = EDGE_LOOP ( 'NONE', ( #191, #4 ) ) ;
#294 = CARTESIAN_POINT ( 'NONE',  ( 0.1250000000000001110, 1.530808498934192742E-17, 0.8027592395336416997 ) ) ;
#295 = FILL_AREA_STYLE ('',( #266 ) ) ;
#296 = CARTESIAN_POINT ( 'NONE',  ( 9.830965331808376686E-17, 0.0000000000000000000, 0.8027592395336416997 ) ) ;
#297 = CLOSED_SHELL ( 'NONE', ( #164, #16, #170, #299, #231, #273, #47, #205, #93, #192 ) ) ;
#298 = VECTOR ( 'NONE', #11, 39.37007874015748143 ) ;
#299 = ADVANCED_FACE ( 'NONE', ( #133 ), #178, .T. ) ;
ENDSEC;
END-ISO-10303-21;
